  0
SECTION
  2
HEADER
  9
$ACADVER
  1
AC1009
  9
$INSBASE
 10
508.6531144362926966
 20
88.2679030300860319
 30
0.0
  9
$EXTMIN
 10
502.8990514441927075
 20
88.2624176059652257
 30
0.0
  9
$EXTMAX
 10
514.4071774283927425
 20
99.6379030300860222
 30
0.0
  9
$LIMMIN
 10
0.0
 20
0.0
  9
$LIMMAX
 10
11.6929133858000007
 20
8.2677165353999982
  9
$ORTHOMODE
 70
     1
  9
$REGENMODE
 70
     1
  9
$FILLMODE
 70
     1
  9
$QTEXTMODE
 70
     0
  9
$MIRRTEXT
 70
     0
  9
$DRAGMODE
 70
     2
  9
$LTSCALE
 40
0.6431102362
  9
$OSMODE
 70
  4095
  9
$ATTMODE
 70
     1
  9
$TEXTSIZE
 40
0.2
  9
$TRACEWID
 40
0.05
  9
$TEXTSTYLE
  7
STANDARD
  9
$CLAYER
  8
0
  9
$CELTYPE
  6
BYLAYER
  9
$CECOLOR
 62
   256
  9
$DIMSCALE
 40
1.0
  9
$DIMASZ
 40
0.1875
  9
$DIMEXO
 40
0.0625
  9
$DIMDLI
 40
0.4443307087
  9
$DIMRND
 40
0.0
  9
$DIMDLE
 40
0.0
  9
$DIMEXE
 40
0.125
  9
$DIMTP
 40
0.01
  9
$DIMTM
 40
0.01
  9
$DIMTXT
 40
1.0
  9
$DIMCEN
 40
0.1052362205
  9
$DIMTSZ
 40
0.0
  9
$DIMTOL
 70
     1
  9
$DIMLIM
 70
     0
  9
$DIMTIH
 70
     0
  9
$DIMTOH
 70
     1
  9
$DIMSE1
 70
     0
  9
$DIMSE2
 70
     0
  9
$DIMTAD
 70
     0
  9
$DIMZIN
 70
     0
  9
$DIMBLK
  1

  9
$DIMASO
 70
     1
  9
$DIMSHO
 70
     1
  9
$DIMPOST
  1
\X
  9
$DIMAPOST
  1

  9
$DIMALT
 70
     1
  9
$DIMALTD
 70
     2
  9
$DIMALTF
 40
25.3999999999999986
  9
$DIMLFAC
 40
1.0
  9
$DIMTOFL
 70
     0
  9
$DIMTVP
 40
0.0
  9
$DIMTIX
 70
     0
  9
$DIMSOXD
 70
     0
  9
$DIMSAH
 70
     0
  9
$DIMBLK1
  1

  9
$DIMBLK2
  1

  9
$DIMSTYLE
  2
STANDARD
  9
$DIMCLRD
 70
     0
  9
$DIMCLRE
 70
     0
  9
$DIMCLRT
 70
     0
  9
$DIMTFAC
 40
1.0
  9
$DIMGAP
 40
0.09
  9
$LUNITS
 70
     2
  9
$LUPREC
 70
     4
  9
$SKETCHINC
 40
0.1
  9
$FILLETRAD
 40
0.0
  9
$AUNITS
 70
     0
  9
$AUPREC
 70
     0
  9
$MENU
  1
.
  9
$ELEVATION
 40
0.0
  9
$PELEVATION
 40
0.0
  9
$THICKNESS
 40
0.0
  9
$LIMCHECK
 70
     0
  9
$BLIPMODE
 70
     0
  9
$CHAMFERA
 40
0.0
  9
$CHAMFERB
 40
0.0
  9
$SKPOLY
 70
     0
  9
$TDCREATE
 40
2458172.5207638889551163
  9
$TDUPDATE
 40
2459027.7729861112311482
  9
$TDINDWG
 40
0.2466431944
  9
$TDUSRTIMER
 40
0.2466431944
  9
$USRTIMER
 70
     1
  9
$ANGBASE
 50
0.0
  9
$ANGDIR
 70
     0
  9
$PDMODE
 70
     0
  9
$PDSIZE
 40
0.3125
  9
$PLINEWID
 40
0.0
  9
$COORDS
 70
     1
  9
$SPLFRAME
 70
     0
  9
$SPLINETYPE
 70
     6
  9
$SPLINESEGS
 70
     8
  9
$ATTDIA
 70
     1
  9
$ATTREQ
 70
     1
  9
$HANDLING
 70
     1
  9
$HANDSEED
  5
8128
  9
$SURFTAB1
 70
     6
  9
$SURFTAB2
 70
     6
  9
$SURFTYPE
 70
     6
  9
$SURFU
 70
     6
  9
$SURFV
 70
     6
  9
$UCSNAME
  2

  9
$UCSORG
 10
0.0
 20
0.0
 30
0.0
  9
$UCSXDIR
 10
1.0
 20
0.0
 30
0.0
  9
$UCSYDIR
 10
0.0
 20
1.0
 30
0.0
  9
$PUCSNAME
  2

  9
$PUCSORG
 10
0.0
 20
0.0
 30
0.0
  9
$PUCSXDIR
 10
1.0
 20
0.0
 30
0.0
  9
$PUCSYDIR
 10
0.0
 20
1.0
 30
0.0
  9
$USERI1
 70
     0
  9
$USERI2
 70
     0
  9
$USERI3
 70
     0
  9
$USERI4
 70
     0
  9
$USERI5
 70
     0
  9
$USERR1
 40
0.0
  9
$USERR2
 40
0.0
  9
$USERR3
 40
0.0
  9
$USERR4
 40
0.0
  9
$USERR5
 40
0.0
  9
$WORLDVIEW
 70
     1
  9
$SHADEDGE
 70
     3
  9
$SHADEDIF
 70
    70
  9
$TILEMODE
 70
     1
  9
$MAXACTVP
 70
    64
  9
$PLIMCHECK
 70
     0
  9
$PEXTMIN
 10
1.0000000000000000E+20
 20
1.0000000000000000E+20
 30
1.0000000000000000E+20
  9
$PEXTMAX
 10
-1.0000000000000000E+20
 20
-1.0000000000000000E+20
 30
-1.0000000000000000E+20
  9
$PLIMMIN
 10
0.0
 20
0.0
  9
$PLIMMAX
 10
12.0
 20
9.0
  9
$UNITMODE
 70
     0
  9
$VISRETAIN
 70
     1
  9
$PLINEGEN
 70
     0
  9
$PSLTSCALE
 70
     1
  0
ENDSEC
  0
SECTION
  2
TABLES
  0
TABLE
  2
VPORT
 70
     1
  0
VPORT
  2
*ACTIVE
 70
     0
 10
0.0
 20
0.0
 11
1.0
 21
1.0
 12
0.0
 22
0.0
 13
0.0
 23
0.0
 14
1.0
 24
1.0
 15
0.0
 25
0.0
 16
0.0
 26
0.0
 36
46.3570822547321768
 17
508.653106689453125
 27
93.9500907915080035
 37
0.0
 40
16.1904348862807588
 41
2.1481900452488678
 42
50.0
 43
0.0
 44
0.0
 50
0.0
 51
0.0
 71
     0
 72
   100
 73
     1
 74
     1
 75
     0
 76
     0
 77
     0
 78
     0
  0
ENDTAB
  0
TABLE
  2
LTYPE
 70
     2
  0
LTYPE
  2
CONTINUOUS
 70
     0
  3
Solid line
 72
    65
 73
     0
 40
0.0
  0
LTYPE
  2
PHANTOM2
 70
     0
  3
___ _ _ ___ _ _ ___ _ _ ___ _ _
 72
    65
 73
     6
 40
1.25
 49
0.625
 49
-0.125
 49
0.125
 49
-0.125
 49
0.125
 49
-0.125
  0
ENDTAB
  0
TABLE
  2
LAYER
 70
     2
  0
LAYER
  2
0
 70
     0
 62
   255
  6
CONTINUOUS
  0
LAYER
  2
DEFPOINTS
 70
     0
 62
     7
  6
CONTINUOUS
  0
ENDTAB
  0
TABLE
  2
STYLE
 70
     1
  0
STYLE
  2
STANDARD
 70
     0
 40
0.0
 41
0.8
 50
0.0
 71
     0
 42
0.2
  3
txt
  4

  0
ENDTAB
  0
TABLE
  2
VIEW
 70
     0
  0
ENDTAB
  0
TABLE
  2
UCS
 70
     0
  0
ENDTAB
  0
TABLE
  2
APPID
 70
    10
  0
APPID
  2
ACAD
 70
     0
  0
APPID
  2
ACAD_MLEADERVER
 70
     0
  0
APPID
  2
ACAD_EXEMPT_FROM_CAD_STANDARDS
 70
     0
  0
APPID
  2
ACAD_DSTYLE_DIMJAG
 70
     0
  0
APPID
  2
ACAD_DSTYLE_DIMTALN
 70
     0
  0
APPID
  2
ACAD_NAV_VCDISPLAY
 70
     0
  0
APPID
  2
ACAECLAYERSTANDARD
 70
     0
  0
APPID
  2
ACCMTRANSPARENCY
 70
     0
  0
APPID
  2
DCO15
 70
     0
  0
APPID
  2
ACDBATTR
 70
     0
  0
ENDTAB
  0
TABLE
  2
DIMSTYLE
 70
     1
  0
DIMSTYLE
  2
STANDARD
 70
     0
  3

  4

  5

  6

  7

 40
1.0
 41
0.1875
 42
0.0625
 43
0.38
 44
0.125
 45
0.0
 46
0.0
 47
0.01
 48
0.01
140
0.15625
141
0.09
142
0.0
143
25.3999999999999986
144
1.0
145
0.0
146
1.0
147
0.09
 71
     1
 72
     0
 73
     1
 74
     1
 75
     0
 76
     0
 77
     0
 78
     4
170
     0
171
     2
172
     0
173
     0
174
     0
175
     0
176
     0
177
     0
178
     0
  0
ENDTAB
  0
ENDSEC
  0
SECTION
  2
BLOCKS
  0
BLOCK
  8
0
  2
$MODEL_SPACE
 70
     0
 10
0.0
 20
0.0
 30
0.0
  3
$MODEL_SPACE
  1

  0
ENDBLK
  5
21
  8
0
  0
BLOCK
 67
     1
  8
0
  2
$PAPER_SPACE
 70
     0
 10
0.0
 20
0.0
 30
0.0
  3
$PAPER_SPACE
  1

  0
ENDBLK
  5
1D
 67
     1
  8
0
  0
ENDSEC
  0
SECTION
  2
ENTITIES
  0
ATTDEF
  5
829
  8
DEFPOINTS
 10
508.6476754404833969
 20
88.2657509392985702
 30
0.0
 40
0.001
  1
K-T14428-3
  3

  2
MODELNUMBER
 70
     0
1001
ACDBATTR
1070
     0
1070
     1
  0
ATTDEF
  5
82A
  8
DEFPOINTS
 10
508.6476754404833969
 20
88.264084272631905
 30
0.0
 40
0.001
  1
PURIST
  3

  2
TRADENAME
 70
     0
1001
ACDBATTR
1070
     0
1070
     1
  0
ATTDEF
  5
82B
  8
DEFPOINTS
 10
508.6476754404833969
 20
88.2624176059652257
 30
0.0
 40
0.001
  1
BATH FAUCET TRIM
  3

  2
PRODUCT
 70
     0
1001
ACDBATTR
1070
     0
1070
     1
  0
LINE
  5
8038
  8
0
 10
503.8570514441926775
 20
91.3299030300860153
 30
0.0
 11
503.8570514441926775
 21
91.2399030300860261
 31
0.0
  0
LINE
  5
8039
  8
0
 10
503.8598073496926872
 20
91.2262416127860263
 30
0.0
 11
503.8598073496926872
 21
91.1849030300860335
 31
0.0
  0
LINE
  5
803A
  8
0
 10
503.932051444192723
 20
91.2399030300860261
 30
0.0
 11
503.9322899050927163
 21
91.2262416127860263
 31
0.0
  0
LINE
  5
803B
  8
0
 10
505.4542955386926906
 20
91.2262416127860263
 30
0.0
 11
503.8598073496926872
 21
91.2262416127860263
 31
0.0
  0
LINE
  5
803C
  8
0
 10
503.8570514441926775
 20
91.2399030300860261
 30
0.0
 11
505.4570514441927003
 21
91.2399030300860261
 31
0.0
  0
LINE
  5
803D
  8
0
 10
505.4570514441927003
 20
91.3299030300860153
 30
0.0
 11
503.8570514441926775
 21
91.3299030300860153
 31
0.0
  0
ARC
  5
803E
  8
0
 10
504.1091132859760933
 20
91.6178411876884411
 30
0.0
 40
0.2880475608355157
 50
271.5791898873168861
 51
358.4208145457830028
  0
CIRCLE
  5
803F
  8
0
 10
504.6570514441926889
 20
92.7299030300860352
 30
0.0
 40
0.2207019748
  0
LINE
  5
8040
  8
0
 10
502.8990514441927075
 20
92.9799030300860352
 30
0.0
 11
502.8990514441927075
 21
92.4799030300860352
 31
0.0
  0
LINE
  5
8041
  8
0
 10
503.3770514441926025
 20
88.2679030300860319
 30
0.0
 11
505.9370514441927185
 21
88.2679030300860319
 31
0.0
  0
LINE
  5
8042
  8
0
 10
507.3731144362927239
 20
88.2679030300860319
 30
0.0
 11
509.9331144362927262
 21
88.2679030300860319
 31
0.0
  0
LINE
  5
8043
  8
0
 10
509.9331144362927262
 20
88.5379030300860279
 30
0.0
 11
507.3731144362927239
 21
88.5379030300860279
 31
0.0
  0
LINE
  5
8044
  8
0
 10
505.9370514441927185
 20
88.5379030300860279
 30
0.0
 11
503.3770514441926025
 21
88.5379030300860279
 31
0.0
  0
LINE
  5
8045
  8
0
 10
503.3770514441926025
 20
88.5379030300860279
 30
0.0
 11
503.3770514441926025
 21
88.2679030300860319
 31
0.0
  0
LINE
  5
8046
  8
0
 10
503.8570514441926775
 20
91.1849030300860335
 30
0.0
 11
503.8570514441926775
 21
88.9579030300860154
 31
0.0
  0
LINE
  5
8047
  8
0
 10
504.397051444192698
 20
92.4975743741351693
 30
0.0
 11
504.397051444192698
 21
91.6099030300856469
 31
0.0
  0
LINE
  5
8048
  8
0
 10
504.9170514441926798
 20
92.4975743741351693
 30
0.0
 11
504.9170514441926798
 21
91.6099030300859027
 31
0.0
  0
LINE
  5
8049
  8
0
 10
505.4570514441927003
 20
91.1849030300860335
 30
0.0
 11
505.4570514441927003
 21
88.9579030300860154
 31
0.0
  0
LINE
  5
804A
  8
0
 10
505.9370514441927185
 20
88.5379030300860279
 30
0.0
 11
505.9370514441927185
 21
88.2679030300860319
 31
0.0
  0
LINE
  5
804B
  8
0
 10
505.4570514441927003
 20
91.1849030300860335
 30
0.0
 11
503.8570514441926775
 21
91.1849030300860335
 31
0.0
  0
LINE
  5
804C
  8
0
 10
506.4170514441926798
 20
92.4799030300860352
 30
0.0
 11
506.4170514441926798
 21
92.9799030300860352
 31
0.0
  0
LINE
  5
804D
  8
0
 10
507.3731144362927239
 20
88.5379030300860279
 30
0.0
 11
507.3731144362927239
 21
88.2679030300860319
 31
0.0
  0
LINE
  5
804E
  8
0
 10
509.2631144362927103
 20
96.0229030300860273
 30
0.0
 11
509.2731144362927012
 21
96.0329030300860467
 31
0.0
  0
LINE
  5
804F
  8
0
 10
506.4070514441926889
 20
92.4699030300860301
 30
0.0
 11
504.9469969436926817
 21
92.4699030300860301
 31
0.0
  0
LINE
  5
8050
  8
0
 10
504.3672160980926833
 20
92.4699030300860301
 30
0.0
 11
502.9090514441926985
 21
92.4699030300860301
 31
0.0
  0
LINE
  5
8051
  8
0
 10
507.7906144362926852
 20
93.0079030300860268
 30
0.0
 11
507.7906144362926852
 21
88.9379030300860336
 31
0.0
  0
LINE
  5
8052
  8
0
 10
508.0281144362926966
 20
93.1379030300860222
 30
0.0
 11
508.0281144362926966
 21
99.0129030300860222
 31
0.0
  0
LINE
  5
8053
  8
0
 10
508.0331144362926921
 20
96.5929030300860347
 30
0.0
 11
508.0331144362926921
 21
96.0329030300860467
 31
0.0
  0
LINE
  5
8054
  8
0
 10
506.4070514441926889
 20
92.9899030300860261
 30
0.0
 11
504.6570514441926889
 21
92.9899030300860261
 31
0.0
  0
LINE
  5
8055
  8
0
 10
504.6570514441926889
 20
92.9899030300860261
 30
0.0
 11
502.9090514441926985
 21
92.9899030300860261
 31
0.0
  0
LINE
  5
8056
  8
0
 10
509.515614436292708
 20
93.0079030300860268
 30
0.0
 11
507.7906144362926852
 21
93.0079030300860268
 31
0.0
  0
LINE
  5
8057
  8
0
 10
508.0281144362926966
 20
93.1379030300860222
 30
0.0
 11
509.2781144362926966
 21
93.1379030300860222
 31
0.0
  0
LINE
  5
8058
  8
0
 10
509.2731144362927012
 20
96.5929030300860347
 30
0.0
 11
509.2731144362927012
 21
96.0329030300860467
 31
0.0
  0
LINE
  5
8059
  8
0
 10
509.2781144362926966
 20
93.1379030300860222
 30
0.0
 11
509.2781144362926966
 21
99.0129030300860222
 31
0.0
  0
LINE
  5
805A
  8
0
 10
509.515614436292708
 20
93.0079030300860268
 30
0.0
 11
509.515614436292708
 21
88.9379030300860336
 31
0.0
  0
LINE
  5
805B
  8
0
 10
508.043114436292683
 20
96.0229030300860273
 30
0.0
 11
508.0331144362926921
 21
96.0329030300860467
 31
0.0
  0
LINE
  5
805C
  8
0
 10
509.9331144362927262
 20
88.5379030300860279
 30
0.0
 11
509.9331144362927262
 21
88.2679030300860319
 31
0.0
  0
LINE
  5
805D
  8
0
 10
508.043114436292683
 20
96.0229030300860273
 30
0.0
 11
509.2631144362927103
 21
96.0229030300860273
 31
0.0
  0
LINE
  5
805E
  8
0
 10
508.0281392336926842
 20
96.5929030300860347
 30
0.0
 11
509.2780896389926966
 21
96.5929030300860347
 31
0.0
  0
ARC
  5
805F
  8
0
 10
503.4370514441927185
 20
88.9579030300860154
 30
0.0
 40
0.4200000000000001
 50
270.0
 51
0.0
  0
ARC
  5
8060
  8
0
 10
502.9090514441926985
 20
92.4799030300860352
 30
0.0
 40
0.01
 50
180.0
 51
270.0
  0
ARC
  5
8061
  8
0
 10
502.9090514441926985
 20
92.9799030300860352
 30
0.0
 40
0.01
 50
90.0
 51
180.0
  0
CIRCLE
  5
8062
  8
0
 10
504.6570514441926889
 20
92.7299030300860352
 30
0.0
 40
0.26
  0
ARC
  5
8063
  8
0
 10
505.8770514441927162
 20
88.9579030300860154
 30
0.0
 40
0.4200000000000001
 50
180.0
 51
270.0
  0
ARC
  5
8064
  8
0
 10
507.3906144362925943
 20
88.9379030300860336
 30
0.0
 40
0.4
 50
270.0
 51
0.0
  0
ARC
  5
8065
  8
0
 10
507.8981144362927012
 20
93.1379030300860222
 30
0.0
 40
0.13
 50
270.0
 51
0.0
  0
ARC
  5
8066
  8
0
 10
506.4070514441926889
 20
92.4799030300860352
 30
0.0
 40
0.01
 50
270.0
 51
0.0
  0
ARC
  5
8067
  8
0
 10
506.4070514441926889
 20
92.9799030300860352
 30
0.0
 40
0.01
 50
0.0
 51
90.0
  0
ARC
  5
8068
  8
0
 10
508.6531144362926966
 20
99.0129030300860222
 30
0.0
 40
0.625
 50
0.0
 51
180.0
  0
ARC
  5
8069
  8
0
 10
509.9156144362926852
 20
88.9379030300860336
 30
0.0
 40
0.4
 50
180.0
 51
270.0
  0
ARC
  5
806A
  8
0
 10
509.4081144362926921
 20
93.1379030300860222
 30
0.0
 40
0.13
 50
180.0
 51
270.0
  0
ARC
  5
806B
  8
0
 10
504.3670478873216894
 20
92.4849078014518398
 30
0.0
 40
0.0150057141983866
 50
270.6422865969313989
 51
319.8339387579455888
  0
ARC
  5
806C
  8
0
 10
502.9498059237117218
 20
93.6792721207677062
 30
0.0
 40
1.868402836903428
 50
319.8775192639973284
 51
322.5833616135569741
  0
ARC
  5
806D
  8
0
 10
504.4609175719133987
 20
92.5232445438224715
 30
0.0
 40
0.0341896502017089
 50
110.6452953433563948
 51
142.5833616135570026
  0
ARC
  5
806E
  8
0
 10
504.4409713318503918
 20
92.500727700133865
 30
0.0
 40
0.0550791477650708
 50
49.8194526673256917
 51
81.7624565340557865
  0
ARC
  5
806F
  8
0
 10
504.9470522174942744
 20
92.4849041785524264
 30
0.0
 40
0.0150012502980212
 50
220.1623444910761975
 51
269.7888867492561076
  0
ARC
  5
8070
  8
0
 10
506.3642969646735992
 20
93.6792721207677062
 30
0.0
 40
1.868402836903428
 50
217.4166383864429974
 51
220.1224807360027
  0
ARC
  5
8071
  8
0
 10
504.8531853164719223
 20
92.5232445438224715
 30
0.0
 40
0.0341896502017089
 50
37.4166383864429832
 51
69.354704656643591
  0
ARC
  5
8072
  8
0
 10
504.8731317618493222
 20
92.5007269945081561
 30
0.0
 40
0.0550798755275251
 50
98.2376496691062329
 51
130.1793568665320038
  0
LINE
  5
8074
  8
0
 10
505.4570514441927003
 20
91.3299030300860153
 30
0.0
 11
505.4570514441927003
 21
91.2399030300860261
 31
0.0
  0
LINE
  5
8075
  8
0
 10
505.4542955386926906
 20
91.2262416127860263
 30
0.0
 11
505.4542955386926906
 21
91.1849030300860335
 31
0.0
  0
LINE
  5
8076
  8
0
 10
505.3820514441927116
 20
91.2399030300860261
 30
0.0
 11
505.3818129832927184
 21
91.2262416127860263
 31
0.0
  0
ARC
  5
8077
  8
0
 10
505.2049896024092845
 20
91.6178411876884411
 30
0.0
 40
0.2880475608355157
 50
181.5791854542169119
 51
268.4208101126830002
  0
LINE
  5
8078
  8
0
 10
513.4491774283927725
 20
91.3299030300860153
 30
0.0
 11
513.4491774283927725
 21
91.2399030300860261
 31
0.0
  0
LINE
  5
8079
  8
0
 10
513.446421522892706
 20
91.2262416127860263
 30
0.0
 11
513.446421522892706
 21
91.1849030300860335
 31
0.0
  0
LINE
  5
807A
  8
0
 10
513.3741774283927271
 20
91.2399030300860261
 30
0.0
 11
513.373938967492677
 21
91.2262416127860263
 31
0.0
  0
LINE
  5
807B
  8
0
 10
511.8519333338928163
 20
91.2262416127860263
 30
0.0
 11
513.446421522892706
 21
91.2262416127860263
 31
0.0
  0
LINE
  5
807C
  8
0
 10
513.4491774283927725
 20
91.2399030300860261
 30
0.0
 11
511.8491774283926929
 21
91.2399030300860261
 31
0.0
  0
LINE
  5
807D
  8
0
 10
511.8491774283926929
 20
91.3299030300860153
 30
0.0
 11
513.4491774283927725
 21
91.3299030300860153
 31
0.0
  0
ARC
  5
807E
  8
0
 10
513.1971155866093568
 20
91.6178411876884411
 30
0.0
 40
0.2880475608355157
 50
181.5791854542169119
 51
268.4208101126830002
  0
LINE
  5
807F
  8
0
 10
514.4071774283927425
 20
92.9799030300860352
 30
0.0
 11
514.4071774283927425
 21
92.4799030300860352
 31
0.0
  0
LINE
  5
8080
  8
0
 10
513.9291774283925633
 20
88.2679030300860319
 30
0.0
 11
511.3691774283926748
 21
88.2679030300860319
 31
0.0
  0
LINE
  5
8081
  8
0
 10
511.3691774283926748
 20
88.5379030300860279
 30
0.0
 11
513.9291774283925633
 21
88.5379030300860279
 31
0.0
  0
LINE
  5
8082
  8
0
 10
513.9291774283925633
 20
88.5379030300860279
 30
0.0
 11
513.9291774283925633
 21
88.2679030300860319
 31
0.0
  0
LINE
  5
8083
  8
0
 10
513.4491774283927725
 20
91.1849030300860335
 30
0.0
 11
513.4491774283927725
 21
88.9579030300860154
 31
0.0
  0
LINE
  5
8084
  8
0
 10
512.9091774283926952
 20
92.4975743741351693
 30
0.0
 11
512.9091774283926952
 21
91.6099030300856469
 31
0.0
  0
LINE
  5
8085
  8
0
 10
512.3891774283927134
 20
92.4975743741351693
 30
0.0
 11
512.3891774283927134
 21
91.6099030300859027
 31
0.0
  0
LINE
  5
8086
  8
0
 10
511.8491774283926929
 20
91.1849030300860335
 30
0.0
 11
511.8491774283926929
 21
88.9579030300860154
 31
0.0
  0
LINE
  5
8087
  8
0
 10
511.3691774283926748
 20
88.5379030300860279
 30
0.0
 11
511.3691774283926748
 21
88.2679030300860319
 31
0.0
  0
LINE
  5
8088
  8
0
 10
511.8491774283926929
 20
91.1849030300860335
 30
0.0
 11
513.4491774283927725
 21
91.1849030300860335
 31
0.0
  0
LINE
  5
8089
  8
0
 10
510.8891774283927134
 20
92.4799030300860352
 30
0.0
 11
510.8891774283927134
 21
92.9799030300860352
 31
0.0
  0
LINE
  5
808A
  8
0
 10
510.8991774283927043
 20
92.4699030300860301
 30
0.0
 11
512.3592319288927683
 21
92.4699030300860301
 31
0.0
  0
LINE
  5
808B
  8
0
 10
512.9390127744926531
 20
92.4699030300860301
 30
0.0
 11
514.3971774283927516
 21
92.4699030300860301
 31
0.0
  0
LINE
  5
808C
  8
0
 10
510.8991774283927043
 20
92.9899030300860261
 30
0.0
 11
512.6491774283927043
 21
92.9899030300860261
 31
0.0
  0
LINE
  5
808D
  8
0
 10
512.6491774283927043
 20
92.9899030300860261
 30
0.0
 11
514.3971774283927516
 21
92.9899030300860261
 31
0.0
  0
ARC
  5
808E
  8
0
 10
513.8691774283927316
 20
88.9579030300860154
 30
0.0
 40
0.4200000000000001
 50
180.0
 51
270.0
  0
ARC
  5
808F
  8
0
 10
514.3971774283927516
 20
92.4799030300860352
 30
0.0
 40
0.01
 50
270.0
 51
0.0
  0
ARC
  5
8090
  8
0
 10
514.3971774283927516
 20
92.9799030300860352
 30
0.0
 40
0.01
 50
0.0
 51
90.0
  0
CIRCLE
  5
8091
  8
0
 10
512.6491774283927043
 20
92.7299030300860352
 30
0.0
 40
0.26
  0
ARC
  5
8092
  8
0
 10
511.429177428392677
 20
88.9579030300860154
 30
0.0
 40
0.4200000000000001
 50
270.0
 51
0.0
  0
ARC
  5
8093
  8
0
 10
510.8991774283927043
 20
92.4799030300860352
 30
0.0
 40
0.01
 50
180.0
 51
270.0
  0
ARC
  5
8094
  8
0
 10
510.8991774283927043
 20
92.9799030300860352
 30
0.0
 40
0.01
 50
90.0
 51
180.0
  0
ARC
  5
8095
  8
0
 10
512.939180985263647
 20
92.4849078014518398
 30
0.0
 40
0.0150057141983866
 50
220.1660612420537859
 51
269.3577134030686011
  0
ARC
  5
8096
  8
0
 10
514.3564229488737283
 20
93.6792721207677062
 30
0.0
 40
1.868402836903428
 50
217.4166383864429974
 51
220.1224807360027
  0
ARC
  5
8097
  8
0
 10
512.8453113006719377
 20
92.5232445438224715
 30
0.0
 40
0.0341896502017089
 50
37.4166383864429832
 51
69.354704656643591
  0
ARC
  5
8098
  8
0
 10
512.8652575407348877
 20
92.500727700133865
 30
0.0
 40
0.0550791477650708
 50
98.2375434659442135
 51
130.1805473326743083
  0
ARC
  5
8099
  8
0
 10
512.3591766550910052
 20
92.4849041785524264
 30
0.0
 40
0.0150012502980212
 50
270.2111132507438924
 51
319.8376555089232056
  0
ARC
  5
809A
  8
0
 10
510.9419319079116804
 20
93.6792721207677062
 30
0.0
 40
1.868402836903428
 50
319.8775192639973284
 51
322.5833616135569741
  0
ARC
  5
809B
  8
0
 10
512.4530435561133572
 20
92.5232445438224715
 30
0.0
 40
0.0341896502017089
 50
110.6452953433563948
 51
142.5833616135570026
  0
ARC
  5
809C
  8
0
 10
512.433097110736071
 20
92.5007269945081561
 30
0.0
 40
0.0550798755275251
 50
49.8206431334679891
 51
81.7623503308937956
  0
LINE
  5
809D
  8
0
 10
511.8491774283926929
 20
91.3299030300860153
 30
0.0
 11
511.8491774283926929
 21
91.2399030300860261
 31
0.0
  0
LINE
  5
809E
  8
0
 10
511.8519333338928163
 20
91.2262416127860263
 30
0.0
 11
511.8519333338928163
 21
91.1849030300860335
 31
0.0
  0
LINE
  5
809F
  8
0
 10
511.9241774283926816
 20
91.2399030300860261
 30
0.0
 11
511.9244158892926748
 21
91.2262416127860263
 31
0.0
  0
ARC
  5
80A0
  8
0
 10
512.1012392701761655
 20
91.6178411876884411
 30
0.0
 40
0.2880475608355157
 50
271.5791898873168861
 51
358.4208145457830028
  0
CIRCLE
  5
80A1
  8
0
 10
512.6491774283927043
 20
92.7299030300860352
 30
0.0
 40
0.2207019748
  0
ENDSEC
  0
EOF
