  0
SECTION
  2
HEADER
  9
$ACADVER
  1
AC1009
  9
$INSBASE
 10
4816.4315359863830963
 20
516.3610572797068698
 30
0.0
  9
$EXTMIN
 10
4810.9315359864331185
 20
514.3613458760648882
 30
0.0
  9
$EXTMAX
 10
4821.9315359863330741
 20
517.8610572796569613
 30
0.0
  9
$LIMMIN
 10
0.0
 20
0.0
  9
$LIMMAX
 10
11.6929133858000007
 20
8.2677165353999982
  9
$ORTHOMODE
 70
     0
  9
$REGENMODE
 70
     1
  9
$FILLMODE
 70
     1
  9
$QTEXTMODE
 70
     0
  9
$MIRRTEXT
 70
     0
  9
$DRAGMODE
 70
     2
  9
$LTSCALE
 40
0.6431102362
  9
$OSMODE
 70
     7
  9
$ATTMODE
 70
     1
  9
$TEXTSIZE
 40
0.2
  9
$TRACEWID
 40
0.05
  9
$TEXTSTYLE
  7
STANDARD
  9
$CLAYER
  8
0
  9
$CELTYPE
  6
BYLAYER
  9
$CECOLOR
 62
   256
  9
$DIMSCALE
 40
1.0
  9
$DIMASZ
 40
0.1875
  9
$DIMEXO
 40
0.0625
  9
$DIMDLI
 40
0.4443307087
  9
$DIMRND
 40
0.0
  9
$DIMDLE
 40
0.0
  9
$DIMEXE
 40
0.125
  9
$DIMTP
 40
0.01
  9
$DIMTM
 40
0.01
  9
$DIMTXT
 40
2.0
  9
$DIMCEN
 40
0.1052362205
  9
$DIMTSZ
 40
0.0
  9
$DIMTOL
 70
     1
  9
$DIMLIM
 70
     0
  9
$DIMTIH
 70
     1
  9
$DIMTOH
 70
     1
  9
$DIMSE1
 70
     0
  9
$DIMSE2
 70
     0
  9
$DIMTAD
 70
     0
  9
$DIMZIN
 70
     0
  9
$DIMBLK
  1

  9
$DIMASO
 70
     1
  9
$DIMSHO
 70
     1
  9
$DIMPOST
  1
\X
  9
$DIMAPOST
  1

  9
$DIMALT
 70
     1
  9
$DIMALTD
 70
     2
  9
$DIMALTF
 40
25.3999999999999986
  9
$DIMLFAC
 40
1.0
  9
$DIMTOFL
 70
     0
  9
$DIMTVP
 40
0.0
  9
$DIMTIX
 70
     0
  9
$DIMSOXD
 70
     0
  9
$DIMSAH
 70
     0
  9
$DIMBLK1
  1

  9
$DIMBLK2
  1

  9
$DIMSTYLE
  2
STANDARD
  9
$DIMCLRD
 70
     0
  9
$DIMCLRE
 70
     0
  9
$DIMCLRT
 70
     0
  9
$DIMTFAC
 40
1.0
  9
$DIMGAP
 40
0.09
  9
$LUNITS
 70
     2
  9
$LUPREC
 70
     4
  9
$SKETCHINC
 40
0.1
  9
$FILLETRAD
 40
0.0
  9
$AUNITS
 70
     0
  9
$AUPREC
 70
     0
  9
$MENU
  1
.
  9
$ELEVATION
 40
0.0
  9
$PELEVATION
 40
0.0
  9
$THICKNESS
 40
0.0
  9
$LIMCHECK
 70
     0
  9
$BLIPMODE
 70
     0
  9
$CHAMFERA
 40
0.0
  9
$CHAMFERB
 40
0.0
  9
$SKPOLY
 70
     0
  9
$TDCREATE
 40
2458060.468368056230247
  9
$TDUPDATE
 40
2459471.0492708338424563
  9
$TDINDWG
 40
2.1378557175999999
  9
$TDUSRTIMER
 40
2.1378557175999999
  9
$USRTIMER
 70
     1
  9
$ANGBASE
 50
0.0
  9
$ANGDIR
 70
     0
  9
$PDMODE
 70
     0
  9
$PDSIZE
 40
0.3125
  9
$PLINEWID
 40
0.0
  9
$COORDS
 70
     1
  9
$SPLFRAME
 70
     0
  9
$SPLINETYPE
 70
     6
  9
$SPLINESEGS
 70
     8
  9
$ATTDIA
 70
     1
  9
$ATTREQ
 70
     1
  9
$HANDLING
 70
     1
  9
$HANDSEED
  5
1F3FC
  9
$SURFTAB1
 70
     6
  9
$SURFTAB2
 70
     6
  9
$SURFTYPE
 70
     6
  9
$SURFU
 70
     6
  9
$SURFV
 70
     6
  9
$UCSNAME
  2

  9
$UCSORG
 10
0.0
 20
0.0
 30
0.0
  9
$UCSXDIR
 10
1.0
 20
0.0
 30
0.0
  9
$UCSYDIR
 10
0.0
 20
1.0
 30
0.0
  9
$PUCSNAME
  2

  9
$PUCSORG
 10
0.0
 20
0.0
 30
0.0
  9
$PUCSXDIR
 10
1.0
 20
0.0
 30
0.0
  9
$PUCSYDIR
 10
0.0
 20
1.0
 30
0.0
  9
$USERI1
 70
     0
  9
$USERI2
 70
     0
  9
$USERI3
 70
     0
  9
$USERI4
 70
     0
  9
$USERI5
 70
     0
  9
$USERR1
 40
0.0
  9
$USERR2
 40
0.0
  9
$USERR3
 40
0.0
  9
$USERR4
 40
0.0
  9
$USERR5
 40
0.0
  9
$WORLDVIEW
 70
     1
  9
$SHADEDGE
 70
     3
  9
$SHADEDIF
 70
    70
  9
$TILEMODE
 70
     1
  9
$MAXACTVP
 70
    64
  9
$PLIMCHECK
 70
     0
  9
$PEXTMIN
 10
1.0000000000000000E+20
 20
1.0000000000000000E+20
 30
1.0000000000000000E+20
  9
$PEXTMAX
 10
-1.0000000000000000E+20
 20
-1.0000000000000000E+20
 30
-1.0000000000000000E+20
  9
$PLIMMIN
 10
0.0
 20
0.0
  9
$PLIMMAX
 10
12.0
 20
9.0
  9
$UNITMODE
 70
     0
  9
$VISRETAIN
 70
     1
  9
$PLINEGEN
 70
     0
  9
$PSLTSCALE
 70
     1
  0
ENDSEC
  0
SECTION
  2
TABLES
  0
TABLE
  2
VPORT
 70
     1
  0
VPORT
  2
*ACTIVE
 70
     0
 10
0.0
 20
0.0
 11
1.0
 21
1.0
 12
905.0610838832297986
 22
383.520939734499791
 13
0.0
 23
0.0
 14
1.0
 24
1.0
 15
0.0
 25
0.0
 16
0.0
 26
0.0
 36
60.4960186965801583
 17
3911.3653564453120453
 27
132.5796051025390057
 37
0.0
 40
5.1735605371825866
 41
2.2118055555555549
 42
50.0
 43
0.0
 44
0.0
 50
0.0
 51
0.0
 71
     0
 72
   100
 73
     1
 74
     1
 75
     0
 76
     0
 77
     0
 78
     0
  0
ENDTAB
  0
TABLE
  2
LTYPE
 70
     2
  0
LTYPE
  2
CONTINUOUS
 70
     0
  3
Solid line
 72
    65
 73
     0
 40
0.0
  0
LTYPE
  2
PHANTOM2
 70
     0
  3
___ _ _ ___ _ _ ___ _ _ ___ _ _
 72
    65
 73
     6
 40
1.25
 49
0.625
 49
-0.125
 49
0.125
 49
-0.125
 49
0.125
 49
-0.125
  0
ENDTAB
  0
TABLE
  2
LAYER
 70
     2
  0
LAYER
  2
0
 70
     0
 62
   255
  6
CONTINUOUS
  0
LAYER
  2
DEFPOINTS
 70
     0
 62
     7
  6
CONTINUOUS
  0
ENDTAB
  0
TABLE
  2
STYLE
 70
     1
  0
STYLE
  2
STANDARD
 70
     0
 40
0.0
 41
0.8
 50
0.0
 71
     0
 42
0.2
  3
txt
  4

  0
ENDTAB
  0
TABLE
  2
VIEW
 70
     0
  0
ENDTAB
  0
TABLE
  2
UCS
 70
     0
  0
ENDTAB
  0
TABLE
  2
APPID
 70
    11
  0
APPID
  2
ACAD
 70
     0
  0
APPID
  2
ACAD_MLEADERVER
 70
     0
  0
APPID
  2
ACAD_EXEMPT_FROM_CAD_STANDARDS
 70
     0
  0
APPID
  2
ACAD_NAV_VCDISPLAY
 70
     0
  0
APPID
  2
ACAECLAYERSTANDARD
 70
     0
  0
APPID
  2
ACCMTRANSPARENCY
 70
     0
  0
APPID
  2
ACAD_DSTYLE_DIMJAG
 70
     0
  0
APPID
  2
ACAD_DSTYLE_DIMTALN
 70
     0
  0
APPID
  2
ACDBATTR
 70
     0
  0
APPID
  2
ACADANNOTATIVE
 70
     0
  0
APPID
  2
DCO15
 70
     0
  0
ENDTAB
  0
TABLE
  2
DIMSTYLE
 70
     1
  0
DIMSTYLE
  2
STANDARD
 70
     0
  3

  4

  5

  6

  7

 40
1.0
 41
0.1875
 42
0.0625
 43
0.38
 44
0.125
 45
0.0
 46
0.0
 47
0.01
 48
0.01
140
0.15625
141
0.09
142
0.0
143
25.3999999999999986
144
1.0
145
0.0
146
1.0
147
0.09
 71
     1
 72
     0
 73
     1
 74
     1
 75
     0
 76
     0
 77
     0
 78
     4
170
     0
171
     2
172
     0
173
     0
174
     0
175
     0
176
     0
177
     0
178
     0
  0
ENDTAB
  0
ENDSEC
  0
SECTION
  2
BLOCKS
  0
BLOCK
  8
0
  2
$MODEL_SPACE
 70
     0
 10
0.0
 20
0.0
 30
0.0
  3
$MODEL_SPACE
  1

  0
ENDBLK
  5
21
  8
0
  0
BLOCK
 67
     1
  8
0
  2
$PAPER_SPACE
 70
     0
 10
0.0
 20
0.0
 30
0.0
  3
$PAPER_SPACE
  1

  0
ENDBLK
  5
1D
 67
     1
  8
0
  0
ENDSEC
  0
SECTION
  2
ENTITIES
  0
ATTDEF
  5
159BF
  8
DEFPOINTS
 10
4816.4315467427659314
 20
516.3644028069752494
 30
0.0
 40
0.001
  1
K-14419W-3
  3

  2
MODELNUMBER
 70
     0
1001
ACDBATTR
1070
     0
1070
     1
  0
ATTDEF
  5
159C0
  8
DEFPOINTS
 10
4816.4315467427659314
 20
516.3627359665960057
 30
0.0
 40
0.001
  1
PURIST
  3

  2
TRADENAME
 70
     0
1001
ACDBATTR
1070
     0
1070
     1
  0
ATTDEF
  5
159C1
  8
DEFPOINTS
 10
4816.4315467427659314
 20
516.3610694736418054
 30
0.0
 40
0.001
  1
BATHROOM SINK FAUCET
  3

  2
PRODUCT
 70
     0
1001
ACDBATTR
1070
     0
1070
     1
  0
ARC
  5
1F2F9
  8
0
 10
4816.4315359863830963
 20
516.3610572797068698
 30
0.0
 40
0.9900000000000011
 50
300.3347050581144231
 51
239.6652949418856053
  0
LINE
  5
1F2FA
  8
0
 10
4815.9315359863830963
 20
516.3610572797068698
 30
0.0
 11
4815.9315359863830963
 21
515.5710572797053146
 31
0.0
  0
LINE
  5
1F2FB
  8
0
 10
4815.9315359863830963
 20
515.5560572797082841
 30
0.0
 11
4815.9315359863830963
 21
514.8559740201440036
 31
0.0
  0
LINE
  5
1F2FC
  8
0
 10
4815.9315359863830963
 20
514.827842603325962
 30
0.0
 11
4815.9315359863830963
 21
514.7992870763641804
 31
0.0
  0
ARC
  5
1F2FE
  8
0
 10
4816.4315359863830963
 20
514.9207936853667888
 30
0.0
 40
0.5594478093019342
 50
241.6669603356143057
 51
298.3330396643856943
  0
ARC
  5
1F2FF
  8
0
 10
4816.3207086088441429
 20
514.7992870763641804
 30
0.0
 40
0.38917262246171
 50
145.657362315337906
 51
214.342637684662094
  0
ARC
  5
1F300
  8
0
 10
4816.3900902257473717
 20
514.8424580840425051
 30
0.0
 40
0.4708270431035465
 50
213.9172469620386892
 51
241.5821368823758064
  0
ARC
  5
1F301
  8
0
 10
4816.4315359863830963
 20
514.6677446493720254
 30
0.0
 40
0.5663253320939158
 50
62.0414741345452327
 51
117.9585258654547033
  0
ARC
  5
1F302
  8
0
 10
4816.3865634513103942
 20
514.7538652186174204
 30
0.0
 40
0.46917201238095
 50
118.0382026809227938
 51
145.6143186393024109
  0
ARC
  5
1F303
  8
0
 10
4816.4315359863830963
 20
514.889290290817371
 30
0.0
 40
0.476914580974393
 50
237.0081473741786908
 51
302.9918526258213092
  0
ARC
  5
1F304
  8
0
 10
4816.332819364793977
 20
514.7796665072348787
 30
0.0
 40
0.3253965877933393
 50
145.1129984452556982
 51
214.8870015547441881
  0
ARC
  5
1F305
  8
0
 10
4816.4315359863830963
 20
514.6700661270543833
 30
0.0
 40
0.476895099152005
 50
57.0066278232750179
 51
122.9933721767250034
  0
ARC
  5
1F306
  8
0
 10
4816.3869694468139642
 20
514.7455278712042173
 30
0.0
 40
0.3893521493587992
 50
123.5397199891155964
 51
145.5498186556121993
  0
ARC
  5
1F307
  8
0
 10
4816.387176612375697
 20
514.8140161751523465
 30
0.0
 40
0.3896423645413281
 50
214.458537942526192
 51
236.4520200733022932
  0
ARC
  5
1F308
  8
0
 10
4816.4315359863830963
 20
514.7683870235557606
 30
0.0
 40
0.2812049167502748
 50
55.8375074552182369
 51
124.1624925447816992
  0
ARC
  5
1F309
  8
0
 10
4816.4315359863830963
 20
514.8998562297102808
 30
0.0
 40
0.2819346022290531
 50
237.4533094471678965
 51
302.5466905528321035
  0
ARC
  5
1F30A
  8
0
 10
4816.3728737454639486
 20
514.8337569101271356
 30
0.0
 40
0.1913360226596223
 50
142.4456273647899138
 51
217.5543726352100009
  0
ARC
  5
1F30B
  8
0
 10
4816.4053881845666183
 20
514.8122904082099467
 30
0.0
 40
0.23021382736192
 50
124.913544252053498
 51
143.1424843416997135
  0
ARC
  5
1F30C
  8
0
 10
4816.4068861625737554
 20
514.8566612414808787
 30
0.0
 40
0.2322749896505432
 50
216.9196578585653867
 51
236.8465637220791109
  0
ARC
  5
1F30D
  8
0
 10
4816.4315359863830963
 20
514.7008383646116272
 30
0.0
 40
0.5622508547228035
 50
61.8956239243880404
 51
118.1043760756118957
  0
ARC
  5
1F30E
  8
0
 10
4816.3240542979401653
 20
514.8254830575442611
 30
0.0
 40
0.3925254034629853
 50
174.1781251443819087
 51
179.6555819626885011
  0
ARC
  5
1F30F
  8
0
 10
4816.3204953176827985
 20
514.825210937379893
 30
0.0
 40
0.3890128959837067
 50
161.5045282458198983
 51
174.0850813526188006
  0
ARC
  5
1F310
  8
0
 10
4816.3477380278309283
 20
514.8147093037781588
 30
0.0
 40
0.4181819895883793
 50
139.2927999519255877
 51
161.3240817735940027
  0
ARC
  5
1F311
  8
0
 10
4816.395239414743628
 20
514.7734831435790284
 30
0.0
 40
0.4810780465024896
 50
118.3669388331970964
 51
139.2604664082749935
  0
ARC
  5
1F312
  8
0
 10
4816.3094140784251067
 20
514.8559740201440036
 30
0.0
 40
0.3778780920426428
 50
180.0
 51
182.2766380661342112
  0
ARC
  5
1F313
  8
0
 10
4816.4315359863830963
 20
516.3610572797068698
 30
0.0
 40
0.5
 50
0.0
 51
180.0
  0
LINE
  5
1F314
  8
0
 10
4816.9315359863830963
 20
514.827842603325962
 30
0.0
 11
4816.9315359863830963
 21
514.7992870763641804
 31
0.0
  0
ARC
  5
1F315
  8
0
 10
4816.5423633639220498
 20
514.7992870763641804
 30
0.0
 40
0.38917262246171
 50
325.6573623153378776
 51
34.3426376846620727
  0
ARC
  5
1F316
  8
0
 10
4816.4729817470179114
 20
514.8424580840425051
 30
0.0
 40
0.4708270431035465
 50
298.417863117624222
 51
326.0827530379613108
  0
ARC
  5
1F317
  8
0
 10
4816.4765085214539795
 20
514.7538652186174204
 30
0.0
 40
0.46917201238095
 50
34.3856813606975393
 51
61.961797319077192
  0
ARC
  5
1F318
  8
0
 10
4816.5302526079722156
 20
514.7796665072348787
 30
0.0
 40
0.3253965877933393
 50
325.1129984452556982
 51
34.887001554744252
  0
ARC
  5
1F319
  8
0
 10
4816.476102525951319
 20
514.7455278712042173
 30
0.0
 40
0.3893521493587992
 50
34.4501813443877793
 51
56.4602800108843823
  0
ARC
  5
1F31A
  8
0
 10
4816.4758953603886766
 20
514.8140161751523465
 30
0.0
 40
0.3896423645413281
 50
303.5479799266976784
 51
325.5414620574737796
  0
ARC
  5
1F31B
  8
0
 10
4816.490198227302244
 20
514.8337569101271356
 30
0.0
 40
0.1913360226596223
 50
322.4456273647899138
 51
37.554372635210072
  0
ARC
  5
1F31C
  8
0
 10
4816.4576837881977553
 20
514.8122904082099467
 30
0.0
 40
0.23021382736192
 50
36.8575156583002723
 51
55.0864557479465091
  0
ARC
  5
1F31D
  8
0
 10
4816.4561858101924372
 20
514.8566612414808787
 30
0.0
 40
0.2322749896505432
 50
303.1534362779207754
 51
323.0803421414345848
  0
ARC
  5
1F31E
  8
0
 10
4816.5390176748260274
 20
514.8254830575442611
 30
0.0
 40
0.3925254034629853
 50
0.3444180373114779
 51
5.8218748556181197
  0
ARC
  5
1F31F
  8
0
 10
4816.5425766550833941
 20
514.825210937379893
 30
0.0
 40
0.3890128959837067
 50
5.9149186473811479
 51
18.4954717541801017
  0
ARC
  5
1F320
  8
0
 10
4816.5153339449352643
 20
514.8147093037781588
 30
0.0
 40
0.4181819895883793
 50
18.6759182264059689
 51
40.707200048074327
  0
ARC
  5
1F321
  8
0
 10
4816.4678325580207456
 20
514.7734831435790284
 30
0.0
 40
0.4810780465024896
 50
40.7395335917249426
 51
61.6330611668028112
  0
ARC
  5
1F322
  8
0
 10
4816.5536578943401764
 20
514.8559740201440036
 30
0.0
 40
0.3778780920426428
 50
357.7233619338658173
 51
0.0
  0
ARC
  5
1F323
  8
0
 10
4816.4315359863830963
 20
515.4386340248491933
 30
0.0
 40
0.5654359566578038
 50
60.8794365475952191
 51
119.1205634524047952
  0
ARC
  5
1F324
  8
0
 10
4816.4315359863830963
 20
515.4299166345512049
 30
0.0
 40
0.5631725848529826
 50
63.2002333822983076
 51
116.7997666177017067
  0
ARC
  5
1F325
  8
0
 10
4816.3919978878820984
 20
515.5160583672093253
 30
0.0
 40
0.4785673501219203
 50
119.4962689010433934
 51
139.1201581328622012
  0
ARC
  5
1F326
  8
0
 10
4816.3431356879973464
 20
515.5585259444641224
 30
0.0
 40
0.4138294928654373
 50
139.1381522039106073
 51
160.7562137221430874
  0
ARC
  5
1F327
  8
0
 10
4816.3123111362947384
 20
515.5705212968265414
 30
0.0
 40
0.3807755271390567
 50
160.9316182154298929
 51
179.9193499453245977
  0
ARC
  5
1F328
  8
0
 10
4816.4024186320366425
 20
515.4933313634837759
 30
0.0
 40
0.4934479871036156
 50
117.1019239843438982
 51
133.6948355246265123
  0
ARC
  5
1F329
  8
0
 10
4816.3649747972767727
 20
515.5327844123378327
 30
0.0
 40
0.4390554631858457
 50
133.7185668641342033
 51
150.6004488375199912
  0
ARC
  5
1F32A
  8
0
 10
4816.3296540863193513
 20
515.5528179157912518
 30
0.0
 40
0.3984490673476649
 50
150.6169442805513086
 51
170.2505572721318003
  0
ARC
  5
1F32B
  8
0
 10
4816.3154128756377759
 20
515.5559908488354495
 30
0.0
 40
0.3838768950036977
 50
170.3573501938201105
 51
179.9900848198041956
  0
ARC
  5
1F32C
  8
0
 10
4816.3118828504520934
 20
515.5711605402658506
 30
0.0
 40
0.3803468780875979
 50
180.0155552592395907
 51
181.1400551225574134
  0
LINE
  5
1F32D
  8
0
 10
4816.9315359863830963
 20
516.3610572797068698
 30
0.0
 11
4816.9315359863830963
 21
515.5710572797053146
 31
0.0
  0
LINE
  5
1F32E
  8
0
 10
4816.9315359863830963
 20
515.5560572797082841
 30
0.0
 11
4816.9315359863830963
 21
514.8559740201440036
 31
0.0
  0
ARC
  5
1F32F
  8
0
 10
4816.4710740848831847
 20
515.5160583672093253
 30
0.0
 40
0.4785673501219203
 50
40.879841867137813
 51
60.5037310989565214
  0
ARC
  5
1F330
  8
0
 10
4816.5199362847697557
 20
515.5585259444641224
 30
0.0
 40
0.4138294928654373
 50
19.2437862778568594
 51
40.8618477960893998
  0
ARC
  5
1F331
  8
0
 10
4816.5507608364714542
 20
515.5705212968265414
 30
0.0
 40
0.3807755271390567
 50
0.0806500546753478
 51
19.0683817845700787
  0
ARC
  5
1F332
  8
0
 10
4816.4606533407286406
 20
515.4933313634837759
 30
0.0
 40
0.4934479871036156
 50
46.3051644753734806
 51
62.8980760156560734
  0
ARC
  5
1F333
  8
0
 10
4816.4980971754894199
 20
515.5327844123378327
 30
0.0
 40
0.4390554631858457
 50
29.3995511624799484
 51
46.2814331358657682
  0
ARC
  5
1F334
  8
0
 10
4816.5334178864459318
 20
515.5528179157912518
 30
0.0
 40
0.3984490673476649
 50
9.7494427278682032
 51
29.3830557194487092
  0
ARC
  5
1F335
  8
0
 10
4816.5476590971265978
 20
515.5559908488354495
 30
0.0
 40
0.3838768950036977
 50
0.0099151801957469
 51
9.6426498061798895
  0
ARC
  5
1F336
  8
0
 10
4816.5511891223122802
 20
515.5711605402658506
 30
0.0
 40
0.3803468780875979
 50
358.8599448774426151
 51
359.9844447407602956
  0
LINE
  5
1F337
  8
0
 10
4812.1315359772343072
 20
516.1410573170069256
 30
0.0
 11
4810.9415360137463722
 21
516.1410573170069256
 31
0.0
  0
LINE
  5
1F338
  8
0
 10
4812.2115359490817355
 20
516.0610572888068646
 30
0.0
 11
4812.2115359490817355
 21
514.8710350175128951
 31
0.0
  0
ARC
  5
1F339
  8
0
 10
4812.1315053241632995
 20
516.061026692109067
 30
0.0
 40
0.0800306307681314
 50
0.0219048841353655
 51
89.9780547581471239
  0
LINE
  5
1F33A
  8
0
 10
4812.6515359490831543
 20
516.0610572705586492
 30
0.0
 11
4812.6515359490831543
 21
514.8710573070703731
 31
0.0
  0
LINE
  5
1F33B
  8
0
 10
4812.7315359772828742
 20
516.1410572424068732
 30
0.0
 11
4813.9215582485758205
 21
516.1410572424068732
 31
0.0
  0
ARC
  5
1F33C
  8
0
 10
4812.7315665739797623
 20
516.0610266174876415
 30
0.0
 40
0.0800306307681314
 50
90.0219048841614295
 51
179.9780547581470955
  0
LINE
  5
1F33D
  8
0
 10
4812.7315359955309759
 20
516.5810572424069278
 30
0.0
 11
4813.9215359590189109
 21
516.5810572424069278
 31
0.0
  0
LINE
  5
1F33E
  8
0
 10
4812.6515360236826382
 20
516.6610572706068751
 30
0.0
 11
4812.6515360236826382
 21
517.8510795419005035
 31
0.0
  0
ARC
  5
1F33F
  8
0
 10
4812.7315666486019836
 20
516.6610878673046727
 30
0.0
 40
0.0800306307681314
 50
180.0219048841354095
 51
269.9780547581472092
  0
LINE
  5
1F340
  8
0
 10
4812.2115360236830384
 20
516.6610572888552042
 30
0.0
 11
4812.2115360236830384
 21
517.8510572523434803
 31
0.0
  0
LINE
  5
1F341
  8
0
 10
4812.1315359954833184
 20
516.5810573170069802
 30
0.0
 11
4810.9415137241885532
 21
516.5810573170069802
 31
0.0
  0
ARC
  5
1F342
  8
0
 10
4812.1315053987837018
 20
516.6610879419263256
 30
0.0
 40
0.0800306307681314
 50
270.0219048841614153
 51
359.9780547581472092
  0
ARC
  5
1F343
  8
0
 10
4812.4315359863830963
 20
516.3610572797068698
 30
0.0
 40
0.9900000000000005
 50
102.8395861928483015
 51
167.1604093790126058
  0
ARC
  5
1F344
  8
0
 10
4812.4315359863830963
 20
516.3610572797068698
 30
0.0
 40
0.545
 50
113.8077877918636034
 51
156.1922036359744936
  0
LINE
  5
1F345
  8
0
 10
4810.9315359864331185
 20
516.5710573267839436
 30
0.0
 11
4810.9315359864331185
 21
516.1510573443207477
 31
0.0
  0
ARC
  5
1F346
  8
0
 10
4810.9415360014791077
 20
516.5710573267745076
 30
0.0
 40
0.0100000150462839
 50
90.1276393837704575
 51
179.9999999455056923
  0
ARC
  5
1F347
  8
0
 10
4810.9415360137463722
 20
516.1510573443202929
 30
0.0
 40
0.0100000273134269
 50
179.9999999971012983
 51
270.0000000017196271
  0
ARC
  5
1F348
  8
0
 10
4812.4315359863830963
 20
516.3610572797068698
 30
0.0
 40
0.9900000000000005
 50
192.8395861928214003
 51
257.1604093789949843
  0
ARC
  5
1F349
  8
0
 10
4812.4315359863830963
 20
516.3610572797068698
 30
0.0
 40
0.545
 50
203.8077877918873924
 51
246.1922036359977142
  0
LINE
  5
1F34A
  8
0
 10
4812.2215359393057952
 20
514.8610572797568921
 30
0.0
 11
4812.6415359217689911
 21
514.8610572797568921
 31
0.0
  0
ARC
  5
1F34B
  8
0
 10
4812.2215359393148901
 20
514.8710572948032222
 30
0.0
 40
0.0100000150462839
 50
180.1276393837833893
 51
269.9999999454926751
  0
ARC
  5
1F34C
  8
0
 10
4812.6415359217689911
 20
514.8710573070703731
 30
0.0
 40
0.0100000273134269
 50
269.9999999970817726
 51
0.000000001745692
  0
ARC
  5
1F34D
  8
0
 10
4812.4315359863830963
 20
516.3610572797068698
 30
0.0
 40
0.9900000000000005
 50
282.839586192848401
 51
347.1604093790126058
  0
ARC
  5
1F34E
  8
0
 10
4812.4315359863830963
 20
516.3610572797068698
 30
0.0
 40
0.545
 50
293.807787791863575
 51
336.1922036359745221
  0
LINE
  5
1F34F
  8
0
 10
4813.9315359863330741
 20
516.1510572326299098
 30
0.0
 11
4813.9315359863330741
 21
516.5710572150928783
 31
0.0
  0
ARC
  5
1F350
  8
0
 10
4813.9215359712861755
 20
516.1510572326393458
 30
0.0
 40
0.0100000150462839
 50
270.1276393837703722
 51
359.999999945505806
  0
ARC
  5
1F351
  8
0
 10
4813.9215359590189109
 20
516.5710572150934468
 30
0.0
 40
0.0100000273134269
 50
359.9999999971013835
 51
90.0000000017196555
  0
ARC
  5
1F352
  8
0
 10
4812.4315359863830963
 20
516.3610572797068698
 30
0.0
 40
0.9900000000000005
 50
12.8395861928214607
 51
77.1604093789950127
  0
ARC
  5
1F353
  8
0
 10
4812.4315359863830963
 20
516.3610572797068698
 30
0.0
 40
0.545
 50
23.8077877918874492
 51
66.1922036359976858
  0
LINE
  5
1F354
  8
0
 10
4812.6415360334603974
 20
517.8610572796569613
 30
0.0
 11
4812.221536050998111
 21
517.8610572796569613
 31
0.0
  0
ARC
  5
1F355
  8
0
 10
4812.641536033450393
 20
517.8510572646107448
 30
0.0
 40
0.0100000150462839
 50
0.1276393837834422
 51
89.9999999454927178
  0
ARC
  5
1F356
  8
0
 10
4812.221536050996292
 20
517.8510572523434803
 30
0.0
 40
0.0100000273134269
 50
89.9999999970818294
 51
180.0000000017456898
  0
LINE
  5
1F357
  8
0
 10
4820.7315359955300664
 20
516.1410573170069256
 30
0.0
 11
4821.9215359590189109
 21
516.1410573170069256
 31
0.0
  0
LINE
  5
1F358
  8
0
 10
4820.6515360236826382
 20
516.0610572888068646
 30
0.0
 11
4820.6515360236826382
 21
514.8710350175128951
 31
0.0
  0
ARC
  5
1F359
  8
0
 10
4820.7315666486019836
 20
516.061026692109067
 30
0.0
 40
0.0800306307681314
 50
90.0219452418528618
 51
179.9780951158645905
  0
LINE
  5
1F35A
  8
0
 10
4820.2115360236830384
 20
516.0610572705586492
 30
0.0
 11
4820.2115360236830384
 21
514.8710573070703731
 31
0.0
  0
LINE
  5
1F35B
  8
0
 10
4820.1315359954824089
 20
516.1410572424068732
 30
0.0
 11
4818.9415137241885532
 21
516.1410572424068732
 31
0.0
  0
ARC
  5
1F35C
  8
0
 10
4820.1315053987837018
 20
516.0610266174876415
 30
0.0
 40
0.0800306307681314
 50
0.021945241852861
 51
89.9780951158385847
  0
LINE
  5
1F35D
  8
0
 10
4820.1315359772343072
 20
516.5810572424069278
 30
0.0
 11
4818.9415360137463722
 21
516.5810572424069278
 31
0.0
  0
LINE
  5
1F35E
  8
0
 10
4820.2115359490817355
 20
516.6610572706068751
 30
0.0
 11
4820.2115359490817355
 21
517.8510795419005035
 31
0.0
  0
ARC
  5
1F35F
  8
0
 10
4820.1315053241632995
 20
516.6610878673046727
 30
0.0
 40
0.0800306307681314
 50
270.0219452418529045
 51
359.9780951158646189
  0
LINE
  5
1F360
  8
0
 10
4820.6515359490831543
 20
516.6610572888552042
 30
0.0
 11
4820.6515359490831543
 21
517.8510572523434803
 31
0.0
  0
LINE
  5
1F361
  8
0
 10
4820.7315359772828742
 20
516.5810573170069802
 30
0.0
 11
4821.9215582485758205
 21
516.5810573170069802
 31
0.0
  0
ARC
  5
1F362
  8
0
 10
4820.7315665739797623
 20
516.6610879419263256
 30
0.0
 40
0.0800306307681314
 50
180.0219452418527908
 51
269.9780951158385847
  0
ARC
  5
1F363
  8
0
 10
4820.4315359863830963
 20
516.3610572797068698
 30
0.0
 40
0.9900000000000005
 50
12.8395906209873907
 51
77.1604138071516843
  0
ARC
  5
1F364
  8
0
 10
4820.4315359863830963
 20
516.3610572797068698
 30
0.0
 40
0.545
 50
23.8077963640254602
 51
66.1922122081363824
  0
LINE
  5
1F365
  8
0
 10
4821.9315359863330741
 20
516.5710573267839436
 30
0.0
 11
4821.9315359863330741
 21
516.1510573443207477
 31
0.0
  0
ARC
  5
1F366
  8
0
 10
4821.9215359712861755
 20
516.5710573267745076
 30
0.0
 40
0.0100000150462839
 50
0.0000000544942499
 51
89.8723606162295425
  0
ARC
  5
1F367
  8
0
 10
4821.9215359590198204
 20
516.1510573443202929
 30
0.0
 40
0.0100000273134269
 50
269.9999999982803729
 51
0.0000000028986303
  0
ARC
  5
1F368
  8
0
 10
4820.4315359863830963
 20
516.3610572797068698
 30
0.0
 40
0.9900000000000005
 50
282.8395906210050157
 51
347.1604138071785997
  0
ARC
  5
1F369
  8
0
 10
4820.4315359863830963
 20
516.3610572797068698
 30
0.0
 40
0.545
 50
293.8077963640022858
 51
336.192212208112494
  0
LINE
  5
1F36A
  8
0
 10
4820.6415360334603974
 20
514.8610572797568921
 30
0.0
 11
4820.2215360509972015
 21
514.8610572797568921
 31
0.0
  0
ARC
  5
1F36B
  8
0
 10
4820.641536033450393
 20
514.8710572948032222
 30
0.0
 40
0.0100000150462839
 50
270.0000000545073249
 51
359.872360616216497
  0
ARC
  5
1F36C
  8
0
 10
4820.2215360509972015
 20
514.8710573070703731
 30
0.0
 40
0.0100000273134269
 50
179.9999999982543102
 51
270.0000000029182274
  0
ARC
  5
1F36D
  8
0
 10
4820.4315359863830963
 20
516.3610572797068698
 30
0.0
 40
0.9900000000000005
 50
192.8395906209873942
 51
257.1604138071517127
  0
ARC
  5
1F36E
  8
0
 10
4820.4315359863830963
 20
516.3610572797068698
 30
0.0
 40
0.545
 50
203.8077963640255064
 51
246.1922122081363966
  0
LINE
  5
1F36F
  8
0
 10
4818.9315359864331185
 20
516.1510572326299098
 30
0.0
 11
4818.9315359864331185
 21
516.5710572150928783
 31
0.0
  0
ARC
  5
1F370
  8
0
 10
4818.9415360014791077
 20
516.1510572326393458
 30
0.0
 40
0.0100000150462839
 50
180.000000054494194
 51
269.8723606162296278
  0
ARC
  5
1F371
  8
0
 10
4818.9415360137463722
 20
516.5710572150934468
 30
0.0
 40
0.0100000273134269
 50
89.9999999982803587
 51
180.000000002898588
  0
ARC
  5
1F372
  8
0
 10
4820.4315359863830963
 20
516.3610572797068698
 30
0.0
 40
0.9900000000000005
 50
102.8395906210050015
 51
167.160413807178486
  0
ARC
  5
1F373
  8
0
 10
4820.4315359863830963
 20
516.3610572797068698
 30
0.0
 40
0.545
 50
113.8077963640023
 51
156.192212208112494
  0
LINE
  5
1F374
  8
0
 10
4820.2215359393057952
 20
517.8610572796569613
 30
0.0
 11
4820.6415359217689911
 21
517.8610572796569613
 31
0.0
  0
ARC
  5
1F375
  8
0
 10
4820.2215359393148901
 20
517.8510572646107448
 30
0.0
 40
0.0100000150462839
 50
90.000000054507268
 51
179.872360616216497
  0
ARC
  5
1F376
  8
0
 10
4820.6415359217689911
 20
517.8510572523434803
 30
0.0
 40
0.0100000273134269
 50
359.9999999982542818
 51
90.0000000029181848
  0
ENDSEC
  0
EOF
