  0
SECTION
  2
HEADER
  9
$ACADVER
  1
AC1009
  9
$INSBASE
 10
3428.531796477745047
 20
184.6202073231779082
 30
0.0
  9
$EXTMIN
 10
3422.9124623120310389
 20
175.8605932127466076
 30
-0.0000000349181948
  9
$EXTMAX
 10
3434.1784163639040344
 20
184.636296608955405
 30
0.0000000814935746
  9
$LIMMIN
 10
0.0
 20
0.0
  9
$LIMMAX
 10
11.6929133858000007
 20
8.2677165353999982
  9
$ORTHOMODE
 70
     0
  9
$REGENMODE
 70
     1
  9
$FILLMODE
 70
     1
  9
$QTEXTMODE
 70
     0
  9
$MIRRTEXT
 70
     0
  9
$DRAGMODE
 70
     2
  9
$LTSCALE
 40
0.6431102362
  9
$OSMODE
 70
  4095
  9
$ATTMODE
 70
     1
  9
$TEXTSIZE
 40
0.2
  9
$TRACEWID
 40
0.05
  9
$TEXTSTYLE
  7
STANDARD
  9
$CLAYER
  8
0
  9
$CELTYPE
  6
BYLAYER
  9
$CECOLOR
 62
   256
  9
$DIMSCALE
 40
1.0
  9
$DIMASZ
 40
0.1875
  9
$DIMEXO
 40
0.0625
  9
$DIMDLI
 40
0.4443307087
  9
$DIMRND
 40
0.0
  9
$DIMDLE
 40
0.0
  9
$DIMEXE
 40
0.125
  9
$DIMTP
 40
0.01
  9
$DIMTM
 40
0.01
  9
$DIMTXT
 40
2.0
  9
$DIMCEN
 40
0.1052362205
  9
$DIMTSZ
 40
0.0
  9
$DIMTOL
 70
     1
  9
$DIMLIM
 70
     0
  9
$DIMTIH
 70
     1
  9
$DIMTOH
 70
     1
  9
$DIMSE1
 70
     0
  9
$DIMSE2
 70
     0
  9
$DIMTAD
 70
     0
  9
$DIMZIN
 70
     0
  9
$DIMBLK
  1

  9
$DIMASO
 70
     1
  9
$DIMSHO
 70
     1
  9
$DIMPOST
  1
\X
  9
$DIMAPOST
  1

  9
$DIMALT
 70
     1
  9
$DIMALTD
 70
     2
  9
$DIMALTF
 40
25.3999999999999986
  9
$DIMLFAC
 40
1.0
  9
$DIMTOFL
 70
     0
  9
$DIMTVP
 40
0.0
  9
$DIMTIX
 70
     0
  9
$DIMSOXD
 70
     0
  9
$DIMSAH
 70
     0
  9
$DIMBLK1
  1

  9
$DIMBLK2
  1

  9
$DIMSTYLE
  2
STANDARD
  9
$DIMCLRD
 70
     0
  9
$DIMCLRE
 70
     0
  9
$DIMCLRT
 70
     0
  9
$DIMTFAC
 40
1.0
  9
$DIMGAP
 40
0.09
  9
$LUNITS
 70
     2
  9
$LUPREC
 70
     4
  9
$SKETCHINC
 40
0.1
  9
$FILLETRAD
 40
0.0
  9
$AUNITS
 70
     0
  9
$AUPREC
 70
     0
  9
$MENU
  1
.
  9
$ELEVATION
 40
0.0
  9
$PELEVATION
 40
0.0
  9
$THICKNESS
 40
0.0
  9
$LIMCHECK
 70
     0
  9
$BLIPMODE
 70
     0
  9
$CHAMFERA
 40
0.0
  9
$CHAMFERB
 40
0.0
  9
$SKPOLY
 70
     0
  9
$TDCREATE
 40
2458060.468368056230247
  9
$TDUPDATE
 40
2459067.7932754629291594
  9
$TDINDWG
 40
0.522784838
  9
$TDUSRTIMER
 40
0.522784838
  9
$USRTIMER
 70
     1
  9
$ANGBASE
 50
0.0
  9
$ANGDIR
 70
     0
  9
$PDMODE
 70
     0
  9
$PDSIZE
 40
0.3125
  9
$PLINEWID
 40
0.0
  9
$COORDS
 70
     1
  9
$SPLFRAME
 70
     0
  9
$SPLINETYPE
 70
     6
  9
$SPLINESEGS
 70
     8
  9
$ATTDIA
 70
     1
  9
$ATTREQ
 70
     1
  9
$HANDLING
 70
     1
  9
$HANDSEED
  5
AD6C
  9
$SURFTAB1
 70
     6
  9
$SURFTAB2
 70
     6
  9
$SURFTYPE
 70
     6
  9
$SURFU
 70
     6
  9
$SURFV
 70
     6
  9
$UCSNAME
  2

  9
$UCSORG
 10
0.0
 20
0.0
 30
0.0
  9
$UCSXDIR
 10
1.0
 20
0.0
 30
0.0
  9
$UCSYDIR
 10
0.0
 20
1.0
 30
0.0
  9
$PUCSNAME
  2

  9
$PUCSORG
 10
0.0
 20
0.0
 30
0.0
  9
$PUCSXDIR
 10
1.0
 20
0.0
 30
0.0
  9
$PUCSYDIR
 10
0.0
 20
1.0
 30
0.0
  9
$USERI1
 70
     0
  9
$USERI2
 70
     0
  9
$USERI3
 70
     0
  9
$USERI4
 70
     0
  9
$USERI5
 70
     0
  9
$USERR1
 40
0.0
  9
$USERR2
 40
0.0
  9
$USERR3
 40
0.0
  9
$USERR4
 40
0.0
  9
$USERR5
 40
0.0
  9
$WORLDVIEW
 70
     1
  9
$SHADEDGE
 70
     3
  9
$SHADEDIF
 70
    70
  9
$TILEMODE
 70
     1
  9
$MAXACTVP
 70
    64
  9
$PLIMCHECK
 70
     0
  9
$PEXTMIN
 10
1.0000000000000000E+20
 20
1.0000000000000000E+20
 30
1.0000000000000000E+20
  9
$PEXTMAX
 10
-1.0000000000000000E+20
 20
-1.0000000000000000E+20
 30
-1.0000000000000000E+20
  9
$PLIMMIN
 10
0.0
 20
0.0
  9
$PLIMMAX
 10
12.0
 20
9.0
  9
$UNITMODE
 70
     0
  9
$VISRETAIN
 70
     1
  9
$PLINEGEN
 70
     0
  9
$PSLTSCALE
 70
     1
  0
ENDSEC
  0
SECTION
  2
TABLES
  0
TABLE
  2
VPORT
 70
     1
  0
VPORT
  2
*ACTIVE
 70
     0
 10
0.0
 20
0.0
 11
1.0
 21
1.0
 12
124.8523241035926929
 22
-15.0130666650367708
 13
0.0
 23
0.0
 14
1.0
 24
1.0
 15
0.0
 25
0.0
 16
0.0
 26
0.0
 36
96.5995694866707311
 17
3303.693115234375
 27
195.2615115758877096
 37
0.0
 40
8.8487328280773596
 41
2.6486111111111108
 42
50.0
 43
0.0
 44
0.0
 50
0.0
 51
0.0
 71
     0
 72
   100
 73
     1
 74
     1
 75
     0
 76
     0
 77
     0
 78
     0
  0
ENDTAB
  0
TABLE
  2
LTYPE
 70
     2
  0
LTYPE
  2
CONTINUOUS
 70
     0
  3
Solid line
 72
    65
 73
     0
 40
0.0
  0
LTYPE
  2
PHANTOM2
 70
     0
  3
___ _ _ ___ _ _ ___ _ _ ___ _ _
 72
    65
 73
     6
 40
1.25
 49
0.625
 49
-0.125
 49
0.125
 49
-0.125
 49
0.125
 49
-0.125
  0
ENDTAB
  0
TABLE
  2
LAYER
 70
     2
  0
LAYER
  2
0
 70
     0
 62
   255
  6
CONTINUOUS
  0
LAYER
  2
DEFPOINTS
 70
     0
 62
     7
  6
CONTINUOUS
  0
ENDTAB
  0
TABLE
  2
STYLE
 70
     1
  0
STYLE
  2
STANDARD
 70
     0
 40
0.0
 41
0.8
 50
0.0
 71
     0
 42
0.2
  3
txt
  4

  0
ENDTAB
  0
TABLE
  2
VIEW
 70
     0
  0
ENDTAB
  0
TABLE
  2
UCS
 70
     0
  0
ENDTAB
  0
TABLE
  2
APPID
 70
     9
  0
APPID
  2
ACAD
 70
     0
  0
APPID
  2
ACAD_MLEADERVER
 70
     0
  0
APPID
  2
ACAD_EXEMPT_FROM_CAD_STANDARDS
 70
     0
  0
APPID
  2
ACAD_NAV_VCDISPLAY
 70
     0
  0
APPID
  2
ACAECLAYERSTANDARD
 70
     0
  0
APPID
  2
ACCMTRANSPARENCY
 70
     0
  0
APPID
  2
ACAD_DSTYLE_DIMJAG
 70
     0
  0
APPID
  2
ACAD_DSTYLE_DIMTALN
 70
     0
  0
APPID
  2
ACDBATTR
 70
     0
  0
ENDTAB
  0
TABLE
  2
DIMSTYLE
 70
     1
  0
DIMSTYLE
  2
STANDARD
 70
     0
  3

  4

  5

  6

  7

 40
1.0
 41
0.1875
 42
0.0625
 43
0.38
 44
0.125
 45
0.0
 46
0.0
 47
0.01
 48
0.01
140
0.15625
141
0.09
142
0.0
143
25.3999999999999986
144
1.0
145
0.0
146
1.0
147
0.09
 71
     1
 72
     0
 73
     1
 74
     1
 75
     0
 76
     0
 77
     0
 78
     4
170
     0
171
     2
172
     0
173
     0
174
     0
175
     0
176
     0
177
     0
178
     0
  0
ENDTAB
  0
ENDSEC
  0
SECTION
  2
BLOCKS
  0
BLOCK
  8
0
  2
$MODEL_SPACE
 70
     0
 10
0.0
 20
0.0
 30
0.0
  3
$MODEL_SPACE
  1

  0
ENDBLK
  5
21
  8
0
  0
BLOCK
 67
     1
  8
0
  2
$PAPER_SPACE
 70
     0
 10
0.0
 20
0.0
 30
0.0
  3
$PAPER_SPACE
  1

  0
ENDBLK
  5
1D
 67
     1
  8
0
  0
BLOCK
  8
0
  2
_FILLED
 70
     0
 10
0.0
 20
0.0
 30
0.0
  3
_FILLED
  1

  0
SOLID
  5
8C85
  8
0
  6
BYBLOCK
 62
     0
 10
0.0
 20
0.0
 30
0.0
 11
-1.0
 21
0.1666666667
 31
0.0
 12
-1.0
 22
-0.1666666667
 32
0.0
 13
-1.0
 23
-0.1666666667
 33
0.0
  0
ENDBLK
  5
8C86
  8
0
  6
BYBLOCK
 62
     0
  0
ENDSEC
  0
SECTION
  2
ENTITIES
  0
ATTDEF
  5
9F04
  8
DEFPOINTS
 10
3428.5320588706258604
 20
184.6240269598750103
 30
0.0
 40
0.001
  1
K-14415W-3
  3

  2
MODELNUMBER
 70
     0
1001
ACDBATTR
1070
     0
1070
     1
  0
ATTDEF
  5
9F05
  8
DEFPOINTS
 10
3428.5320588706258604
 20
184.6223602932082883
 30
0.0
 40
0.001
  1
PURIST
  3

  2
TRADENAME
 70
     0
1001
ACDBATTR
1070
     0
1070
     1
  0
ATTDEF
  5
9F06
  8
DEFPOINTS
 10
3428.5320588706258604
 20
184.6206936265417085
 30
0.0
 40
0.001
  1
BATHROOM SINK FAUCET
  3

  2
PRODUCT
 70
     0
1001
ACDBATTR
1070
     0
1070
     1
  0
LINE
  5
A88B
  8
0
 10
3433.4588171407031041
 20
184.6202073231779082
 30
0.0
 11
3431.4788171407039954
 21
184.6202073231779082
 31
0.0
  0
LINE
  5
A88C
  8
0
 10
3429.5217836887868543
 20
184.6202073231779082
 30
0.0
 11
3427.5418092667041492
 21
184.6202073231779082
 31
0.0
  0
LINE
  5
A88D
  8
0
 10
3433.4588171407031041
 20
184.6202073231779082
 30
0.0
 11
3433.4588171407031041
 21
184.4402073231779013
 31
0.0
  0
ARC
  5
A88E
  8
0
 10
3433.29381714070405
 20
184.1602073231779002
 30
0.0
 40
0.2800000000000011
 50
90.0
 51
180.0
  0
LINE
  5
A88F
  8
0
 10
3433.0138171407038499
 20
184.1602073231779002
 30
0.0
 11
3433.0138171407038499
 21
182.6382073231779088
 31
0.0
  0
LINE
  5
A890
  8
0
 10
3433.0138171407038499
 20
182.6302073231778991
 30
0.0
 11
3433.0138171407038499
 21
182.6102073231778888
 31
0.0
  0
LINE
  5
A891
  8
0
 10
3433.0138171407038499
 20
182.6382073231779088
 30
0.0
 11
3431.9238171407041591
 21
182.6382073231779088
 31
0.0
  0
LINE
  5
A892
  8
0
 10
3433.0138171407038499
 20
182.6302073231778991
 30
0.0
 11
3431.9238171407041591
 21
182.6302073231778991
 31
0.0
  0
LINE
  5
A893
  8
0
 10
3433.0138171407038499
 20
182.6102073231778888
 30
0.0
 11
3431.9238171407041591
 21
182.6102073231778888
 31
0.0
  0
ARC
  5
A894
  8
0
 10
3433.003204690102848
 20
182.6002073231778979
 30
0.0
 40
0.0100000000000004
 50
1.0000007772056521
 51
90.0000398737930993
  0
ARC
  5
A895
  8
0
 10
3432.0059366591867729
 20
182.5652073231597114
 30
0.0
 40
1.0078804815161619
 50
357.9999998456581238
 51
2.0000001522748412
  0
ARC
  5
A896
  8
0
 10
3433.0032046900369096
 20
182.5302073232990949
 30
0.0
 40
0.0100000001212368
 50
270.0000003815248988
 51
358.9999979671558776
  0
LINE
  5
A897
  8
0
 10
3433.003204690102848
 20
182.5202073231779138
 30
0.0
 11
3431.9344296037561435
 21
182.5202073160610894
 31
0.0
  0
ARC
  5
A898
  8
0
 10
3432.9322665677200348
 20
182.2702073231419035
 30
0.0
 40
0.2500000000359904
 50
90.0035225292388219
 51
179.7499999926282044
  0
LINE
  5
A899
  8
0
 10
3432.6822689475038715
 20
182.2712981504953973
 30
0.0
 11
3432.6793406234551185
 21
181.6001799933559084
 31
0.0
  0
LINE
  5
A89A
  8
0
 10
3431.4788171407039954
 20
184.6202073231779082
 30
0.0
 11
3431.4788171407039954
 21
184.4402073231779013
 31
0.0
  0
LINE
  5
A89B
  8
0
 10
3431.4788171407039954
 20
184.4402073231779013
 30
0.0
 11
3433.4588171407031041
 21
184.4402073231779013
 31
0.0
  0
ARC
  5
A89C
  8
0
 10
3431.643817140703959
 20
184.1602073231779002
 30
0.0
 40
0.2800000000000011
 50
0.0
 51
90.0
  0
LINE
  5
A89D
  8
0
 10
3431.9238171407041591
 20
184.1602073231779002
 30
0.0
 11
3431.9238171407041591
 21
182.6382073231779088
 31
0.0
  0
LINE
  5
A89E
  8
0
 10
3431.9238171407041591
 20
182.6302073231778991
 30
0.0
 11
3431.9238171407041591
 21
182.6102073231778888
 31
0.0
  0
ARC
  5
A89F
  8
0
 10
3431.9344295913028873
 20
182.6002073231778979
 30
0.0
 40
0.0100000000000004
 50
89.9999601262068865
 51
178.9999992227942869
  0
ARC
  5
A8A0
  8
0
 10
3432.9318511261481035
 20
182.5652073231597114
 30
0.0
 40
1.008033891947929
 50
178.000304346947388
 51
181.9996956551188987
  0
ARC
  5
A8A1
  8
0
 10
3431.9344296036888409
 20
182.5302073285918141
 30
0.0
 40
0.0100000125307005
 50
181.0000311209925883
 51
269.9999290360843816
  0
ARC
  5
A8A2
  8
0
 10
3432.0053677136879742
 20
182.2702073231419035
 30
0.0
 40
0.2500000000359904
 50
0.2500000073717774
 51
89.9964774707611923
  0
LINE
  5
A8A3
  8
0
 10
3432.2553653339041375
 20
182.2712981504953973
 30
0.0
 11
3432.258293874967876
 21
181.6001302571476117
 31
0.0
  0
LINE
  5
A8A4
  8
0
 10
3431.9888171407042137
 20
182.6382073231779088
 30
0.0
 11
3431.9888171407042137
 21
182.6302073231778991
 31
0.0
  0
LINE
  5
A8A5
  8
0
 10
3432.9488171407037953
 20
182.6382073231779088
 30
0.0
 11
3432.9488171407037953
 21
182.6302073231778991
 31
0.0
  0
LINE
  5
A8A6
  8
0
 10
3427.5418092667041492
 20
184.6202073231779082
 30
0.0
 11
3427.5418092667041492
 21
184.4402073231779013
 31
0.0
  0
LINE
  5
A8A7
  8
0
 10
3427.5418092667041492
 20
184.4402073231779013
 30
0.0
 11
3429.5217836887868543
 21
184.4402073231779013
 31
0.0
  0
ARC
  5
A8A8
  8
0
 10
3427.8108996773921717
 20
184.1481180699971105
 30
0.0
 40
0.2959716948902245
 50
37.0080528120107601
 51
80.7094612188015361
  0
ARC
  5
A8A9
  8
0
 10
3427.8636338310961946
 20
184.173948968793411
 30
0.0
 40
0.2385715216680028
 50
356.6979532804697897
 51
39.6783792809826821
  0
LINE
  5
A8AA
  8
0
 10
3428.1018162461041356
 20
184.1602073231779002
 30
0.0
 11
3428.9617836887859994
 21
184.1602073231779002
 31
0.0
  0
LINE
  5
A8AB
  8
0
 10
3428.1568092667039309
 20
184.1602073231779002
 30
0.0
 11
3428.1568092667039309
 21
176.173559768877908
 31
0.0
  0
ARC
  5
A8AC
  8
0
 10
3428.4226198145629496
 20
176.1752783708892025
 30
0.0
 40
0.2658161036250267
 50
180.3704415443488926
 51
217.9229798958249944
  0
ARC
  5
A8AD
  8
0
 10
3428.4957000030199197
 20
176.232216833822406
 30
0.0
 40
0.3584589798006418
 50
217.9229798958249944
 51
248.6991515094487113
  0
ARC
  5
A8AE
  8
0
 10
3428.5307313157932185
 20
176.3107329338843101
 30
0.0
 40
0.4443560334569811
 50
248.1684188982407875
 51
270.1373433423399888
  0
ARC
  5
A8AF
  8
0
 10
3428.531758405059918
 20
176.5572664177431079
 30
0.0
 40
0.454530013110939
 50
257.0498224973518973
 51
270.0047992522120808
  0
ARC
  5
A8B0
  8
0
 10
3428.5244022000410951
 20
176.5252763054552076
 30
0.0
 40
0.4217050068431047
 50
241.3256447025210036
 51
257.0498224973518973
  0
ARC
  5
A8B1
  8
0
 10
3428.4919070209398342
 20
176.4658595271748993
 30
0.0
 40
0.3539828523734277
 50
220.4636556164821002
 51
241.3256447025210036
  0
ARC
  5
A8B2
  8
0
 10
3428.4360257114499291
 20
176.4181936510732953
 30
0.0
 40
0.2805338462888975
 50
200.061641393204809
 51
220.4636556164821002
  0
ARC
  5
A8B3
  8
0
 10
3428.417431425434188
 20
176.4114032208852905
 30
0.0
 40
0.2607384575680895
 50
187.5434198696592887
 51
200.061641393204809
  0
ARC
  5
A8B4
  8
0
 10
3428.4091194388220174
 20
176.4103025182839133
 30
0.0
 40
0.2523539082274038
 50
181.0667409277255899
 51
187.5434198696592887
  0
ARC
  5
A8B5
  8
0
 10
3428.531520120543064
 20
176.5470940260682084
 30
0.0
 40
0.4512853592078407
 50
253.6022510725032078
 51
270.0350866740322999
  0
ARC
  5
A8B6
  8
0
 10
3428.5187212763821663
 20
176.5036010650410105
 30
0.0
 40
0.4059483095599675
 50
235.3932254071509078
 51
253.6022546452695963
  0
ARC
  5
A8B7
  8
0
 10
3428.4752362071481002
 20
176.4405818116223941
 30
0.0
 40
0.3293821450503926
 50
216.5426294623696037
 51
235.3932254071509078
  0
ARC
  5
A8B8
  8
0
 10
3428.4358493860181625
 20
176.4113917217709115
 30
0.0
 40
0.280357834507132
 50
196.1848765298508965
 51
216.5426294623696037
  0
ARC
  5
A8B9
  8
0
 10
3428.3985192403661131
 20
176.4005569962174036
 30
0.0
 40
0.2414871379312793
 50
186.9718741558693864
 51
196.1848765298508965
  0
ARC
  5
A8BA
  8
0
 10
3428.4439306584340557
 20
176.4061101905855935
 30
0.0
 40
0.2872368358394483
 50
181.624493576334487
 51
186.9718741558693864
  0
LINE
  5
A8BB
  8
0
 10
3429.5217836887868543
 20
184.6202073231779082
 30
0.0
 11
3429.5217836887868543
 21
184.4402073231779013
 31
0.0
  0
ARC
  5
A8BC
  8
0
 10
3429.2526932780988318
 20
184.1481180699971105
 30
0.0
 40
0.2959716948902245
 50
99.2905387811985065
 51
142.9919471879892114
  0
ARC
  5
A8BD
  8
0
 10
3429.1999591243948089
 20
184.173948968793411
 30
0.0
 40
0.2385715216680028
 50
140.3216207190185116
 51
183.3020467195302103
  0
LINE
  5
A8BE
  8
0
 10
3428.9067836887870726
 20
184.1602073231779002
 30
0.0
 11
3428.9067836887870726
 21
176.173559768877908
 31
0.0
  0
ARC
  5
A8BF
  8
0
 10
3428.6409731409271444
 20
176.1752783708892025
 30
0.0
 40
0.2658161036250267
 50
322.0770201041748919
 51
359.6295584556510789
  0
ARC
  5
A8C0
  8
0
 10
3428.5678929524701744
 20
176.232216833822406
 30
0.0
 40
0.3584589798006418
 50
291.3008484905514024
 51
322.0770201041748919
  0
ARC
  5
A8C1
  8
0
 10
3428.5328616396968755
 20
176.3107329338843101
 30
0.0
 40
0.4443560334569811
 50
269.8626566576598975
 51
291.8315811017591841
  0
ARC
  5
A8C2
  8
0
 10
3428.531834550430176
 20
176.5572664177431079
 30
0.0
 40
0.4545300131109386
 50
269.9952007477879192
 51
282.9501775026482164
  0
ARC
  5
A8C3
  8
0
 10
3428.5391907554499085
 20
176.5252763054552076
 30
0.0
 40
0.4217050068431047
 50
282.9501775026482164
 51
298.6743552974789964
  0
ARC
  5
A8C4
  8
0
 10
3428.5716859345511693
 20
176.4658595271748993
 30
0.0
 40
0.3539828523734277
 50
298.6743552974789964
 51
319.5363443835179282
  0
ARC
  5
A8C5
  8
0
 10
3428.6275672440410744
 20
176.4181936510732953
 30
0.0
 40
0.2805338462888975
 50
319.5363443835179282
 51
339.9383586067937131
  0
ARC
  5
A8C6
  8
0
 10
3428.6461615300568155
 20
176.4114032208852905
 30
0.0
 40
0.2607384575680895
 50
339.9383586067937131
 51
352.4565801303406261
  0
ARC
  5
A8C7
  8
0
 10
3428.6544735166689861
 20
176.4103025182839133
 30
0.0
 40
0.2523539082274038
 50
352.4565801303406261
 51
358.9332590722743817
  0
ARC
  5
A8C8
  8
0
 10
3428.5320727513490056
 20
176.5470944098341874
 30
0.0
 40
0.4512857509643124
 50
269.9649239701570878
 51
286.3977453547303753
  0
ARC
  5
A8C9
  8
0
 10
3428.5448716791088373
 20
176.5036010650410105
 30
0.0
 40
0.4059483095599675
 50
286.3977453547303753
 51
304.6067745928490922
  0
ARC
  5
A8CA
  8
0
 10
3428.5883567483419938
 20
176.4405818116223941
 30
0.0
 40
0.3293821450503926
 50
304.6067745928490922
 51
323.4573705376304247
  0
ARC
  5
A8CB
  8
0
 10
3428.6277435694719316
 20
176.4113917217709115
 30
0.0
 40
0.280357834507132
 50
323.4573705376304247
 51
343.8151234701491035
  0
ARC
  5
A8CC
  8
0
 10
3428.6650737151248904
 20
176.4005569962174036
 30
0.0
 40
0.2414871379312793
 50
343.8151234701491035
 51
353.0281258441306136
  0
ARC
  5
A8CD
  8
0
 10
3428.6196622970569479
 20
176.4061101905855935
 30
0.0
 40
0.2872368358394483
 50
353.0281258441306136
 51
358.375506423665513
  0
LINE
  5
A8CE
  8
0
 10
3430.9788043518451559
 20
181.6302073231778991
 30
0.0
 11
3432.226298519744887
 21
181.6302073231778991
 31
0.0
  0
ARC
  5
A8CF
  8
0
 10
3432.226298519744887
 20
181.6151923330365889
 30
0.0
 40
0.015014990141319
 50
47.8041007363692927
 51
90.0
  0
ARC
  5
A8D0
  8
0
 10
3431.3305960216039239
 20
180.846142904885312
 30
0.0
 40
1.195458721645301
 50
37.068858765347791
 51
40.7389917010789873
  0
ARC
  5
A8D1
  8
0
 10
3432.3069264941741494
 20
181.5837020094334093
 30
0.0
 40
0.0281484965297887
 50
217.0688587653478123
 51
236.043956684885103
  0
ARC
  5
A8D2
  8
0
 10
3432.29785299062587
 20
181.5725990500297087
 30
0.0
 40
0.0139339955739239
 50
241.4985961776334875
 51
298.0796015804140211
  0
ARC
  5
A8D3
  8
0
 10
3432.2864591864949944
 20
181.5980580283813026
 30
0.0
 40
0.0418039631212902
 50
295.4323469570850875
 51
315.0426162077706067
  0
CIRCLE
  5
A8D4
  8
0
 10
3432.4688043518449376
 20
181.4102073231779002
 30
0.0
 40
0.2200000000000006
  0
ARC
  5
A8D5
  8
0
 10
3430.9788043518451559
 20
181.6202073231779082
 30
0.0
 40
0.0099999999999945
 50
90.0
 51
180.0000000000308944
  0
LINE
  5
A8D6
  8
0
 10
3430.9688043518449376
 20
181.6202073231779082
 30
0.0
 11
3430.9688043518458471
 21
181.2002089364779067
 31
0.0
  0
ARC
  5
A8D7
  8
0
 10
3430.9788059652751144
 20
181.2002089364779067
 30
0.0
 40
0.0100016134301431
 50
180.0000000000358114
 51
269.9907572161624785
  0
LINE
  5
A8D8
  8
0
 10
3430.9788043518451559
 20
181.1902073231779013
 30
0.0
 11
3433.9588044372421791
 21
181.1902073231782992
 31
0.0
  0
ARC
  5
A8D9
  8
0
 10
3433.9588043518460836
 20
181.2002073231778922
 30
0.0
 40
0.0100000000000021
 50
270.0004892873640756
 51
359.9999999999902229
  0
LINE
  5
A8DA
  8
0
 10
3433.9688043518449376
 20
181.2002073231778922
 30
0.0
 11
3433.9688043518449376
 21
181.6202073231779082
 31
0.0
  0
ARC
  5
A8DB
  8
0
 10
3433.9588043518460836
 20
181.6202073231779082
 30
0.0
 40
0.0099999999999998
 50
359.9999999999789111
 51
90.0000000004168754
  0
LINE
  5
A8DC
  8
0
 10
3433.9588043518460836
 20
181.6302073231778991
 30
0.0
 11
3432.7113079932969413
 21
181.6302073231686052
 31
0.0
  0
ARC
  5
A8DD
  8
0
 10
3432.7113079932978508
 20
181.6151992000154962
 30
0.0
 40
0.0150081231530841
 50
90.0000000004429523
 51
139.7646031017362986
  0
ARC
  5
A8DE
  8
0
 10
3433.7002716321408116
 20
180.7737536457429997
 30
0.0
 40
1.31349938428775
 50
139.6094704383077101
 51
142.8527921025900866
  0
ARC
  5
A8DF
  8
0
 10
3432.6305638980379626
 20
181.5842506940774115
 30
0.0
 40
0.0285812306432485
 50
302.2659264320038801
 51
322.6976594391654771
  0
ARC
  5
A8E0
  8
0
 10
3432.639965588260111
 20
181.5711062568846899
 30
0.0
 40
0.0124823730145364
 50
250.6631917536458047
 51
297.9806036023275055
  0
ARC
  5
A8E1
  8
0
 10
3432.6577662014610723
 20
181.6094796716184021
 30
0.0
 40
0.054738264911615
 50
229.8948184710914973
 51
246.3778689239817083
  0
CIRCLE
  5
A8E2
  8
0
 10
3432.4688043518449376
 20
181.4102073231779002
 30
0.0
 40
0.1899999999999995
  0
LINE
  5
A8E3
  8
0
 10
3423.6047758147869899
 20
184.6202073231779082
 30
0.0
 11
3425.5847758147870081
 21
184.6202073231779082
 31
0.0
  0
LINE
  5
A8E4
  8
0
 10
3423.6047758147869899
 20
184.6202073231779082
 30
0.0
 11
3423.6047758147869899
 21
184.4402073231779013
 31
0.0
  0
ARC
  5
A8E5
  8
0
 10
3423.7697758147869536
 20
184.1602073231779002
 30
0.0
 40
0.2800000000000011
 50
0.0
 51
90.0
  0
LINE
  5
A8E6
  8
0
 10
3424.0497758147871536
 20
184.1602073231779002
 30
0.0
 11
3424.0497758147871536
 21
182.6382073231779088
 31
0.0
  0
LINE
  5
A8E7
  8
0
 10
3424.0497758147871536
 20
182.6302073231778991
 30
0.0
 11
3424.0497758147871536
 21
182.6102073231778888
 31
0.0
  0
LINE
  5
A8E8
  8
0
 10
3424.0497758147871536
 20
182.6382073231779088
 30
0.0
 11
3425.1397758147868444
 21
182.6382073231779088
 31
0.0
  0
LINE
  5
A8E9
  8
0
 10
3424.0497758147871536
 20
182.6302073231778991
 30
0.0
 11
3425.1397758147868444
 21
182.6302073231778991
 31
0.0
  0
LINE
  5
A8EA
  8
0
 10
3424.0497758147871536
 20
182.6102073231778888
 30
0.0
 11
3425.1397758147868444
 21
182.6102073231778888
 31
0.0
  0
ARC
  5
A8EB
  8
0
 10
3424.0603882653867913
 20
182.6002073231778979
 30
0.0
 40
0.0100000000000004
 50
89.9999601262068865
 51
178.9999992227942869
  0
ARC
  5
A8EC
  8
0
 10
3425.0576562963028664
 20
182.5652073231597114
 30
0.0
 40
1.0078804815161619
 50
177.9999998477252063
 51
182.0000001543419046
  0
ARC
  5
A8ED
  8
0
 10
3424.0603882654531844
 20
182.5302073232990949
 30
0.0
 40
0.0100000001212368
 50
181.0000020328440939
 51
269.9999996184751012
  0
LINE
  5
A8EE
  8
0
 10
3424.0603882653867913
 20
182.5202073231779138
 30
0.0
 11
3425.12916335173486
 21
182.5202073160610894
 31
0.0
  0
ARC
  5
A8EF
  8
0
 10
3424.1313263877709687
 20
182.2702073231419035
 30
0.0
 40
0.2500000000359904
 50
0.2500000073717774
 51
89.9964774707611923
  0
LINE
  5
A8F0
  8
0
 10
3424.3813240079871321
 20
182.2712981504953973
 30
0.0
 11
3424.384252332035885
 21
181.6001799933559084
 31
0.0
  0
LINE
  5
A8F1
  8
0
 10
3425.5847758147870081
 20
184.6202073231779082
 30
0.0
 11
3425.5847758147870081
 21
184.4402073231779013
 31
0.0
  0
LINE
  5
A8F2
  8
0
 10
3425.5847758147870081
 20
184.4402073231779013
 30
0.0
 11
3423.6047758147869899
 21
184.4402073231779013
 31
0.0
  0
ARC
  5
A8F3
  8
0
 10
3425.4197758147870445
 20
184.1602073231779002
 30
0.0
 40
0.2800000000000011
 50
90.0
 51
180.0
  0
LINE
  5
A8F4
  8
0
 10
3425.1397758147868444
 20
184.1602073231779002
 30
0.0
 11
3425.1397758147868444
 21
182.6382073231779088
 31
0.0
  0
LINE
  5
A8F5
  8
0
 10
3425.1397758147868444
 20
182.6302073231778991
 30
0.0
 11
3425.1397758147868444
 21
182.6102073231778888
 31
0.0
  0
ARC
  5
A8F6
  8
0
 10
3425.1291633641872068
 20
182.6002073231778979
 30
0.0
 40
0.0100000000000004
 50
1.0000007772056521
 51
90.0000398737930993
  0
ARC
  5
A8F7
  8
0
 10
3424.1317418293429
 20
182.5652073231597114
 30
0.0
 40
1.008033891947929
 50
358.0003043448811013
 51
1.999695653052574
  0
ARC
  5
A8F8
  8
0
 10
3425.1291633518007984
 20
182.5302073285918141
 30
0.0
 40
0.0100000125307005
 50
270.0000709639156184
 51
358.9999688790073264
  0
ARC
  5
A8F9
  8
0
 10
3425.0582252418030293
 20
182.2702073231419035
 30
0.0
 40
0.2500000000359904
 50
90.0035225292388219
 51
179.7499999926282044
  0
LINE
  5
A8FA
  8
0
 10
3424.808227621586866
 20
182.2712981504953973
 30
0.0
 11
3424.805299080522218
 21
181.6001302571476117
 31
0.0
  0
LINE
  5
A8FB
  8
0
 10
3425.0747758147867899
 20
182.6382073231779088
 30
0.0
 11
3425.0747758147867899
 21
182.6302073231778991
 31
0.0
  0
LINE
  5
A8FC
  8
0
 10
3424.1147758147872082
 20
182.6382073231779088
 30
0.0
 11
3424.1147758147872082
 21
182.6302073231778991
 31
0.0
  0
LINE
  5
A8FD
  8
0
 10
3426.0847886036449381
 20
181.6302073231778991
 30
0.0
 11
3424.8372944357461165
 21
181.6302073231778991
 31
0.0
  0
ARC
  5
A8FE
  8
0
 10
3424.8372944357461165
 20
181.6151923330365889
 30
0.0
 40
0.015014990141319
 50
90.0
 51
132.1958992636307073
  0
ARC
  5
A8FF
  8
0
 10
3425.7329969338861702
 20
180.846142904885312
 30
0.0
 40
1.195458721645301
 50
139.2610082989210127
 51
142.9311412346521877
  0
ARC
  5
A900
  8
0
 10
3424.7566664613159446
 20
181.5837020094334093
 30
0.0
 40
0.0281484965297887
 50
303.9560433151148118
 51
322.9311412346509087
  0
ARC
  5
A901
  8
0
 10
3424.7657399648651335
 20
181.5725990500297087
 30
0.0
 40
0.0139339955739239
 50
241.9203984195858936
 51
298.5014038223665125
  0
ARC
  5
A902
  8
0
 10
3424.7771337689960092
 20
181.5980580283813026
 30
0.0
 40
0.0418039631212902
 50
224.9573837922293933
 51
244.5676530429149125
  0
CIRCLE
  5
A903
  8
0
 10
3424.5947886036451564
 20
181.4102073231779002
 30
0.0
 40
0.2200000000000006
  0
ARC
  5
A904
  8
0
 10
3426.0847886036449381
 20
181.6202073231779082
 30
0.0
 40
0.0099999999999945
 50
359.9999999999690772
 51
90.0
  0
LINE
  5
A905
  8
0
 10
3426.0947886036451564
 20
181.6202073231779082
 30
0.0
 11
3426.0947886036451564
 21
181.2002089364779067
 31
0.0
  0
ARC
  5
A906
  8
0
 10
3426.0847869902149796
 20
181.2002089364779067
 30
0.0
 40
0.0100016134301431
 50
270.0092427838375215
 51
359.9999999999641886
  0
LINE
  5
A907
  8
0
 10
3426.0847886036449381
 20
181.1902073231779013
 30
0.0
 11
3423.1047885182479149
 21
181.1902073231782992
 31
0.0
  0
ARC
  5
A908
  8
0
 10
3423.1047886036449199
 20
181.2002073231778922
 30
0.0
 40
0.0100000000000021
 50
180.0000000000098055
 51
269.9995107126359244
  0
LINE
  5
A909
  8
0
 10
3423.0947886036451564
 20
181.2002073231778922
 30
0.0
 11
3423.0947886036451564
 21
181.6202073231779082
 31
0.0
  0
ARC
  5
A90A
  8
0
 10
3423.1047886036449199
 20
181.6202073231779082
 30
0.0
 40
0.0099999999999998
 50
89.9999999995831246
 51
180.0000000000194973
  0
LINE
  5
A90B
  8
0
 10
3423.1047886036449199
 20
181.6302073231778991
 30
0.0
 11
3424.3522849621931528
 21
181.6302073231686052
 31
0.0
  0
ARC
  5
A90C
  8
0
 10
3424.3522849621931528
 20
181.6151992000154962
 30
0.0
 40
0.0150081231530841
 50
40.2353968982636374
 51
89.9999999995570619
  0
ARC
  5
A90D
  8
0
 10
3423.363321323350192
 20
180.7737536457429997
 30
0.0
 40
1.31349938428775
 50
37.1472078974098281
 51
40.3905295616922615
  0
ARC
  5
A90E
  8
0
 10
3424.4330290574521314
 20
181.5842506940774115
 30
0.0
 40
0.0285812306432485
 50
217.3023405608346081
 51
237.7340735679960915
  0
ARC
  5
A90F
  8
0
 10
3424.4236273672308926
 20
181.5711062568846899
 30
0.0
 40
0.0124823730145364
 50
242.0193963976724945
 51
289.3368082463542237
  0
ARC
  5
A910
  8
0
 10
3424.4058267540299312
 20
181.6094796716184021
 30
0.0
 40
0.054738264911615
 50
293.6221310760183201
 51
310.105181528908588
  0
CIRCLE
  5
A911
  8
0
 10
3424.5947886036451564
 20
181.4102073231779002
 30
0.0
 40
0.1899999999999995
  0
ENDSEC
  0
EOF
