  0
SECTION
  2
HEADER
  9
$ACADVER
  1
AC1009
  9
$INSBASE
 10
3428.5310824015277831
 20
172.6663054748835862
 30
0.0
  9
$EXTMIN
 10
3422.9117505349618114
 20
171.1605064059000938
 30
-0.0000000349181948
  9
$EXTMAX
 10
3434.1777022441378904
 20
174.1769367158532873
 30
0.0000000814935746
  9
$LIMMIN
 10
0.0
 20
0.0
  9
$LIMMAX
 10
11.6929133858000007
 20
8.2677165353999982
  9
$ORTHOMODE
 70
     0
  9
$REGENMODE
 70
     1
  9
$FILLMODE
 70
     1
  9
$QTEXTMODE
 70
     0
  9
$MIRRTEXT
 70
     0
  9
$DRAGMODE
 70
     2
  9
$LTSCALE
 40
0.6431102362
  9
$OSMODE
 70
  4095
  9
$ATTMODE
 70
     1
  9
$TEXTSIZE
 40
0.2
  9
$TRACEWID
 40
0.05
  9
$TEXTSTYLE
  7
STANDARD
  9
$CLAYER
  8
0
  9
$CELTYPE
  6
BYLAYER
  9
$CECOLOR
 62
   256
  9
$DIMSCALE
 40
1.0
  9
$DIMASZ
 40
0.1875
  9
$DIMEXO
 40
0.0625
  9
$DIMDLI
 40
0.4443307087
  9
$DIMRND
 40
0.0
  9
$DIMDLE
 40
0.0
  9
$DIMEXE
 40
0.125
  9
$DIMTP
 40
0.01
  9
$DIMTM
 40
0.01
  9
$DIMTXT
 40
2.0
  9
$DIMCEN
 40
0.1052362205
  9
$DIMTSZ
 40
0.0
  9
$DIMTOL
 70
     1
  9
$DIMLIM
 70
     0
  9
$DIMTIH
 70
     1
  9
$DIMTOH
 70
     1
  9
$DIMSE1
 70
     0
  9
$DIMSE2
 70
     0
  9
$DIMTAD
 70
     0
  9
$DIMZIN
 70
     0
  9
$DIMBLK
  1

  9
$DIMASO
 70
     1
  9
$DIMSHO
 70
     1
  9
$DIMPOST
  1
\X
  9
$DIMAPOST
  1

  9
$DIMALT
 70
     1
  9
$DIMALTD
 70
     2
  9
$DIMALTF
 40
25.3999999999999986
  9
$DIMLFAC
 40
1.0
  9
$DIMTOFL
 70
     0
  9
$DIMTVP
 40
0.0
  9
$DIMTIX
 70
     0
  9
$DIMSOXD
 70
     0
  9
$DIMSAH
 70
     0
  9
$DIMBLK1
  1

  9
$DIMBLK2
  1

  9
$DIMSTYLE
  2
STANDARD
  9
$DIMCLRD
 70
     0
  9
$DIMCLRE
 70
     0
  9
$DIMCLRT
 70
     0
  9
$DIMTFAC
 40
1.0
  9
$DIMGAP
 40
0.09
  9
$LUNITS
 70
     2
  9
$LUPREC
 70
     4
  9
$SKETCHINC
 40
0.1
  9
$FILLETRAD
 40
0.0
  9
$AUNITS
 70
     0
  9
$AUPREC
 70
     0
  9
$MENU
  1
.
  9
$ELEVATION
 40
0.0
  9
$PELEVATION
 40
0.0
  9
$THICKNESS
 40
0.0
  9
$LIMCHECK
 70
     0
  9
$BLIPMODE
 70
     0
  9
$CHAMFERA
 40
0.0
  9
$CHAMFERB
 40
0.0
  9
$SKPOLY
 70
     0
  9
$TDCREATE
 40
2458060.468368056230247
  9
$TDUPDATE
 40
2459067.7935648150742054
  9
$TDINDWG
 40
0.5245672454
  9
$TDUSRTIMER
 40
0.5245672454
  9
$USRTIMER
 70
     1
  9
$ANGBASE
 50
0.0
  9
$ANGDIR
 70
     0
  9
$PDMODE
 70
     0
  9
$PDSIZE
 40
0.3125
  9
$PLINEWID
 40
0.0
  9
$COORDS
 70
     1
  9
$SPLFRAME
 70
     0
  9
$SPLINETYPE
 70
     6
  9
$SPLINESEGS
 70
     8
  9
$ATTDIA
 70
     1
  9
$ATTREQ
 70
     1
  9
$HANDLING
 70
     1
  9
$HANDSEED
  5
C2E4
  9
$SURFTAB1
 70
     6
  9
$SURFTAB2
 70
     6
  9
$SURFTYPE
 70
     6
  9
$SURFU
 70
     6
  9
$SURFV
 70
     6
  9
$UCSNAME
  2

  9
$UCSORG
 10
0.0
 20
0.0
 30
0.0
  9
$UCSXDIR
 10
1.0
 20
0.0
 30
0.0
  9
$UCSYDIR
 10
0.0
 20
1.0
 30
0.0
  9
$PUCSNAME
  2

  9
$PUCSORG
 10
0.0
 20
0.0
 30
0.0
  9
$PUCSXDIR
 10
1.0
 20
0.0
 30
0.0
  9
$PUCSYDIR
 10
0.0
 20
1.0
 30
0.0
  9
$USERI1
 70
     0
  9
$USERI2
 70
     0
  9
$USERI3
 70
     0
  9
$USERI4
 70
     0
  9
$USERI5
 70
     0
  9
$USERR1
 40
0.0
  9
$USERR2
 40
0.0
  9
$USERR3
 40
0.0
  9
$USERR4
 40
0.0
  9
$USERR5
 40
0.0
  9
$WORLDVIEW
 70
     1
  9
$SHADEDGE
 70
     3
  9
$SHADEDIF
 70
    70
  9
$TILEMODE
 70
     1
  9
$MAXACTVP
 70
    64
  9
$PLIMCHECK
 70
     0
  9
$PEXTMIN
 10
1.0000000000000000E+20
 20
1.0000000000000000E+20
 30
1.0000000000000000E+20
  9
$PEXTMAX
 10
-1.0000000000000000E+20
 20
-1.0000000000000000E+20
 30
-1.0000000000000000E+20
  9
$PLIMMIN
 10
0.0
 20
0.0
  9
$PLIMMAX
 10
12.0
 20
9.0
  9
$UNITMODE
 70
     0
  9
$VISRETAIN
 70
     1
  9
$PLINEGEN
 70
     0
  9
$PSLTSCALE
 70
     1
  0
ENDSEC
  0
SECTION
  2
TABLES
  0
TABLE
  2
VPORT
 70
     1
  0
VPORT
  2
*ACTIVE
 70
     0
 10
0.0
 20
0.0
 11
1.0
 21
1.0
 12
124.8516111551753056
 22
-22.592790015011019
 13
0.0
 23
0.0
 14
1.0
 24
1.0
 15
0.0
 25
0.0
 16
0.0
 26
0.0
 36
96.5995694866707311
 17
3303.693115234375
 27
195.2615115758877096
 37
0.0
 40
4.2668961849750193
 41
2.6486111111111108
 42
50.0
 43
0.0
 44
0.0
 50
0.0
 51
0.0
 71
     0
 72
   100
 73
     1
 74
     1
 75
     0
 76
     0
 77
     0
 78
     0
  0
ENDTAB
  0
TABLE
  2
LTYPE
 70
     2
  0
LTYPE
  2
CONTINUOUS
 70
     0
  3
Solid line
 72
    65
 73
     0
 40
0.0
  0
LTYPE
  2
PHANTOM2
 70
     0
  3
___ _ _ ___ _ _ ___ _ _ ___ _ _
 72
    65
 73
     6
 40
1.25
 49
0.625
 49
-0.125
 49
0.125
 49
-0.125
 49
0.125
 49
-0.125
  0
ENDTAB
  0
TABLE
  2
LAYER
 70
     2
  0
LAYER
  2
0
 70
     0
 62
   255
  6
CONTINUOUS
  0
LAYER
  2
DEFPOINTS
 70
     0
 62
     7
  6
CONTINUOUS
  0
ENDTAB
  0
TABLE
  2
STYLE
 70
     1
  0
STYLE
  2
STANDARD
 70
     0
 40
0.0
 41
0.8
 50
0.0
 71
     0
 42
0.2
  3
txt
  4

  0
ENDTAB
  0
TABLE
  2
VIEW
 70
     0
  0
ENDTAB
  0
TABLE
  2
UCS
 70
     0
  0
ENDTAB
  0
TABLE
  2
APPID
 70
     9
  0
APPID
  2
ACAD
 70
     0
  0
APPID
  2
ACAD_MLEADERVER
 70
     0
  0
APPID
  2
ACAD_EXEMPT_FROM_CAD_STANDARDS
 70
     0
  0
APPID
  2
ACAD_NAV_VCDISPLAY
 70
     0
  0
APPID
  2
ACAECLAYERSTANDARD
 70
     0
  0
APPID
  2
ACCMTRANSPARENCY
 70
     0
  0
APPID
  2
ACAD_DSTYLE_DIMJAG
 70
     0
  0
APPID
  2
ACAD_DSTYLE_DIMTALN
 70
     0
  0
APPID
  2
ACDBATTR
 70
     0
  0
ENDTAB
  0
TABLE
  2
DIMSTYLE
 70
     1
  0
DIMSTYLE
  2
STANDARD
 70
     0
  3

  4

  5

  6

  7

 40
1.0
 41
0.1875
 42
0.0625
 43
0.38
 44
0.125
 45
0.0
 46
0.0
 47
0.01
 48
0.01
140
0.15625
141
0.09
142
0.0
143
25.3999999999999986
144
1.0
145
0.0
146
1.0
147
0.09
 71
     1
 72
     0
 73
     1
 74
     1
 75
     0
 76
     0
 77
     0
 78
     4
170
     0
171
     2
172
     0
173
     0
174
     0
175
     0
176
     0
177
     0
178
     0
  0
ENDTAB
  0
ENDSEC
  0
SECTION
  2
BLOCKS
  0
BLOCK
  8
0
  2
$MODEL_SPACE
 70
     0
 10
0.0
 20
0.0
 30
0.0
  3
$MODEL_SPACE
  1

  0
ENDBLK
  5
21
  8
0
  0
BLOCK
 67
     1
  8
0
  2
$PAPER_SPACE
 70
     0
 10
0.0
 20
0.0
 30
0.0
  3
$PAPER_SPACE
  1

  0
ENDBLK
  5
1D
 67
     1
  8
0
  0
BLOCK
  8
0
  2
_FILLED
 70
     0
 10
0.0
 20
0.0
 30
0.0
  3
_FILLED
  1

  0
SOLID
  5
A467
  8
0
  6
BYBLOCK
 62
     0
 10
0.0
 20
0.0
 30
0.0
 11
-1.0
 21
0.1666666667
 31
0.0
 12
-1.0
 22
-0.1666666667
 32
0.0
 13
-1.0
 23
-0.1666666667
 33
0.0
  0
ENDBLK
  5
A468
  8
0
  6
BYBLOCK
 62
     0
  0
ENDSEC
  0
SECTION
  2
ENTITIES
  0
ATTDEF
  5
9F01
  8
DEFPOINTS
 10
3428.5319962068010682
 20
172.6708701540269999
 30
0.0
 40
0.001
  1
K-14415W-3
  3

  2
MODELNUMBER
 70
     0
1001
ACDBATTR
1070
     0
1070
     1
  0
ATTDEF
  5
9F02
  8
DEFPOINTS
 10
3428.5319962068010682
 20
172.6692034873603916
 30
0.0
 40
0.001
  1
PURIST
  3

  2
TRADENAME
 70
     0
1001
ACDBATTR
1070
     0
1070
     1
  0
ATTDEF
  5
9F03
  8
DEFPOINTS
 10
3428.5319962068010682
 20
172.667536820693698
 30
0.0
 40
0.001
  1
BATHROOM SINK FAUCET
  3

  2
PRODUCT
 70
     0
1001
ACDBATTR
1070
     0
1070
     1
  0
ARC
  5
B95B
  8
0
 10
3432.468090275528084
 20
172.6663054748835862
 30
0.0
 40
0.9900000000000002
 50
192.8395885553547942
 51
257.1604115990318178
  0
ARC
  5
B95C
  8
0
 10
3432.468090275528084
 20
172.6663054748835862
 30
0.0
 40
0.9900000000000002
 50
282.8395884128597118
 51
347.1604115930956027
  0
ARC
  5
B95D
  8
0
 10
3432.468090275528084
 20
172.6663054748835862
 30
0.0
 40
0.9900000000000002
 50
12.8396139776922205
 51
77.1604115871402598
  0
ARC
  5
B95E
  8
0
 10
3432.468090275528084
 20
172.6663054748835862
 30
0.0
 40
0.9900000000000002
 50
102.8381435996229953
 51
167.1603454895173115
  0
ARC
  5
B95F
  8
0
 10
3432.468090275528084
 20
172.6663054748835862
 30
0.0
 40
0.5449999999999995
 50
23.8078068573660389
 51
66.1922079105365953
  0
ARC
  5
B960
  8
0
 10
3432.468090275528084
 20
172.6663054748835862
 30
0.0
 40
0.5449999999999995
 50
113.8062133317562967
 51
156.1919661677019064
  0
ARC
  5
B961
  8
0
 10
3432.468090275528084
 20
172.6663054748835862
 30
0.0
 40
0.5449999999999995
 50
203.8077921637566021
 51
246.1922079605180897
  0
ARC
  5
B962
  8
0
 10
3432.468090275528084
 20
172.6663054748835862
 30
0.0
 40
0.5449999999999995
 50
293.808784321879898
 51
336.1922082670346867
  0
ARC
  5
B963
  8
0
 10
3432.468090275528084
 20
172.6663054748835862
 30
0.0
 40
0.5449999999999995
 50
293.807792089463419
 51
336.1922079220419732
  0
ARC
  5
B964
  8
0
 10
3428.5310824015277831
 20
172.6663054748835862
 30
0.0
 40
0.9900000000000002
 50
292.2586212738405038
 51
247.7413787261594962
  0
LINE
  5
B965
  8
0
 10
3428.1560824015277831
 20
172.6663054748835862
 30
0.0
 11
3428.1560824015277831
 21
171.7228976335836137
 31
0.0
  0
ARC
  5
B966
  8
0
 10
3428.3007750576839499
 20
171.7198916426154938
 30
0.0
 40
0.1447238775293644
 50
134.8555121462881061
 51
178.8098509736311996
  0
ARC
  5
B967
  8
0
 10
3428.4441007352797897
 20
171.5758412617643103
 30
0.0
 40
0.3479300833445055
 50
108.4225904657489963
 51
134.8555121462881061
  0
ARC
  5
B968
  8
0
 10
3428.5317729795101513
 20
171.3126353028366964
 30
0.0
 40
0.6253535849142821
 50
90.0638216037191768
 51
108.4225904657489963
  0
ARC
  5
B969
  8
0
 10
3428.5317634556217854
 20
171.3211853593496983
 30
0.0
 40
0.6168035230970049
 50
71.4117532571261933
 51
90.0638216037191768
  0
ARC
  5
B96A
  8
0
 10
3428.7620478590688435
 20
171.7201736984671072
 30
0.0
 40
0.1440602972510321
 50
1.083430272630534
 51
45.2532978604822418
  0
LINE
  5
B96B
  8
0
 10
3428.9060824015277831
 20
171.7228976335836137
 30
0.0
 11
3428.9060824015277831
 21
172.6663054748835862
 31
0.0
  0
ARC
  5
B96C
  8
0
 10
3428.5310824015277831
 20
172.6663054748835862
 30
0.0
 40
0.3750000000000009
 50
0.0
 51
180.0
  0
ARC
  5
B96D
  8
0
 10
3428.5310824015277831
 20
172.6663054748835862
 30
0.0
 40
0.3800000000000013
 50
350.7920395950994248
 51
189.1923754272947065
  0
ARC
  5
B96E
  8
0
 10
3428.5310824015277831
 20
172.6663054748835862
 30
0.0
 40
0.4300000000000006
 50
330.7317251979113735
 51
209.2701447656963865
  0
ARC
  5
B96F
  8
0
 10
3428.4441007352797897
 20
171.8699540054030024
 30
0.0
 40
0.3479300833445055
 50
225.1444878537118939
 51
251.5774095342509895
  0
ARC
  5
B970
  8
0
 10
3428.5352511554178818
 20
172.1545258511607983
 30
0.0
 40
0.646732899582349
 50
251.8832496322048087
 51
269.6295434691259061
  0
ARC
  5
B971
  8
0
 10
3428.5291588905879507
 20
172.1405756324573133
 30
0.0
 40
0.6327720473797037
 50
270.1730109163373754
 51
288.3509563086324192
  0
ARC
  5
B972
  8
0
 10
3428.6165953631470984
 20
171.8723658403665979
 30
0.0
 40
0.3506766321250656
 50
288.5882467428738209
 51
314.7467021395178222
  0
ARC
  5
B973
  8
0
 10
3428.7620478590688435
 20
171.7256215687002054
 30
0.0
 40
0.1440602972510321
 50
314.7467021395178222
 51
358.9165697273695059
  0
ARC
  5
B974
  8
0
 10
3428.3007750576839499
 20
171.7259036245517905
 30
0.0
 40
0.1447238775293644
 50
181.1901490263688004
 51
225.1444878537118939
  0
ARC
  5
B975
  8
0
 10
3428.6180640677139309
 20
171.5758412617643103
 30
0.0
 40
0.3479300833445055
 50
45.1444878537118868
 51
71.5774095342510037
  0
ARC
  5
B976
  8
0
 10
3428.5304655140321302
 20
171.6418195951694941
 30
0.0
 40
0.6337246446630173
 50
89.944226477754242
 51
102.0224635933575001
  0
ARC
  5
B977
  8
0
 10
3428.5006065309407859
 20
171.782024748974095
 30
0.0
 40
0.4903752671807875
 50
102.0224635933575001
 51
118.3548946451967936
  0
ARC
  5
B978
  8
0
 10
3428.3929451121648526
 20
171.9815155842561865
 30
0.0
 40
0.2636869912280639
 50
118.3548946451967936
 51
140.092554406753294
  0
ARC
  5
B979
  8
0
 10
3428.3092144470188032
 20
172.0515437768328013
 30
0.0
 40
0.1545321835399552
 50
140.092554406753294
 51
161.5845103467364083
  0
ARC
  5
B97A
  8
0
 10
3428.2835145991571153
 20
172.0601006957159882
 30
0.0
 40
0.1274452302059883
 50
161.5845103467364083
 51
174.0526842989293073
  0
ARC
  5
B97B
  8
0
 10
3427.9631747564430952
 20
172.0934719875376118
 30
0.0
 40
0.1946281433405116
 50
352.3760089812229808
 51
354.0526842989293073
  0
ARC
  5
B97C
  8
0
 10
3428.5310213653010578
 20
171.6418192978599109
 30
0.0
 40
0.6337246446630173
 50
77.9162445284603962
 51
89.9944816440601443
  0
ARC
  5
B97D
  8
0
 10
3428.561030315051994
 20
171.7819924299481045
 30
0.0
 40
0.4903752671807875
 50
61.5838134765948126
 51
77.9162445284603962
  0
ARC
  5
B97E
  8
0
 10
3428.6689050765248794
 20
171.9813679808351878
 30
0.0
 40
0.2636869912280639
 50
39.8461537150624068
 51
61.5838134765948126
  0
ARC
  5
B97F
  8
0
 10
3428.7527106060629194
 20
172.0513065628931884
 30
0.0
 40
0.1545321835399552
 50
18.3541977750632803
 51
39.8461537150624068
  0
ARC
  5
B980
  8
0
 10
3428.7531943333769959
 20
172.0529648649905141
 30
0.0
 40
0.153557461714406
 50
7.4711140439554251
 51
17.823751487849389
  0
ARC
  5
B981
  8
0
 10
3428.7657746236850471
 20
172.0589064676426005
 30
0.0
 40
0.1403759208291255
 50
1.7853339890607001
 51
5.733968565702936
  0
ARC
  5
B982
  8
0
 10
3428.5296373105488783
 20
171.4818763929756074
 30
0.0
 40
0.387459107048093
 50
89.815944420002424
 51
105.974099407413604
  0
ARC
  5
B983
  8
0
 10
3428.497349366664821
 20
171.5946702487800053
 30
0.0
 40
0.2701349184616246
 50
105.974099407413604
 51
122.1956392032747942
  0
ARC
  5
B984
  8
0
 10
3428.4308752890360665
 20
171.7002471121600138
 30
0.0
 40
0.1453740388649453
 50
122.1956392032747942
 51
151.5462420095309142
  0
ARC
  5
B985
  8
0
 10
3428.3664701679499558
 20
171.7351489657345951
 30
0.0
 40
0.0721199672712374
 50
151.5462420095309142
 51
190.6756765583176048
  0
ARC
  5
B986
  8
0
 10
3428.3958392059839753
 20
171.7406853911120095
 30
0.0
 40
0.1020062919194915
 50
190.6756765583176048
 51
227.6317240059686924
  0
ARC
  5
B987
  8
0
 10
3428.4753100972548054
 20
171.8278139561496971
 30
0.0
 40
0.2199342758967487
 50
227.6317240059686924
 51
246.0773683352360877
  0
ARC
  5
B988
  8
0
 10
3428.5127930657140496
 20
171.9123089608899022
 30
0.0
 40
0.3123700847078827
 50
246.0773683352360877
 51
262.6749510328376118
  0
ARC
  5
B989
  8
0
 10
3428.5360215164027977
 20
172.0930085425270022
 30
0.0
 40
0.4945565269180987
 50
262.6749510328376118
 51
270.5752313241516731
  0
ARC
  5
B98A
  8
0
 10
3428.5374348355508118
 20
171.9522399540065862
 30
0.0
 40
0.3537808437017093
 50
270.5752313241516731
 51
288.059014407831512
  0
ARC
  5
B98B
  8
0
 10
3428.5919164410879603
 20
171.813077693988788
 30
0.0
 40
0.2047680477960001
 50
285.6357360632333098
 51
319.8344068311033084
  0
ARC
  5
B98C
  8
0
 10
3428.6782972452760987
 20
171.7355482738250885
 30
0.0
 40
0.0888210926413169
 50
322.1128635529349253
 51
358.9000875815158906
  0
ARC
  5
B98D
  8
0
 10
3428.6746191311071925
 20
171.7311997519211957
 30
0.0
 40
0.0925206140990339
 50
1.6372907510558321
 51
43.0132629885555318
  0
ARC
  5
B98E
  8
0
 10
3428.6215990069149484
 20
171.6892364647657132
 30
0.0
 40
0.1600087500937618
 50
41.048731091653579
 51
63.8952212203274783
  0
ARC
  5
B98F
  8
0
 10
3428.5464228960659057
 20
171.5487082162993886
 30
0.0
 40
0.3193307780807001
 50
62.8772822676011529
 51
82.6164050476411376
  0
ARC
  5
B990
  8
0
 10
3428.5310800353781815
 20
171.4642153306039916
 30
0.0
 40
0.4051182186732011
 50
82.000138765743074
 51
90.0280119618717833
  0
LINE
  5
B991
  8
0
 10
3428.4564507268828493
 20
171.8118623165574093
 30
0.0
 11
3428.4769444915727945
 21
171.8050757138609015
 31
0.0
  0
LINE
  5
B992
  8
0
 10
3428.4769444915727945
 20
171.8050757138609015
 30
0.0
 11
3428.4974382563727886
 21
171.8118623165609051
 31
0.0
  0
LINE
  5
B993
  8
0
 10
3428.4989917356720071
 20
171.8113478748608998
 30
0.0
 11
3428.4989917356720071
 21
171.7986704739608967
 31
0.0
  0
ARC
  5
B994
  8
0
 10
3428.5058921083318637
 20
171.7996996713251008
 30
0.0
 40
0.0069767033797108
 50
188.4831850265148887
 51
253.5082643943138123
  0
ARC
  5
B995
  8
0
 10
3428.5019308189012008
 20
171.7997033239279006
 30
0.0
 40
0.0069802732163097
 50
286.485094698253306
 51
351.4908714307804871
  0
LINE
  5
B996
  8
0
 10
3428.5088342553731309
 20
171.7986704739608967
 30
0.0
 11
3428.5088342553731309
 21
171.8113478748445004
 31
0.0
  0
LINE
  5
B997
  8
0
 10
3428.5039115824220062
 20
171.7930099846979886
 30
0.0
 11
3428.5039129955730459
 21
171.7918566940608969
 31
0.0
  0
LINE
  5
B998
  8
0
 10
3428.5039129955730459
 20
171.7918566940608969
 30
0.0
 11
3428.4800386415731737
 21
171.7839505940609115
 31
0.0
  0
ARC
  5
B999
  8
0
 10
3428.4786940414351193
 20
171.7889022151539109
 30
0.0
 40
0.0051309356827061
 50
250.0633672519292929
 51
285.1921815497087778
  0
ARC
  5
B99A
  8
0
 10
3428.4752070426679893
 20
171.7887624706291092
 30
0.0
 40
0.0049955715132474
 50
252.9055096665771032
 51
290.3526791601906893
  0
LINE
  5
B99B
  8
0
 10
3428.4737386023489307
 20
171.7839875970418859
 30
0.0
 11
3428.4499759876721328
 21
171.7918566940608969
 31
0.0
  0
LINE
  5
B99C
  8
0
 10
3428.4548972474731272
 20
171.7986704739608967
 30
0.0
 11
3428.4769444915727945
 21
171.7913694296609037
 31
0.0
  0
LINE
  5
B99D
  8
0
 10
3428.4769444915727945
 20
171.7913694296609037
 30
0.0
 11
3428.4989917356720071
 21
171.7986704739608967
 31
0.0
  0
LINE
  5
B99E
  8
0
 10
3428.4769444915727945
 20
171.8050757138609015
 30
0.0
 11
3428.4769444915727945
 21
171.7840787748612001
 31
0.0
  0
LINE
  5
B99F
  8
0
 10
3428.4450547277729129
 20
171.8113478748608998
 30
0.0
 11
3428.4450547277729129
 21
171.7986704739608967
 31
0.0
  0
ARC
  5
B9A0
  8
0
 10
3428.4519551004309506
 20
171.7996996713251008
 30
0.0
 40
0.0069767033797108
 50
188.4831850265148887
 51
253.5082643943138123
  0
ARC
  5
B9A1
  8
0
 10
3428.4479938110011972
 20
171.7997033239279006
 30
0.0
 40
0.0069802732163097
 50
286.485094698253306
 51
351.4908714307804871
  0
LINE
  5
B9A2
  8
0
 10
3428.4548972474731272
 20
171.7986704739608967
 30
0.0
 11
3428.4548972474731272
 21
171.8113478748445004
 31
0.0
  0
LINE
  5
B9A3
  8
0
 10
3428.4499745745220025
 20
171.7930099846979886
 30
0.0
 11
3428.4499759876721328
 21
171.7918566940608969
 31
0.0
  0
LINE
  5
B9A4
  8
0
 10
3428.4564507268828493
 20
171.758277866357389
 30
0.0
 11
3428.4769444915727945
 21
171.7514912636609097
 31
0.0
  0
LINE
  5
B9A5
  8
0
 10
3428.4769444915727945
 20
171.7514912636609097
 30
0.0
 11
3428.4974382563727886
 21
171.7582778663609133
 31
0.0
  0
LINE
  5
B9A6
  8
0
 10
3428.4989917356720071
 20
171.757763424660908
 30
0.0
 11
3428.4989917356720071
 21
171.7450860237609049
 31
0.0
  0
ARC
  5
B9A7
  8
0
 10
3428.5058921083318637
 20
171.7461152211251942
 30
0.0
 40
0.0069767033797108
 50
188.4831850265148887
 51
253.5082643943138123
  0
ARC
  5
B9A8
  8
0
 10
3428.5019308189012008
 20
171.7461188737279087
 30
0.0
 40
0.0069802732163097
 50
286.485094698253306
 51
351.4908714307804871
  0
LINE
  5
B9A9
  8
0
 10
3428.5088342553731309
 20
171.7450860237609049
 30
0.0
 11
3428.5088342553731309
 21
171.7577634246445086
 31
0.0
  0
LINE
  5
B9AA
  8
0
 10
3428.5039115824220062
 20
171.7394255344979968
 30
0.0
 11
3428.5039129955730459
 21
171.7382722438609051
 31
0.0
  0
LINE
  5
B9AB
  8
0
 10
3428.5039129955730459
 20
171.7382722438609051
 30
0.0
 11
3428.4800386415731737
 21
171.7303661438608913
 31
0.0
  0
ARC
  5
B9AC
  8
0
 10
3428.4786940414351193
 20
171.7353177649538907
 30
0.0
 40
0.0051309356827061
 50
250.0633672519292929
 51
285.1921815497087778
  0
ARC
  5
B9AD
  8
0
 10
3428.4752070426679893
 20
171.735178020429089
 30
0.0
 40
0.0049955715132474
 50
252.9055096665771032
 51
290.3526791601906893
  0
LINE
  5
B9AE
  8
0
 10
3428.4737386023489307
 20
171.7304031468418941
 30
0.0
 11
3428.4499759876721328
 21
171.7382722438609051
 31
0.0
  0
LINE
  5
B9AF
  8
0
 10
3428.4548972474731272
 20
171.7450860237609049
 30
0.0
 11
3428.4769444915727945
 21
171.7377849794609119
 31
0.0
  0
LINE
  5
B9B0
  8
0
 10
3428.4769444915727945
 20
171.7377849794609119
 30
0.0
 11
3428.4989917356720071
 21
171.7450860237609049
 31
0.0
  0
LINE
  5
B9B1
  8
0
 10
3428.4769444915727945
 20
171.7514912636609097
 30
0.0
 11
3428.4769444915727945
 21
171.7304943246612083
 31
0.0
  0
LINE
  5
B9B2
  8
0
 10
3428.4450547277729129
 20
171.757763424660908
 30
0.0
 11
3428.4450547277729129
 21
171.7450860237609049
 31
0.0
  0
ARC
  5
B9B3
  8
0
 10
3428.4519551004309506
 20
171.7461152211251942
 30
0.0
 40
0.0069767033797108
 50
188.4831850265148887
 51
253.5082643943138123
  0
ARC
  5
B9B4
  8
0
 10
3428.4479938110011972
 20
171.7461188737279087
 30
0.0
 40
0.0069802732163097
 50
286.485094698253306
 51
351.4908714307804871
  0
LINE
  5
B9B5
  8
0
 10
3428.4548972474731272
 20
171.7450860237609049
 30
0.0
 11
3428.4548972474731272
 21
171.7577634246445086
 31
0.0
  0
LINE
  5
B9B6
  8
0
 10
3428.4499745745220025
 20
171.7394255344979968
 30
0.0
 11
3428.4499759876721328
 21
171.7382722438609051
 31
0.0
  0
LINE
  5
B9B7
  8
0
 10
3428.429482222983097
 20
171.7850700914574134
 30
0.0
 11
3428.4499759876721328
 21
171.7782834887609056
 31
0.0
  0
LINE
  5
B9B8
  8
0
 10
3428.4499759876721328
 20
171.7782834887609056
 30
0.0
 11
3428.4704697524721269
 21
171.7850700914609092
 31
0.0
  0
LINE
  5
B9B9
  8
0
 10
3428.4720232317731643
 20
171.7845556497609039
 30
0.0
 11
3428.4720232317731643
 21
171.7718782488609008
 31
0.0
  0
ARC
  5
B9BA
  8
0
 10
3428.4789236044321115
 20
171.7729074462251901
 30
0.0
 40
0.0069767033797108
 50
188.4831850265148887
 51
253.5082643943138123
  0
ARC
  5
B9BB
  8
0
 10
3428.4749623150009938
 20
171.7729110988279047
 30
0.0
 40
0.0069802732163097
 50
286.485094698253306
 51
351.4908714307804871
  0
LINE
  5
B9BC
  8
0
 10
3428.4818657514729239
 20
171.7718782488609008
 30
0.0
 11
3428.4818657514729239
 21
171.7845556497445045
 31
0.0
  0
LINE
  5
B9BD
  8
0
 10
3428.4769430785217992
 20
171.7662177595979927
 30
0.0
 11
3428.4769444916728389
 21
171.765064468960901
 31
0.0
  0
LINE
  5
B9BE
  8
0
 10
3428.4769444916728389
 20
171.765064468960901
 30
0.0
 11
3428.4530701376729667
 21
171.7571583689608872
 31
0.0
  0
ARC
  5
B9BF
  8
0
 10
3428.4517255375349123
 20
171.7621099900538866
 30
0.0
 40
0.0051309356827061
 50
250.0633672519292929
 51
285.1921815497087778
  0
ARC
  5
B9C0
  8
0
 10
3428.4482385387677823
 20
171.7619702455291133
 30
0.0
 40
0.0049955715132474
 50
252.9055096665771032
 51
290.3526791601906893
  0
LINE
  5
B9C1
  8
0
 10
3428.4467700984491785
 20
171.75719537194189
 30
0.0
 11
3428.4230074837719258
 21
171.765064468960901
 31
0.0
  0
LINE
  5
B9C2
  8
0
 10
3428.4279287435720107
 20
171.7718782488609008
 30
0.0
 11
3428.4499759876721328
 21
171.7645772045609078
 31
0.0
  0
LINE
  5
B9C3
  8
0
 10
3428.4499759876721328
 20
171.7645772045609078
 30
0.0
 11
3428.4720232317731643
 21
171.7718782488609008
 31
0.0
  0
LINE
  5
B9C4
  8
0
 10
3428.4499759876721328
 20
171.7782834887609056
 30
0.0
 11
3428.4499759876721328
 21
171.7572865497612042
 31
0.0
  0
LINE
  5
B9C5
  8
0
 10
3428.4180862238731606
 20
171.7845556497609039
 30
0.0
 11
3428.4180862238731606
 21
171.7718782488609008
 31
0.0
  0
ARC
  5
B9C6
  8
0
 10
3428.4249865965321078
 20
171.7729074462251901
 30
0.0
 40
0.0069767033797108
 50
188.4831850265148887
 51
253.5082643943138123
  0
ARC
  5
B9C7
  8
0
 10
3428.4210253071009902
 20
171.7729110988279047
 30
0.0
 40
0.0069802732163097
 50
286.485094698253306
 51
351.4908714307804871
  0
LINE
  5
B9C8
  8
0
 10
3428.4279287435720107
 20
171.7718782488609008
 30
0.0
 11
3428.4279287435720107
 21
171.7845556497445045
 31
0.0
  0
LINE
  5
B9C9
  8
0
 10
3428.4230060706217955
 20
171.7662177595979927
 30
0.0
 11
3428.4230074837719258
 21
171.765064468960901
 31
0.0
  0
LINE
  5
B9CA
  8
0
 10
3428.3485767111828864
 20
171.8118623165574093
 30
0.0
 11
3428.3690704758728316
 21
171.8050757138609015
 31
0.0
  0
LINE
  5
B9CB
  8
0
 10
3428.3690704758728316
 20
171.8050757138609015
 30
0.0
 11
3428.3895642406728257
 21
171.8118623165609051
 31
0.0
  0
LINE
  5
B9CC
  8
0
 10
3428.3911177199729536
 20
171.8113478748608998
 30
0.0
 11
3428.3911177199729536
 21
171.7986704739608967
 31
0.0
  0
ARC
  5
B9CD
  8
0
 10
3428.3980180926309913
 20
171.7996996713251008
 30
0.0
 40
0.0069767033797108
 50
188.4831850265148887
 51
253.5082643943138123
  0
ARC
  5
B9CE
  8
0
 10
3428.3940568032007832
 20
171.7997033239279006
 30
0.0
 40
0.0069802732163097
 50
286.485094698253306
 51
351.4908714307804871
  0
LINE
  5
B9CF
  8
0
 10
3428.400960239673168
 20
171.7986704739608967
 30
0.0
 11
3428.400960239673168
 21
171.8113478748445004
 31
0.0
  0
LINE
  5
B9D0
  8
0
 10
3428.3960375667220433
 20
171.7930099846979886
 30
0.0
 11
3428.396038979873083
 21
171.7918566940608969
 31
0.0
  0
LINE
  5
B9D1
  8
0
 10
3428.396038979873083
 20
171.7918566940608969
 30
0.0
 11
3428.3721646258732108
 21
171.7839505940609115
 31
0.0
  0
ARC
  5
B9D2
  8
0
 10
3428.3708200257351564
 20
171.7889022151539109
 30
0.0
 40
0.0051309356827061
 50
250.0633672519292929
 51
285.1921815497087778
  0
ARC
  5
B9D3
  8
0
 10
3428.3673330269680264
 20
171.7887624706291092
 30
0.0
 40
0.0049955715132474
 50
252.9055096665771032
 51
290.3526791601906893
  0
LINE
  5
B9D4
  8
0
 10
3428.3658645866489678
 20
171.7839875970418859
 30
0.0
 11
3428.3421019719730793
 21
171.7918566940608969
 31
0.0
  0
LINE
  5
B9D5
  8
0
 10
3428.3470232317718001
 20
171.7986704739608967
 30
0.0
 11
3428.3690704758728316
 21
171.7913694296609037
 31
0.0
  0
LINE
  5
B9D6
  8
0
 10
3428.3690704758728316
 20
171.7913694296609037
 30
0.0
 11
3428.3911177199729536
 21
171.7986704739608967
 31
0.0
  0
LINE
  5
B9D7
  8
0
 10
3428.3690704758728316
 20
171.8050757138609015
 30
0.0
 11
3428.3690704758728316
 21
171.7840787748612001
 31
0.0
  0
LINE
  5
B9D8
  8
0
 10
3428.3371807120720405
 20
171.8113998783132104
 30
0.0
 11
3428.3371807120720405
 21
171.7986704739608967
 31
0.0
  0
ARC
  5
B9D9
  8
0
 10
3428.3440810847318971
 20
171.7996996713251008
 30
0.0
 40
0.0069767033797108
 50
188.4831850265148887
 51
253.5082643943138123
  0
ARC
  5
B9DA
  8
0
 10
3428.3401197953007795
 20
171.7997033239279006
 30
0.0
 40
0.0069802732163097
 50
286.485094698253306
 51
351.4908714307804871
  0
LINE
  5
B9DB
  8
0
 10
3428.3470232317718001
 20
171.7986704739608967
 30
0.0
 11
3428.3470232317718001
 21
171.8113478748445004
 31
0.0
  0
LINE
  5
B9DC
  8
0
 10
3428.3421005588220396
 20
171.7930099846979886
 30
0.0
 11
3428.3421019719730793
 21
171.7918566940608969
 31
0.0
  0
LINE
  5
B9DD
  8
0
 10
3428.3790127626830326
 20
171.8375062476152948
 30
0.0
 11
3428.3960389797730386
 21
171.8318679389608974
 31
0.0
  0
LINE
  5
B9DE
  8
0
 10
3428.3960389797730386
 20
171.8318679389608974
 30
0.0
 11
3428.4165327445730327
 21
171.838654541660901
 31
0.0
  0
LINE
  5
B9DF
  8
0
 10
3428.4180862238731606
 20
171.8381400999608957
 30
0.0
 11
3428.4180862238731606
 21
171.8254626990608926
 31
0.0
  0
ARC
  5
B9E0
  8
0
 10
3428.4249865965321078
 20
171.8264918964250967
 30
0.0
 40
0.0069767033797108
 50
188.4831850265148887
 51
253.5082643943138123
  0
ARC
  5
B9E1
  8
0
 10
3428.4210253071009902
 20
171.8264955490278965
 30
0.0
 40
0.0069802732163097
 50
286.485094698253306
 51
351.4908714307804871
  0
LINE
  5
B9E2
  8
0
 10
3428.4279287435720107
 20
171.8254626990608926
 30
0.0
 11
3428.4279287435720107
 21
171.8381400999444963
 31
0.0
  0
LINE
  5
B9E3
  8
0
 10
3428.4230060706217955
 20
171.8198022097980129
 30
0.0
 11
3428.4230074837719258
 21
171.8186489191608928
 31
0.0
  0
LINE
  5
B9E4
  8
0
 10
3428.4230074837719258
 20
171.8186489191608928
 30
0.0
 11
3428.399133129772963
 21
171.8107428191609074
 31
0.0
  0
ARC
  5
B9E5
  8
0
 10
3428.3977885296349086
 20
171.8156944402539068
 30
0.0
 40
0.0051309356827061
 50
250.0633672519292929
 51
285.1921815497087778
  0
ARC
  5
B9E6
  8
0
 10
3428.3943015308668691
 20
171.8155546957291051
 30
0.0
 40
0.0049955715132474
 50
252.9055096665771032
 51
290.3526791601906893
  0
LINE
  5
B9E7
  8
0
 10
3428.3928330905491748
 20
171.8107798221419102
 30
0.0
 11
3428.3690704758728316
 21
171.8186489191608928
 31
0.0
  0
LINE
  5
B9E8
  8
0
 10
3428.3739917356729165
 20
171.8254626990608926
 30
0.0
 11
3428.3960389797730386
 21
171.8181616547608996
 31
0.0
  0
LINE
  5
B9E9
  8
0
 10
3428.3960389797730386
 20
171.8181616547608996
 30
0.0
 11
3428.4180862238731606
 21
171.8254626990608926
 31
0.0
  0
LINE
  5
B9EA
  8
0
 10
3428.3960389797730386
 20
171.8318679389608974
 30
0.0
 11
3428.3960389797730386
 21
171.810870999961196
 31
0.0
  0
LINE
  5
B9EB
  8
0
 10
3428.364149215973157
 20
171.8296821506654908
 30
0.0
 11
3428.364149215973157
 21
171.8254626990608926
 31
0.0
  0
ARC
  5
B9EC
  8
0
 10
3428.3710495886321041
 20
171.8264918964250967
 30
0.0
 40
0.0069767033797108
 50
188.4831850265148887
 51
253.5082643943138123
  0
ARC
  5
B9ED
  8
0
 10
3428.3670882992009865
 20
171.8264955490278965
 30
0.0
 40
0.0069802732163097
 50
286.485094698253306
 51
351.4908714307804871
  0
LINE
  5
B9EE
  8
0
 10
3428.3739917356729165
 20
171.8254626990608926
 30
0.0
 11
3428.3739917356729165
 21
171.8349945485257138
 31
0.0
  0
LINE
  5
B9EF
  8
0
 10
3428.3690690627217919
 20
171.8198022097980129
 30
0.0
 11
3428.3690704758728316
 21
171.8186489191608928
 31
0.0
  0
LINE
  5
B9F0
  8
0
 10
3428.3216082071830897
 20
171.7850700914574134
 30
0.0
 11
3428.3421019718721254
 21
171.7782834887609056
 31
0.0
  0
LINE
  5
B9F1
  8
0
 10
3428.3421019718721254
 20
171.7782834887609056
 30
0.0
 11
3428.3625957366721195
 21
171.7850700914609092
 31
0.0
  0
LINE
  5
B9F2
  8
0
 10
3428.364149215973157
 20
171.7845556497609039
 30
0.0
 11
3428.364149215973157
 21
171.7718782488609008
 31
0.0
  0
ARC
  5
B9F3
  8
0
 10
3428.3710495886321041
 20
171.7729074462251901
 30
0.0
 40
0.0069767033797108
 50
188.4831850265148887
 51
253.5082643943138123
  0
ARC
  5
B9F4
  8
0
 10
3428.3670882992009865
 20
171.7729110988279047
 30
0.0
 40
0.0069802732163097
 50
286.485094698253306
 51
351.4908714307804871
  0
LINE
  5
B9F5
  8
0
 10
3428.3739917356729165
 20
171.7718782488609008
 30
0.0
 11
3428.3739917356729165
 21
171.7845556497445045
 31
0.0
  0
LINE
  5
B9F6
  8
0
 10
3428.3690690627217919
 20
171.7662177595979927
 30
0.0
 11
3428.3690704758728316
 21
171.765064468960901
 31
0.0
  0
LINE
  5
B9F7
  8
0
 10
3428.3690704758728316
 20
171.765064468960901
 30
0.0
 11
3428.3451961218729593
 21
171.7571583689608872
 31
0.0
  0
ARC
  5
B9F8
  8
0
 10
3428.343851521734905
 20
171.7621099900538866
 30
0.0
 40
0.0051309356827061
 50
250.0633672519292929
 51
285.1921815497087778
  0
ARC
  5
B9F9
  8
0
 10
3428.340364522967775
 20
171.7619702455291133
 30
0.0
 40
0.0049955715132474
 50
252.9055096665771032
 51
290.3526791601906893
  0
LINE
  5
B9FA
  8
0
 10
3428.3388960826491711
 20
171.75719537194189
 30
0.0
 11
3428.3151334679719184
 21
171.765064468960901
 31
0.0
  0
LINE
  5
B9FB
  8
0
 10
3428.3200547277720034
 20
171.7718782488609008
 30
0.0
 11
3428.3421019718721254
 21
171.7645772045609078
 31
0.0
  0
LINE
  5
B9FC
  8
0
 10
3428.3421019718721254
 20
171.7645772045609078
 30
0.0
 11
3428.364149215973157
 21
171.7718782488609008
 31
0.0
  0
LINE
  5
B9FD
  8
0
 10
3428.3421019718721254
 20
171.7782834887609056
 30
0.0
 11
3428.3421019718721254
 21
171.7572865497612042
 31
0.0
  0
LINE
  5
B9FE
  8
0
 10
3428.3102122080731533
 20
171.7813275171187115
 30
0.0
 11
3428.3102122080731533
 21
171.7718782488609008
 31
0.0
  0
ARC
  5
B9FF
  8
0
 10
3428.3171125807321005
 20
171.7729074462251901
 30
0.0
 40
0.0069767033797108
 50
188.4831850265148887
 51
253.5082643943138123
  0
ARC
  5
BA00
  8
0
 10
3428.3131512913009828
 20
171.7729110988279047
 30
0.0
 40
0.0069802732163097
 50
286.485094698253306
 51
351.4908714307804871
  0
LINE
  5
BA01
  8
0
 10
3428.3200547277720034
 20
171.7718782488609008
 30
0.0
 11
3428.3200547277720034
 21
171.7845556497445045
 31
0.0
  0
LINE
  5
BA02
  8
0
 10
3428.3151320548217882
 20
171.7662177595979927
 30
0.0
 11
3428.3151334679719184
 21
171.765064468960901
 31
0.0
  0
LINE
  5
BA03
  8
0
 10
3428.3485767111828864
 20
171.758277866357389
 30
0.0
 11
3428.3690704758728316
 21
171.7514912636609097
 31
0.0
  0
LINE
  5
BA04
  8
0
 10
3428.3690704758728316
 20
171.7514912636609097
 30
0.0
 11
3428.3895642406728257
 21
171.7582778663609133
 31
0.0
  0
LINE
  5
BA05
  8
0
 10
3428.3911177199729536
 20
171.757763424660908
 30
0.0
 11
3428.3911177199729536
 21
171.7450860237609049
 31
0.0
  0
ARC
  5
BA06
  8
0
 10
3428.3980180926309913
 20
171.7461152211251942
 30
0.0
 40
0.0069767033797108
 50
188.4831850265148887
 51
253.5082643943138123
  0
ARC
  5
BA07
  8
0
 10
3428.3940568032007832
 20
171.7461188737279087
 30
0.0
 40
0.0069802732163097
 50
286.485094698253306
 51
351.4908714307804871
  0
LINE
  5
BA08
  8
0
 10
3428.400960239673168
 20
171.7450860237609049
 30
0.0
 11
3428.400960239673168
 21
171.7577634246445086
 31
0.0
  0
LINE
  5
BA09
  8
0
 10
3428.3960375667220433
 20
171.7394255344979968
 30
0.0
 11
3428.396038979873083
 21
171.7382722438609051
 31
0.0
  0
LINE
  5
BA0A
  8
0
 10
3428.396038979873083
 20
171.7382722438609051
 30
0.0
 11
3428.3721646258732108
 21
171.7303661438608913
 31
0.0
  0
ARC
  5
BA0B
  8
0
 10
3428.3708200257351564
 20
171.7353177649538907
 30
0.0
 40
0.0051309356827061
 50
250.0633672519292929
 51
285.1921815497087778
  0
ARC
  5
BA0C
  8
0
 10
3428.3673330269680264
 20
171.735178020429089
 30
0.0
 40
0.0049955715132474
 50
252.9055096665771032
 51
290.3526791601906893
  0
LINE
  5
BA0D
  8
0
 10
3428.3658645866489678
 20
171.7304031468418941
 30
0.0
 11
3428.3421019719730793
 21
171.7382722438609051
 31
0.0
  0
LINE
  5
BA0E
  8
0
 10
3428.3470232317718001
 20
171.7450860237609049
 30
0.0
 11
3428.3690704758728316
 21
171.7377849794609119
 31
0.0
  0
LINE
  5
BA0F
  8
0
 10
3428.3690704758728316
 20
171.7377849794609119
 30
0.0
 11
3428.3911177199729536
 21
171.7450860237609049
 31
0.0
  0
LINE
  5
BA10
  8
0
 10
3428.3690704758728316
 20
171.7514912636609097
 30
0.0
 11
3428.3690704758728316
 21
171.7304943246612083
 31
0.0
  0
LINE
  5
BA11
  8
0
 10
3428.3371807120720405
 20
171.757763424660908
 30
0.0
 11
3428.3371807120720405
 21
171.7450860237609049
 31
0.0
  0
ARC
  5
BA12
  8
0
 10
3428.3440810847318971
 20
171.7461152211251942
 30
0.0
 40
0.0069767033797108
 50
188.4831850265148887
 51
253.5082643943138123
  0
ARC
  5
BA13
  8
0
 10
3428.3401197953007795
 20
171.7461188737279087
 30
0.0
 40
0.0069802732163097
 50
286.485094698253306
 51
351.4908714307804871
  0
LINE
  5
BA14
  8
0
 10
3428.3470232317718001
 20
171.7450860237609049
 30
0.0
 11
3428.3470232317718001
 21
171.7577634246445086
 31
0.0
  0
LINE
  5
BA15
  8
0
 10
3428.3421005588220396
 20
171.7394255344979968
 30
0.0
 11
3428.3421019719730793
 21
171.7382722438609051
 31
0.0
  0
LINE
  5
BA16
  8
0
 10
3428.3216082071830897
 20
171.7314856412573931
 30
0.0
 11
3428.3421019718721254
 21
171.7246990385609138
 31
0.0
  0
LINE
  5
BA17
  8
0
 10
3428.3421019718721254
 20
171.7246990385609138
 30
0.0
 11
3428.3625957366721195
 21
171.731485641260889
 31
0.0
  0
LINE
  5
BA18
  8
0
 10
3428.364149215973157
 20
171.7309711995609121
 30
0.0
 11
3428.364149215973157
 21
171.718293798660909
 31
0.0
  0
ARC
  5
BA19
  8
0
 10
3428.3710495886321041
 20
171.7193229960251983
 30
0.0
 40
0.0069767033797108
 50
188.4831850265148887
 51
253.5082643943138123
  0
ARC
  5
BA1A
  8
0
 10
3428.3670882992009865
 20
171.7193266486279128
 30
0.0
 40
0.0069802732163097
 50
286.485094698253306
 51
351.4908714307804871
  0
LINE
  5
BA1B
  8
0
 10
3428.3739917356729165
 20
171.718293798660909
 30
0.0
 11
3428.3739917356729165
 21
171.7309711995445127
 31
0.0
  0
LINE
  5
BA1C
  8
0
 10
3428.3690690627217919
 20
171.7126333093980008
 30
0.0
 11
3428.3690704758728316
 21
171.7114800187609092
 31
0.0
  0
LINE
  5
BA1D
  8
0
 10
3428.3690704758728316
 20
171.7114800187609092
 30
0.0
 11
3428.3451961218729593
 21
171.7035739187608954
 31
0.0
  0
ARC
  5
BA1E
  8
0
 10
3428.343851521734905
 20
171.7085255398538948
 30
0.0
 40
0.0051309356827061
 50
250.0633672519292929
 51
285.1921815497087778
  0
ARC
  5
BA1F
  8
0
 10
3428.340364522967775
 20
171.7083857953290931
 30
0.0
 40
0.0049955715132474
 50
252.9055096665771032
 51
290.3526791601906893
  0
LINE
  5
BA20
  8
0
 10
3428.3388960826491711
 20
171.7036109217418982
 30
0.0
 11
3428.3151334679719184
 21
171.7114800187609092
 31
0.0
  0
LINE
  5
BA21
  8
0
 10
3428.3200547277720034
 20
171.718293798660909
 30
0.0
 11
3428.3421019718721254
 21
171.7109927543608876
 31
0.0
  0
LINE
  5
BA22
  8
0
 10
3428.3421019718721254
 20
171.7109927543608876
 30
0.0
 11
3428.364149215973157
 21
171.718293798660909
 31
0.0
  0
LINE
  5
BA23
  8
0
 10
3428.3421019718721254
 20
171.7246990385609138
 30
0.0
 11
3428.3421019718721254
 21
171.7037020995612124
 31
0.0
  0
LINE
  5
BA24
  8
0
 10
3428.3102122080731533
 20
171.7309711995609121
 30
0.0
 11
3428.3102122080731533
 21
171.718293798660909
 31
0.0
  0
ARC
  5
BA25
  8
0
 10
3428.3171125807321005
 20
171.7193229960251983
 30
0.0
 40
0.0069767033797108
 50
188.4831850265148887
 51
253.5082643943138123
  0
ARC
  5
BA26
  8
0
 10
3428.3131512913009828
 20
171.7193266486279128
 30
0.0
 40
0.0069802732163097
 50
286.485094698253306
 51
351.4908714307804871
  0
LINE
  5
BA27
  8
0
 10
3428.3200547277720034
 20
171.718293798660909
 30
0.0
 11
3428.3200547277720034
 21
171.7309711995445127
 31
0.0
  0
LINE
  5
BA28
  8
0
 10
3428.3151320548217882
 20
171.7126333093980008
 30
0.0
 11
3428.3151334679719184
 21
171.7114800187609092
 31
0.0
  0
LINE
  5
BA29
  8
0
 10
3428.429482222983097
 20
171.7314856412573931
 30
0.0
 11
3428.4499759876721328
 21
171.7246990385609138
 31
0.0
  0
LINE
  5
BA2A
  8
0
 10
3428.4499759876721328
 20
171.7246990385609138
 30
0.0
 11
3428.4704697524721269
 21
171.731485641260889
 31
0.0
  0
LINE
  5
BA2B
  8
0
 10
3428.4720232317731643
 20
171.7309711995609121
 30
0.0
 11
3428.4720232317731643
 21
171.718293798660909
 31
0.0
  0
ARC
  5
BA2C
  8
0
 10
3428.4789236044321115
 20
171.7193229960251983
 30
0.0
 40
0.0069767033797108
 50
188.4831850265148887
 51
253.5082643943138123
  0
ARC
  5
BA2D
  8
0
 10
3428.4749623150009938
 20
171.7193266486279128
 30
0.0
 40
0.0069802732163097
 50
286.485094698253306
 51
351.4908714307804871
  0
LINE
  5
BA2E
  8
0
 10
3428.4818657514729239
 20
171.718293798660909
 30
0.0
 11
3428.4818657514729239
 21
171.7309711995445127
 31
0.0
  0
LINE
  5
BA2F
  8
0
 10
3428.4769430785217992
 20
171.7126333093980008
 30
0.0
 11
3428.4769444916728389
 21
171.7114800187609092
 31
0.0
  0
LINE
  5
BA30
  8
0
 10
3428.4769444916728389
 20
171.7114800187609092
 30
0.0
 11
3428.4530701376729667
 21
171.7035739187608954
 31
0.0
  0
ARC
  5
BA31
  8
0
 10
3428.4517255375349123
 20
171.7085255398538948
 30
0.0
 40
0.0051309356827061
 50
250.0633672519292929
 51
285.1921815497087778
  0
ARC
  5
BA32
  8
0
 10
3428.4482385387677823
 20
171.7083857953290931
 30
0.0
 40
0.0049955715132474
 50
252.9055096665771032
 51
290.3526791601906893
  0
LINE
  5
BA33
  8
0
 10
3428.4467700984491785
 20
171.7036109217418982
 30
0.0
 11
3428.4230074837719258
 21
171.7114800187609092
 31
0.0
  0
LINE
  5
BA34
  8
0
 10
3428.4279287435720107
 20
171.718293798660909
 30
0.0
 11
3428.4499759876721328
 21
171.7109927543608876
 31
0.0
  0
LINE
  5
BA35
  8
0
 10
3428.4499759876721328
 20
171.7109927543608876
 30
0.0
 11
3428.4720232317731643
 21
171.718293798660909
 31
0.0
  0
LINE
  5
BA36
  8
0
 10
3428.4499759876721328
 20
171.7246990385609138
 30
0.0
 11
3428.4499759876721328
 21
171.7037020995612124
 31
0.0
  0
LINE
  5
BA37
  8
0
 10
3428.4180862238731606
 20
171.7309711995609121
 30
0.0
 11
3428.4180862238731606
 21
171.718293798660909
 31
0.0
  0
ARC
  5
BA38
  8
0
 10
3428.4249865965321078
 20
171.7193229960251983
 30
0.0
 40
0.0069767033797108
 50
188.4831850265148887
 51
253.5082643943138123
  0
ARC
  5
BA39
  8
0
 10
3428.4210253071009902
 20
171.7193266486279128
 30
0.0
 40
0.0069802732163097
 50
286.485094698253306
 51
351.4908714307804871
  0
LINE
  5
BA3A
  8
0
 10
3428.4279287435720107
 20
171.718293798660909
 30
0.0
 11
3428.4279287435720107
 21
171.7309711995445127
 31
0.0
  0
LINE
  5
BA3B
  8
0
 10
3428.4230060706217955
 20
171.7126333093980008
 30
0.0
 11
3428.4230074837719258
 21
171.7114800187609092
 31
0.0
  0
LINE
  5
BA3C
  8
0
 10
3428.3755452150840028
 20
171.6779011909574137
 30
0.0
 11
3428.3960389797730386
 21
171.671114588260906
 31
0.0
  0
LINE
  5
BA3D
  8
0
 10
3428.3960389797730386
 20
171.671114588260906
 30
0.0
 11
3428.4165327445730327
 21
171.6779011909609096
 31
0.0
  0
LINE
  5
BA3E
  8
0
 10
3428.4180862238731606
 20
171.6773867492609043
 30
0.0
 11
3428.4180862238731606
 21
171.6647093483609012
 31
0.0
  0
ARC
  5
BA3F
  8
0
 10
3428.4249865965321078
 20
171.6657385457251905
 30
0.0
 40
0.0069767033797108
 50
188.4831850265148887
 51
253.5082643943138123
  0
ARC
  5
BA40
  8
0
 10
3428.4210253071009902
 20
171.665742198327905
 30
0.0
 40
0.0069802732163097
 50
286.485094698253306
 51
351.4908714307804871
  0
LINE
  5
BA41
  8
0
 10
3428.4279287435720107
 20
171.6647093483609012
 30
0.0
 11
3428.4279287435720107
 21
171.6773867971247114
 31
0.0
  0
LINE
  5
BA42
  8
0
 10
3428.4230060706217955
 20
171.659048859097993
 30
0.0
 11
3428.4230074837719258
 21
171.6578955684609014
 31
0.0
  0
LINE
  5
BA43
  8
0
 10
3428.4230074837719258
 20
171.6578955684609014
 30
0.0
 11
3428.399133129772963
 21
171.6499894684608876
 31
0.0
  0
ARC
  5
BA44
  8
0
 10
3428.3977885296349086
 20
171.654941089553887
 30
0.0
 40
0.0051309356827061
 50
250.0633672519292929
 51
285.1921815497087778
  0
ARC
  5
BA45
  8
0
 10
3428.3943015308668691
 20
171.6548013450291137
 30
0.0
 40
0.0049955715132474
 50
252.9055096665771032
 51
290.3526791601906893
  0
LINE
  5
BA46
  8
0
 10
3428.3928330905491748
 20
171.6500264714418904
 30
0.0
 11
3428.3690704758728316
 21
171.6578955684609014
 31
0.0
  0
LINE
  5
BA47
  8
0
 10
3428.3739917356729165
 20
171.6647093483609012
 30
0.0
 11
3428.3960389797730386
 21
171.6574083040609082
 31
0.0
  0
LINE
  5
BA48
  8
0
 10
3428.3960389797730386
 20
171.6574083040609082
 30
0.0
 11
3428.4180862238731606
 21
171.6647093483609012
 31
0.0
  0
LINE
  5
BA49
  8
0
 10
3428.3960389797730386
 20
171.671114588260906
 30
0.0
 11
3428.3960389797730386
 21
171.6501176492612046
 31
0.0
  0
LINE
  5
BA4A
  8
0
 10
3428.364149215973157
 20
171.6773867492609043
 30
0.0
 11
3428.364149215973157
 21
171.6647093483609012
 31
0.0
  0
ARC
  5
BA4B
  8
0
 10
3428.3710495886321041
 20
171.6657385457251905
 30
0.0
 40
0.0069767033797108
 50
188.4831850265148887
 51
253.5082643943138123
  0
ARC
  5
BA4C
  8
0
 10
3428.3670882992009865
 20
171.665742198327905
 30
0.0
 40
0.0069802732163097
 50
286.485094698253306
 51
351.4908714307804871
  0
LINE
  5
BA4D
  8
0
 10
3428.3739917356729165
 20
171.6647093483609012
 30
0.0
 11
3428.3739917356729165
 21
171.6773867492445049
 31
0.0
  0
LINE
  5
BA4E
  8
0
 10
3428.3690690627217919
 20
171.659048859097993
 30
0.0
 11
3428.3690704758728316
 21
171.6578955684609014
 31
0.0
  0
LINE
  5
BA4F
  8
0
 10
3428.3485767111828864
 20
171.7046934161573972
 30
0.0
 11
3428.3690704758728316
 21
171.6979068134608895
 31
0.0
  0
LINE
  5
BA50
  8
0
 10
3428.3690704758728316
 20
171.6979068134608895
 30
0.0
 11
3428.3895642406728257
 21
171.7046934161608931
 31
0.0
  0
LINE
  5
BA51
  8
0
 10
3428.3911177199729536
 20
171.7041789744608877
 30
0.0
 11
3428.3911177199729536
 21
171.6915015735609131
 31
0.0
  0
ARC
  5
BA52
  8
0
 10
3428.3980180926309913
 20
171.6925307709250887
 30
0.0
 40
0.0069767033797108
 50
188.4831850265148887
 51
253.5082643943138123
  0
ARC
  5
BA53
  8
0
 10
3428.3940568032007832
 20
171.6925344235278885
 30
0.0
 40
0.0069802732163097
 50
286.485094698253306
 51
351.4908714307804871
  0
LINE
  5
BA54
  8
0
 10
3428.400960239673168
 20
171.6915015735609131
 30
0.0
 11
3428.400960239673168
 21
171.7041789744444884
 31
0.0
  0
LINE
  5
BA55
  8
0
 10
3428.3960375667220433
 20
171.6858410842980049
 30
0.0
 11
3428.396038979873083
 21
171.6846877936609133
 31
0.0
  0
LINE
  5
BA56
  8
0
 10
3428.396038979873083
 20
171.6846877936609133
 30
0.0
 11
3428.3721646258732108
 21
171.6767816936608995
 31
0.0
  0
ARC
  5
BA57
  8
0
 10
3428.3708200257351564
 20
171.6817333147538989
 30
0.0
 40
0.0051309356827061
 50
250.0633672519292929
 51
285.1921815497087778
  0
ARC
  5
BA58
  8
0
 10
3428.3673330269680264
 20
171.6815935702290972
 30
0.0
 40
0.0049955715132474
 50
252.9055096665771032
 51
290.3526791601906893
  0
LINE
  5
BA59
  8
0
 10
3428.3658645866489678
 20
171.6768186966419023
 30
0.0
 11
3428.3421019719730793
 21
171.6846877936609133
 31
0.0
  0
LINE
  5
BA5A
  8
0
 10
3428.3470232317718001
 20
171.6915015735609131
 30
0.0
 11
3428.3690704758728316
 21
171.6842005292608917
 31
0.0
  0
LINE
  5
BA5B
  8
0
 10
3428.3690704758728316
 20
171.6842005292608917
 30
0.0
 11
3428.3911177199729536
 21
171.6915015735609131
 31
0.0
  0
LINE
  5
BA5C
  8
0
 10
3428.3690704758728316
 20
171.6979068134608895
 30
0.0
 11
3428.3690704758728316
 21
171.6769098744611028
 31
0.0
  0
LINE
  5
BA5D
  8
0
 10
3428.3371807120720405
 20
171.7041789744608877
 30
0.0
 11
3428.3371807120720405
 21
171.6915015735609131
 31
0.0
  0
ARC
  5
BA5E
  8
0
 10
3428.3440810847318971
 20
171.6925307709250887
 30
0.0
 40
0.0069767033797108
 50
188.4831850265148887
 51
253.5082643943138123
  0
ARC
  5
BA5F
  8
0
 10
3428.3401197953007795
 20
171.6925344235278885
 30
0.0
 40
0.0069802732163097
 50
286.485094698253306
 51
351.4908714307804871
  0
LINE
  5
BA60
  8
0
 10
3428.3470232317718001
 20
171.6915015735609131
 30
0.0
 11
3428.3470232317718001
 21
171.7041789744444884
 31
0.0
  0
LINE
  5
BA61
  8
0
 10
3428.3421005588220396
 20
171.6858410842980049
 30
0.0
 11
3428.3421019719730793
 21
171.6846877936609133
 31
0.0
  0
LINE
  5
BA62
  8
0
 10
3428.4564507268828493
 20
171.6511089658573894
 30
0.0
 11
3428.4769444915727945
 21
171.6443223631609101
 31
0.0
  0
LINE
  5
BA63
  8
0
 10
3428.4769444915727945
 20
171.6443223631609101
 30
0.0
 11
3428.4974382563727886
 21
171.6511089658609137
 31
0.0
  0
LINE
  5
BA64
  8
0
 10
3428.4989917356720071
 20
171.6505945241609083
 30
0.0
 11
3428.4989917356720071
 21
171.6379171232609053
 31
0.0
  0
ARC
  5
BA65
  8
0
 10
3428.5058921083318637
 20
171.6389463206251946
 30
0.0
 40
0.0069767033797108
 50
188.4831850265148887
 51
253.5082643943138123
  0
ARC
  5
BA66
  8
0
 10
3428.5019308189012008
 20
171.6389499732279091
 30
0.0
 40
0.0069802732163097
 50
286.485094698253306
 51
351.4908714307804871
  0
LINE
  5
BA67
  8
0
 10
3428.5088342553731309
 20
171.6379171232609053
 30
0.0
 11
3428.5088342553731309
 21
171.650594524144509
 31
0.0
  0
LINE
  5
BA68
  8
0
 10
3428.5039115824220062
 20
171.6322566339979971
 30
0.0
 11
3428.5039129955730459
 21
171.6311033433609055
 31
0.0
  0
LINE
  5
BA69
  8
0
 10
3428.5039129955730459
 20
171.6311033433609055
 30
0.0
 11
3428.4800386415731737
 21
171.6231972433608917
 31
0.0
  0
ARC
  5
BA6A
  8
0
 10
3428.4786940414351193
 20
171.6281488644538911
 30
0.0
 40
0.0051309356827061
 50
250.0633672519292929
 51
285.1921815497087778
  0
ARC
  5
BA6B
  8
0
 10
3428.4752070426679893
 20
171.6280091199290894
 30
0.0
 40
0.0049955715132474
 50
252.9055096665771032
 51
290.3526791601906893
  0
LINE
  5
BA6C
  8
0
 10
3428.4737386023489307
 20
171.6232342463418945
 30
0.0
 11
3428.4499759876721328
 21
171.6311033433609055
 31
0.0
  0
LINE
  5
BA6D
  8
0
 10
3428.4548972474731272
 20
171.6379171232609053
 30
0.0
 11
3428.4769444915727945
 21
171.6306160789609123
 31
0.0
  0
LINE
  5
BA6E
  8
0
 10
3428.4769444915727945
 20
171.6306160789609123
 30
0.0
 11
3428.4989917356720071
 21
171.6379171232609053
 31
0.0
  0
LINE
  5
BA6F
  8
0
 10
3428.4769444915727945
 20
171.6443223631609101
 30
0.0
 11
3428.4769444915727945
 21
171.6233254241612087
 31
0.0
  0
LINE
  5
BA70
  8
0
 10
3428.4450547277729129
 20
171.6505945241609083
 30
0.0
 11
3428.4450547277729129
 21
171.6379171232609053
 31
0.0
  0
ARC
  5
BA71
  8
0
 10
3428.4519551004309506
 20
171.6389463206251946
 30
0.0
 40
0.0069767033797108
 50
188.4831850265148887
 51
253.5082643943138123
  0
ARC
  5
BA72
  8
0
 10
3428.4479938110011972
 20
171.6389499732279091
 30
0.0
 40
0.0069802732163097
 50
286.485094698253306
 51
351.4908714307804871
  0
LINE
  5
BA73
  8
0
 10
3428.4548972474731272
 20
171.6379171232609053
 30
0.0
 11
3428.4548972474731272
 21
171.650594524144509
 31
0.0
  0
LINE
  5
BA74
  8
0
 10
3428.4499745745220025
 20
171.6322566339979971
 30
0.0
 11
3428.4499759876721328
 21
171.6311033433609055
 31
0.0
  0
LINE
  5
BA75
  8
0
 10
3428.4564507268828493
 20
171.7046934161573972
 30
0.0
 11
3428.4769444915727945
 21
171.6979068134608895
 31
0.0
  0
LINE
  5
BA76
  8
0
 10
3428.4769444915727945
 20
171.6979068134608895
 30
0.0
 11
3428.4974382563727886
 21
171.7046934161608931
 31
0.0
  0
LINE
  5
BA77
  8
0
 10
3428.4989917356720071
 20
171.7041789744608877
 30
0.0
 11
3428.4989917356720071
 21
171.6915015735609131
 31
0.0
  0
ARC
  5
BA78
  8
0
 10
3428.5058921083318637
 20
171.6925307709250887
 30
0.0
 40
0.0069767033797108
 50
188.4831850265148887
 51
253.5082643943138123
  0
ARC
  5
BA79
  8
0
 10
3428.5019308189012008
 20
171.6925344235278885
 30
0.0
 40
0.0069802732163097
 50
286.485094698253306
 51
351.4908714307804871
  0
LINE
  5
BA7A
  8
0
 10
3428.5088342553731309
 20
171.6915015735609131
 30
0.0
 11
3428.5088342553731309
 21
171.7041789744444884
 31
0.0
  0
LINE
  5
BA7B
  8
0
 10
3428.5039115824220062
 20
171.6858410842980049
 30
0.0
 11
3428.5039129955730459
 21
171.6846877936609133
 31
0.0
  0
LINE
  5
BA7C
  8
0
 10
3428.5039129955730459
 20
171.6846877936609133
 30
0.0
 11
3428.4800386415731737
 21
171.6767816936608995
 31
0.0
  0
ARC
  5
BA7D
  8
0
 10
3428.4786940414351193
 20
171.6817333147538989
 30
0.0
 40
0.0051309356827061
 50
250.0633672519292929
 51
285.1921815497087778
  0
ARC
  5
BA7E
  8
0
 10
3428.4752070426679893
 20
171.6815935702290972
 30
0.0
 40
0.0049955715132474
 50
252.9055096665771032
 51
290.3526791601906893
  0
LINE
  5
BA7F
  8
0
 10
3428.4737386023489307
 20
171.6768186966419023
 30
0.0
 11
3428.4499759876721328
 21
171.6846877936609133
 31
0.0
  0
LINE
  5
BA80
  8
0
 10
3428.4548972474731272
 20
171.6915015735609131
 30
0.0
 11
3428.4769444915727945
 21
171.6842005292608917
 31
0.0
  0
LINE
  5
BA81
  8
0
 10
3428.4769444915727945
 20
171.6842005292608917
 30
0.0
 11
3428.4989917356720071
 21
171.6915015735609131
 31
0.0
  0
LINE
  5
BA82
  8
0
 10
3428.4769444915727945
 20
171.6979068134608895
 30
0.0
 11
3428.4769444915727945
 21
171.6769098744611028
 31
0.0
  0
LINE
  5
BA83
  8
0
 10
3428.4450547277729129
 20
171.7041789744608877
 30
0.0
 11
3428.4450547277729129
 21
171.6915015735609131
 31
0.0
  0
ARC
  5
BA84
  8
0
 10
3428.4519551004309506
 20
171.6925307709250887
 30
0.0
 40
0.0069767033797108
 50
188.4831850265148887
 51
253.5082643943138123
  0
ARC
  5
BA85
  8
0
 10
3428.4479938110011972
 20
171.6925344235278885
 30
0.0
 40
0.0069802732163097
 50
286.485094698253306
 51
351.4908714307804871
  0
LINE
  5
BA86
  8
0
 10
3428.4548972474731272
 20
171.6915015735609131
 30
0.0
 11
3428.4548972474731272
 21
171.7041789744444884
 31
0.0
  0
LINE
  5
BA87
  8
0
 10
3428.4499745745220025
 20
171.6858410842980049
 30
0.0
 11
3428.4499759876721328
 21
171.6846877936609133
 31
0.0
  0
LINE
  5
BA88
  8
0
 10
3428.4624388548349998
 20
171.8634637711527944
 30
0.0
 11
3428.4769444915727945
 21
171.8586601640608933
 31
0.0
  0
LINE
  5
BA89
  8
0
 10
3428.4769444915727945
 20
171.8586601640608933
 30
0.0
 11
3428.4974382563727886
 21
171.8654467667608969
 31
0.0
  0
LINE
  5
BA8A
  8
0
 10
3428.4989917356720071
 20
171.8649323250608916
 30
0.0
 11
3428.4989917356720071
 21
171.8522549241608885
 31
0.0
  0
ARC
  5
BA8B
  8
0
 10
3428.5058921083318637
 20
171.8532841215252063
 30
0.0
 40
0.0069767033797108
 50
188.4831850265148887
 51
253.5082643943138123
  0
ARC
  5
BA8C
  8
0
 10
3428.5019308189012008
 20
171.8532877741278924
 30
0.0
 40
0.0069802732163097
 50
286.485094698253306
 51
351.4908714307804871
  0
LINE
  5
BA8D
  8
0
 10
3428.5088342553731309
 20
171.8522549241608885
 30
0.0
 11
3428.5088342553731309
 21
171.8649357765372088
 31
0.0
  0
LINE
  5
BA8E
  8
0
 10
3428.5039115824220062
 20
171.8465944348980088
 30
0.0
 11
3428.5039129955730459
 21
171.8454411442608887
 31
0.0
  0
LINE
  5
BA8F
  8
0
 10
3428.5039129955730459
 20
171.8454411442608887
 30
0.0
 11
3428.4800386415731737
 21
171.8375350442609033
 31
0.0
  0
ARC
  5
BA90
  8
0
 10
3428.4786940414351193
 20
171.8424866653539027
 30
0.0
 40
0.0051309356827061
 50
250.0633672519292929
 51
285.1921815497087778
  0
ARC
  5
BA91
  8
0
 10
3428.4752070426679893
 20
171.842346920829101
 30
0.0
 40
0.0049955715132474
 50
252.9055096665771032
 51
290.3526791601906893
  0
LINE
  5
BA92
  8
0
 10
3428.4737386023489307
 20
171.8375720472419061
 30
0.0
 11
3428.4499759876721328
 21
171.8454411442608887
 31
0.0
  0
LINE
  5
BA93
  8
0
 10
3428.4548972474731272
 20
171.8522549241608885
 30
0.0
 11
3428.4769444915727945
 21
171.8449538798608955
 31
0.0
  0
LINE
  5
BA94
  8
0
 10
3428.4769444915727945
 20
171.8449538798608955
 30
0.0
 11
3428.4989917356720071
 21
171.8522549241608885
 31
0.0
  0
LINE
  5
BA95
  8
0
 10
3428.4769444915727945
 20
171.8586601640608933
 30
0.0
 11
3428.4769444915727945
 21
171.837663225061192
 31
0.0
  0
LINE
  5
BA96
  8
0
 10
3428.4450547277729129
 20
171.8599905904416971
 30
0.0
 11
3428.4450547277729129
 21
171.8522549241608885
 31
0.0
  0
ARC
  5
BA97
  8
0
 10
3428.4519551004309506
 20
171.8532841215252063
 30
0.0
 40
0.0069767033797108
 50
188.4831850265148887
 51
253.5082643943138123
  0
ARC
  5
BA98
  8
0
 10
3428.4479938110011972
 20
171.8532877741278924
 30
0.0
 40
0.0069802732163097
 50
286.485094698253306
 51
351.4908714307804871
  0
LINE
  5
BA99
  8
0
 10
3428.4548972474731272
 20
171.8522549241608885
 30
0.0
 11
3428.4548972474731272
 21
171.8620585632648954
 31
0.0
  0
LINE
  5
BA9A
  8
0
 10
3428.4499745745220025
 20
171.8465944348980088
 30
0.0
 11
3428.4499759876721328
 21
171.8454411442608887
 31
0.0
  0
LINE
  5
BA9B
  8
0
 10
3428.4834192308831007
 20
171.6779011909574137
 30
0.0
 11
3428.5039129955730459
 21
171.671114588260906
 31
0.0
  0
LINE
  5
BA9C
  8
0
 10
3428.5039129955730459
 20
171.671114588260906
 30
0.0
 11
3428.52440676037304
 21
171.6779011909609096
 31
0.0
  0
LINE
  5
BA9D
  8
0
 10
3428.5259602396718037
 20
171.6773867492609043
 30
0.0
 11
3428.5259602396718037
 21
171.6647093483609012
 31
0.0
  0
ARC
  5
BA9E
  8
0
 10
3428.5328606123321151
 20
171.6657385457251905
 30
0.0
 40
0.0069767033797108
 50
188.4831850265148887
 51
253.5203665004607103
  0
LINE
  5
BA9F
  8
0
 10
3428.5308814995719331
 20
171.6578955684609014
 30
0.0
 11
3428.5070071455729703
 21
171.6499894684608876
 31
0.0
  0
ARC
  5
BAA0
  8
0
 10
3428.505662545434916
 20
171.654941089553887
 30
0.0
 40
0.0051309356827061
 50
250.0633672519292929
 51
285.1921815497087778
  0
ARC
  5
BAA1
  8
0
 10
3428.5021755466668765
 20
171.6548013450291137
 30
0.0
 40
0.0049955715132474
 50
252.9055096665771032
 51
290.3526791601906893
  0
LINE
  5
BAA2
  8
0
 10
3428.5007071063491821
 20
171.6500264714418904
 30
0.0
 11
3428.4769444916728389
 21
171.6578955684609014
 31
0.0
  0
LINE
  5
BAA3
  8
0
 10
3428.4818657514729239
 20
171.6647093483609012
 30
0.0
 11
3428.5039129955730459
 21
171.6574083040609082
 31
0.0
  0
LINE
  5
BAA4
  8
0
 10
3428.5039129955730459
 20
171.6574083040609082
 30
0.0
 11
3428.5259602396718037
 21
171.6647093483609012
 31
0.0
  0
LINE
  5
BAA5
  8
0
 10
3428.5039129955730459
 20
171.671114588260906
 30
0.0
 11
3428.5039129955730459
 21
171.6501176492612046
 31
0.0
  0
LINE
  5
BAA6
  8
0
 10
3428.4720232317731643
 20
171.6773867492609043
 30
0.0
 11
3428.4720232317731643
 21
171.6647093483609012
 31
0.0
  0
ARC
  5
BAA7
  8
0
 10
3428.4789236044321115
 20
171.6657385457251905
 30
0.0
 40
0.0069767033797108
 50
188.4831850265148887
 51
253.5082643943138123
  0
ARC
  5
BAA8
  8
0
 10
3428.4749623150009938
 20
171.665742198327905
 30
0.0
 40
0.0069802732163097
 50
286.485094698253306
 51
351.4908714307804871
  0
LINE
  5
BAA9
  8
0
 10
3428.4818657514729239
 20
171.6647093483609012
 30
0.0
 11
3428.4818657514729239
 21
171.6773867492445049
 31
0.0
  0
LINE
  5
BAAA
  8
0
 10
3428.4769430785217992
 20
171.659048859097993
 30
0.0
 11
3428.4769444916728389
 21
171.6578955684609014
 31
0.0
  0
LINE
  5
BAAB
  8
0
 10
3428.429482222983097
 20
171.6779011909574137
 30
0.0
 11
3428.4499759876721328
 21
171.671114588260906
 31
0.0
  0
LINE
  5
BAAC
  8
0
 10
3428.4499759876721328
 20
171.671114588260906
 30
0.0
 11
3428.4704697524721269
 21
171.6779011909609096
 31
0.0
  0
LINE
  5
BAAD
  8
0
 10
3428.4769444916728389
 20
171.6578955684609014
 30
0.0
 11
3428.4530701376729667
 21
171.6499894684608876
 31
0.0
  0
ARC
  5
BAAE
  8
0
 10
3428.4517255375349123
 20
171.654941089553887
 30
0.0
 40
0.0051309356827061
 50
250.0633672519292929
 51
285.1921815497087778
  0
ARC
  5
BAAF
  8
0
 10
3428.4482385387677823
 20
171.6548013450291137
 30
0.0
 40
0.0049955715132474
 50
252.9055096665771032
 51
290.3526791601906893
  0
LINE
  5
BAB0
  8
0
 10
3428.4467700984491785
 20
171.6500264714418904
 30
0.0
 11
3428.4230074837719258
 21
171.6578955684609014
 31
0.0
  0
LINE
  5
BAB1
  8
0
 10
3428.4279287435720107
 20
171.6647093483609012
 30
0.0
 11
3428.4499759876721328
 21
171.6574083040609082
 31
0.0
  0
LINE
  5
BAB2
  8
0
 10
3428.4499759876721328
 20
171.6574083040609082
 30
0.0
 11
3428.4720232317731643
 21
171.6647093483609012
 31
0.0
  0
LINE
  5
BAB3
  8
0
 10
3428.4499759876721328
 20
171.671114588260906
 30
0.0
 11
3428.4499759876721328
 21
171.6501176492612046
 31
0.0
  0
LINE
  5
BAB4
  8
0
 10
3428.3755452150840028
 20
171.7314856412573931
 30
0.0
 11
3428.3960389797730386
 21
171.7246990385609138
 31
0.0
  0
LINE
  5
BAB5
  8
0
 10
3428.3960389797730386
 20
171.7246990385609138
 30
0.0
 11
3428.4165327445730327
 21
171.731485641260889
 31
0.0
  0
LINE
  5
BAB6
  8
0
 10
3428.4230074837719258
 20
171.7114800187609092
 30
0.0
 11
3428.399133129772963
 21
171.7035739187608954
 31
0.0
  0
ARC
  5
BAB7
  8
0
 10
3428.3977885296349086
 20
171.7085255398538948
 30
0.0
 40
0.0051309356827061
 50
250.0633672519292929
 51
285.1921815497087778
  0
ARC
  5
BAB8
  8
0
 10
3428.3943015308668691
 20
171.7083857953290931
 30
0.0
 40
0.0049955715132474
 50
252.9055096665771032
 51
290.3526791601906893
  0
LINE
  5
BAB9
  8
0
 10
3428.3928330905491748
 20
171.7036109217418982
 30
0.0
 11
3428.3690704758728316
 21
171.7114800187609092
 31
0.0
  0
LINE
  5
BABA
  8
0
 10
3428.3739917356729165
 20
171.718293798660909
 30
0.0
 11
3428.3960389797730386
 21
171.7109927543608876
 31
0.0
  0
LINE
  5
BABB
  8
0
 10
3428.3960389797730386
 20
171.7109927543608876
 30
0.0
 11
3428.4180862238731606
 21
171.718293798660909
 31
0.0
  0
LINE
  5
BABC
  8
0
 10
3428.3960389797730386
 20
171.7246990385609138
 30
0.0
 11
3428.3960389797730386
 21
171.7037020995612124
 31
0.0
  0
LINE
  5
BABD
  8
0
 10
3428.2978127188530379
 20
171.7572271079268091
 30
0.0
 11
3428.3151334679719184
 21
171.7514912636609097
 31
0.0
  0
LINE
  5
BABE
  8
0
 10
3428.3151334679719184
 20
171.7514912636609097
 30
0.0
 11
3428.3356272327719125
 21
171.7582778663609133
 31
0.0
  0
LINE
  5
BABF
  8
0
 10
3428.3421019719730793
 20
171.7382722438609051
 30
0.0
 11
3428.3182276179718428
 21
171.7303661438608913
 31
0.0
  0
ARC
  5
BAC0
  8
0
 10
3428.3168830178351527
 20
171.7353177649538907
 30
0.0
 40
0.0051309356827061
 50
250.0633672519292929
 51
285.1921815497087778
  0
ARC
  5
BAC1
  8
0
 10
3428.3133960190671132
 20
171.735178020429089
 30
0.0
 40
0.0049955715132474
 50
252.9055096665771032
 51
290.3526791601906893
  0
LINE
  5
BAC2
  8
0
 10
3428.3119275787489642
 20
171.7304031468418941
 30
0.0
 11
3428.2943581737717977
 21
171.7362213345377029
 31
0.0
  0
LINE
  5
BAC3
  8
0
 10
3428.2949547218590851
 20
171.744467262227289
 30
0.0
 11
3428.3151334679719184
 21
171.7377849794609119
 31
0.0
  0
LINE
  5
BAC4
  8
0
 10
3428.3151334679719184
 20
171.7377849794609119
 30
0.0
 11
3428.3371807120720405
 21
171.7450860237609049
 31
0.0
  0
LINE
  5
BAC5
  8
0
 10
3428.3151334679719184
 20
171.7514912636609097
 30
0.0
 11
3428.3151334679719184
 21
171.7304943246612083
 31
0.0
  0
LINE
  5
BAC6
  8
0
 10
3428.3755452150840028
 20
171.7850700914574134
 30
0.0
 11
3428.3960389797730386
 21
171.7782834887609056
 31
0.0
  0
LINE
  5
BAC7
  8
0
 10
3428.3960389797730386
 20
171.7782834887609056
 30
0.0
 11
3428.4165327445730327
 21
171.7850700914609092
 31
0.0
  0
LINE
  5
BAC8
  8
0
 10
3428.4230074837719258
 20
171.765064468960901
 30
0.0
 11
3428.399133129772963
 21
171.7571583689608872
 31
0.0
  0
ARC
  5
BAC9
  8
0
 10
3428.3977885296349086
 20
171.7621099900538866
 30
0.0
 40
0.0051309356827061
 50
250.0633672519292929
 51
285.1921815497087778
  0
ARC
  5
BACA
  8
0
 10
3428.3943015308668691
 20
171.7619702455291133
 30
0.0
 40
0.0049955715132474
 50
252.9055096665771032
 51
290.3526791601906893
  0
LINE
  5
BACB
  8
0
 10
3428.3928330905491748
 20
171.75719537194189
 30
0.0
 11
3428.3690704758728316
 21
171.765064468960901
 31
0.0
  0
LINE
  5
BACC
  8
0
 10
3428.3739917356729165
 20
171.7718782488609008
 30
0.0
 11
3428.3960389797730386
 21
171.7645772045609078
 31
0.0
  0
LINE
  5
BACD
  8
0
 10
3428.3960389797730386
 20
171.7645772045609078
 30
0.0
 11
3428.4180862238731606
 21
171.7718782488609008
 31
0.0
  0
LINE
  5
BACE
  8
0
 10
3428.3960389797730386
 20
171.7782834887609056
 30
0.0
 11
3428.3960389797730386
 21
171.7572865497612042
 31
0.0
  0
LINE
  5
BACF
  8
0
 10
3428.40251371908289
 20
171.8118623165574093
 30
0.0
 11
3428.4230074837719258
 21
171.8050757138609015
 31
0.0
  0
LINE
  5
BAD0
  8
0
 10
3428.4230074837719258
 20
171.8050757138609015
 30
0.0
 11
3428.4435012485719199
 21
171.8118623165609051
 31
0.0
  0
LINE
  5
BAD1
  8
0
 10
3428.4499759877730867
 20
171.7918566940608969
 30
0.0
 11
3428.4261016337718502
 21
171.7839505940609115
 31
0.0
  0
ARC
  5
BAD2
  8
0
 10
3428.4247570336337958
 20
171.7889022151539109
 30
0.0
 40
0.0051309356827061
 50
250.0633672519292929
 51
285.1921815497087778
  0
ARC
  5
BAD3
  8
0
 10
3428.4212700348671206
 20
171.7887624706291092
 30
0.0
 40
0.0049955715132474
 50
252.9055096665771032
 51
290.3526791601906893
  0
LINE
  5
BAD4
  8
0
 10
3428.4198015945489715
 20
171.7839875970418859
 30
0.0
 11
3428.396038979873083
 21
171.7918566940608969
 31
0.0
  0
LINE
  5
BAD5
  8
0
 10
3428.400960239673168
 20
171.7986704739608967
 30
0.0
 11
3428.4230074837719258
 21
171.7913694296609037
 31
0.0
  0
LINE
  5
BAD6
  8
0
 10
3428.4230074837719258
 20
171.7913694296609037
 30
0.0
 11
3428.4450547278720478
 21
171.7986704739608967
 31
0.0
  0
LINE
  5
BAD7
  8
0
 10
3428.4230074837719258
 20
171.8050757138609015
 30
0.0
 11
3428.4230074837719258
 21
171.7840787748612001
 31
0.0
  0
LINE
  5
BAD8
  8
0
 10
3428.429482222983097
 20
171.8386545416574052
 30
0.0
 11
3428.4499759876721328
 21
171.8318679389608974
 31
0.0
  0
LINE
  5
BAD9
  8
0
 10
3428.4499759876721328
 20
171.8318679389608974
 30
0.0
 11
3428.4704697524721269
 21
171.838654541660901
 31
0.0
  0
LINE
  5
BADA
  8
0
 10
3428.4769444916728389
 20
171.8186489191608928
 30
0.0
 11
3428.4530701376729667
 21
171.8107428191609074
 31
0.0
  0
ARC
  5
BADB
  8
0
 10
3428.4517255375349123
 20
171.8156944402539068
 30
0.0
 40
0.0051309356827061
 50
250.0633672519292929
 51
285.1921815497087778
  0
ARC
  5
BADC
  8
0
 10
3428.4482385387677823
 20
171.8155546957291051
 30
0.0
 40
0.0049955715132474
 50
252.9055096665771032
 51
290.3526791601906893
  0
LINE
  5
BADD
  8
0
 10
3428.4467700984491785
 20
171.8107798221419102
 30
0.0
 11
3428.4230074837719258
 21
171.8186489191608928
 31
0.0
  0
LINE
  5
BADE
  8
0
 10
3428.4279287435720107
 20
171.8254626990608926
 30
0.0
 11
3428.4499759876721328
 21
171.8181616547608996
 31
0.0
  0
LINE
  5
BADF
  8
0
 10
3428.4499759876721328
 20
171.8181616547608996
 30
0.0
 11
3428.4720232317731643
 21
171.8254626990608926
 31
0.0
  0
LINE
  5
BAE0
  8
0
 10
3428.4499759876721328
 20
171.8318679389608974
 30
0.0
 11
3428.4499759876721328
 21
171.810870999961196
 31
0.0
  0
LINE
  5
BAE1
  8
0
 10
3428.4499759877730867
 20
171.8454411442608887
 30
0.0
 11
3428.4261016337718502
 21
171.8375350442609033
 31
0.0
  0
ARC
  5
BAE2
  8
0
 10
3428.4247570336337958
 20
171.8424866653539027
 30
0.0
 40
0.0051309356827061
 50
250.0633672519292929
 51
285.1921815497087778
  0
ARC
  5
BAE3
  8
0
 10
3428.4212700348671206
 20
171.842346920829101
 30
0.0
 40
0.0049955715132474
 50
252.9055096665771032
 51
290.3526791601906893
  0
LINE
  5
BAE4
  8
0
 10
3428.4198015945489715
 20
171.8375720472419061
 30
0.0
 11
3428.3965196268559339
 21
171.8452819758446992
 31
0.0
  0
LINE
  5
BAE5
  8
0
 10
3428.4084744626829888
 20
171.8497665553279035
 30
0.0
 11
3428.4230074837719258
 21
171.8449538798608955
 31
0.0
  0
LINE
  5
BAE6
  8
0
 10
3428.4230074837719258
 20
171.8449538798608955
 30
0.0
 11
3428.4450547278720478
 21
171.8522549241608885
 31
0.0
  0
LINE
  5
BAE7
  8
0
 10
3428.4230074837719258
 20
171.8543742314608949
 30
0.0
 11
3428.4230074837719258
 21
171.837663225061192
 31
0.0
  0
LINE
  5
BAE8
  8
0
 10
3428.4834192308831007
 20
171.7850700914574134
 30
0.0
 11
3428.5039129955730459
 21
171.7782834887609056
 31
0.0
  0
LINE
  5
BAE9
  8
0
 10
3428.5039129955730459
 20
171.7782834887609056
 30
0.0
 11
3428.52440676037304
 21
171.7850700914609092
 31
0.0
  0
LINE
  5
BAEA
  8
0
 10
3428.5308814995719331
 20
171.765064468960901
 30
0.0
 11
3428.5070071455729703
 21
171.7571583689608872
 31
0.0
  0
ARC
  5
BAEB
  8
0
 10
3428.505662545434916
 20
171.7621099900538866
 30
0.0
 40
0.0051309356827061
 50
250.0633672519292929
 51
285.1921815497087778
  0
ARC
  5
BAEC
  8
0
 10
3428.5021755466668765
 20
171.7619702455291133
 30
0.0
 40
0.0049955715132474
 50
252.9055096665771032
 51
290.3526791601906893
  0
LINE
  5
BAED
  8
0
 10
3428.5007071063491821
 20
171.75719537194189
 30
0.0
 11
3428.4769444916728389
 21
171.765064468960901
 31
0.0
  0
LINE
  5
BAEE
  8
0
 10
3428.4818657514729239
 20
171.7718782488609008
 30
0.0
 11
3428.5039129955730459
 21
171.7645772045609078
 31
0.0
  0
LINE
  5
BAEF
  8
0
 10
3428.5039129955730459
 20
171.7645772045609078
 30
0.0
 11
3428.5308814994718887
 21
171.7735079462347869
 31
0.0
  0
LINE
  5
BAF0
  8
0
 10
3428.5039129955730459
 20
171.7782834887609056
 30
0.0
 11
3428.5039129955730459
 21
171.7572865497612042
 31
0.0
  0
LINE
  5
BAF1
  8
0
 10
3428.40251371908289
 20
171.758277866357389
 30
0.0
 11
3428.4230074837719258
 21
171.7514912636609097
 31
0.0
  0
LINE
  5
BAF2
  8
0
 10
3428.4230074837719258
 20
171.7514912636609097
 30
0.0
 11
3428.4435012485719199
 21
171.7582778663609133
 31
0.0
  0
LINE
  5
BAF3
  8
0
 10
3428.4499759877730867
 20
171.7382722438609051
 30
0.0
 11
3428.4261016337718502
 21
171.7303661438608913
 31
0.0
  0
ARC
  5
BAF4
  8
0
 10
3428.4247570336337958
 20
171.7353177649538907
 30
0.0
 40
0.0051309356827061
 50
250.0633672519292929
 51
285.1921815497087778
  0
ARC
  5
BAF5
  8
0
 10
3428.4212700348671206
 20
171.735178020429089
 30
0.0
 40
0.0049955715132474
 50
252.9055096665771032
 51
290.3526791601906893
  0
LINE
  5
BAF6
  8
0
 10
3428.4198015945489715
 20
171.7304031468418941
 30
0.0
 11
3428.396038979873083
 21
171.7382722438609051
 31
0.0
  0
LINE
  5
BAF7
  8
0
 10
3428.400960239673168
 20
171.7450860237609049
 30
0.0
 11
3428.4230074837719258
 21
171.7377849794609119
 31
0.0
  0
LINE
  5
BAF8
  8
0
 10
3428.4230074837719258
 20
171.7377849794609119
 30
0.0
 11
3428.4450547278720478
 21
171.7450860237609049
 31
0.0
  0
LINE
  5
BAF9
  8
0
 10
3428.4230074837719258
 20
171.7514912636609097
 30
0.0
 11
3428.4230074837719258
 21
171.7304943246612083
 31
0.0
  0
LINE
  5
BAFA
  8
0
 10
3428.5103877347828529
 20
171.6511089658573894
 30
0.0
 11
3428.5308814994718887
 21
171.6443223631609101
 31
0.0
  0
ARC
  5
BAFB
  8
0
 10
3428.529144050567993
 20
171.6280091199290894
 30
0.0
 40
0.0049955715132474
 50
252.9055096665771032
 51
290.3526791601906893
  0
LINE
  5
BAFC
  8
0
 10
3428.5276756102489344
 20
171.6232342463418945
 30
0.0
 11
3428.5039129955730459
 21
171.6311033433609055
 31
0.0
  0
LINE
  5
BAFD
  8
0
 10
3428.5088342553731309
 20
171.6379171232609053
 30
0.0
 11
3428.5308814994718887
 21
171.6306160789609123
 31
0.0
  0
LINE
  5
BAFE
  8
0
 10
3428.5308814994718887
 20
171.6443223631609101
 30
0.0
 11
3428.5308814994718887
 21
171.6233254241612087
 31
0.0
  0
LINE
  5
BAFF
  8
0
 10
3428.5103877347828529
 20
171.7046934161573972
 30
0.0
 11
3428.5308814994718887
 21
171.6979068134608895
 31
0.0
  0
ARC
  5
BB00
  8
0
 10
3428.529144050567993
 20
171.6815935702290972
 30
0.0
 40
0.0049955715132474
 50
252.9055096665771032
 51
290.3526791601906893
  0
LINE
  5
BB01
  8
0
 10
3428.5276756102489344
 20
171.6768186966419023
 30
0.0
 11
3428.5039129955730459
 21
171.6846877936609133
 31
0.0
  0
LINE
  5
BB02
  8
0
 10
3428.5088342553731309
 20
171.6915015735609131
 30
0.0
 11
3428.5308814994718887
 21
171.6842005292608917
 31
0.0
  0
LINE
  5
BB03
  8
0
 10
3428.5308814994718887
 20
171.6979068134608895
 30
0.0
 11
3428.5308814994718887
 21
171.6769098744611028
 31
0.0
  0
LINE
  5
BB04
  8
0
 10
3428.4834192308831007
 20
171.7314856412573931
 30
0.0
 11
3428.5039129955730459
 21
171.7246990385609138
 31
0.0
  0
LINE
  5
BB05
  8
0
 10
3428.5039129955730459
 20
171.7246990385609138
 30
0.0
 11
3428.52440676037304
 21
171.731485641260889
 31
0.0
  0
LINE
  5
BB06
  8
0
 10
3428.5308814995719331
 20
171.7114800187609092
 30
0.0
 11
3428.5070071455729703
 21
171.7035739187608954
 31
0.0
  0
ARC
  5
BB07
  8
0
 10
3428.505662545434916
 20
171.7085255398538948
 30
0.0
 40
0.0051309356827061
 50
250.0633672519292929
 51
285.1921815497087778
  0
ARC
  5
BB08
  8
0
 10
3428.5021755466668765
 20
171.7083857953290931
 30
0.0
 40
0.0049955715132474
 50
252.9055096665771032
 51
290.3526791601906893
  0
LINE
  5
BB09
  8
0
 10
3428.5007071063491821
 20
171.7036109217418982
 30
0.0
 11
3428.4769444916728389
 21
171.7114800187609092
 31
0.0
  0
LINE
  5
BB0A
  8
0
 10
3428.4818657514729239
 20
171.718293798660909
 30
0.0
 11
3428.5039129955730459
 21
171.7109927543608876
 31
0.0
  0
LINE
  5
BB0B
  8
0
 10
3428.5039129955730459
 20
171.7109927543608876
 30
0.0
 11
3428.5259602396718037
 21
171.718293798660909
 31
0.0
  0
LINE
  5
BB0C
  8
0
 10
3428.5039129955730459
 20
171.7246990385609138
 30
0.0
 11
3428.5039129955730459
 21
171.7037020995612124
 31
0.0
  0
LINE
  5
BB0D
  8
0
 10
3428.5103877347828529
 20
171.8118623165574093
 30
0.0
 11
3428.5308814994718887
 21
171.8050757138609015
 31
0.0
  0
ARC
  5
BB0E
  8
0
 10
3428.529144050567993
 20
171.7887624706291092
 30
0.0
 40
0.0049955715132474
 50
252.9055096665771032
 51
290.3526791601906893
  0
LINE
  5
BB0F
  8
0
 10
3428.5276756102489344
 20
171.7839875970418859
 30
0.0
 11
3428.5039129955730459
 21
171.7918566940608969
 31
0.0
  0
LINE
  5
BB10
  8
0
 10
3428.5088342553731309
 20
171.7986704739608967
 30
0.0
 11
3428.5308814994718887
 21
171.7913694296609037
 31
0.0
  0
LINE
  5
BB11
  8
0
 10
3428.5308814994718887
 20
171.8050757138609015
 30
0.0
 11
3428.5308814994718887
 21
171.7840787748612001
 31
0.0
  0
LINE
  5
BB12
  8
0
 10
3428.5103781738980615
 20
171.8654499328877989
 30
0.0
 11
3428.5308814994718887
 21
171.8586601640608933
 31
0.0
  0
ARC
  5
BB13
  8
0
 10
3428.529144050567993
 20
171.842346920829101
 30
0.0
 40
0.0049955715132474
 50
252.9055096665771032
 51
290.3526791601906893
  0
LINE
  5
BB14
  8
0
 10
3428.5276756102489344
 20
171.8375720472419061
 30
0.0
 11
3428.5039129955730459
 21
171.8454411442608887
 31
0.0
  0
LINE
  5
BB15
  8
0
 10
3428.5088342553731309
 20
171.8522549241608885
 30
0.0
 11
3428.5308814994718887
 21
171.8449538798608955
 31
0.0
  0
LINE
  5
BB16
  8
0
 10
3428.5308814994718887
 20
171.8586601640608933
 30
0.0
 11
3428.5308814994718887
 21
171.837663225061192
 31
0.0
  0
LINE
  5
BB17
  8
0
 10
3428.3421019718721254
 20
171.7918566940608969
 30
0.0
 11
3428.3182298370729768
 21
171.7839513806609091
 31
0.0
  0
ARC
  5
BB18
  8
0
 10
3428.3168504143291102
 20
171.7881169037729023
 30
0.0
 40
0.0043879824409238
 50
246.9655964394806063
 51
288.3224100083385224
  0
ARC
  5
BB19
  8
0
 10
3428.3133898669980226
 20
171.7887932153549002
 30
0.0
 40
0.0050265389214663
 50
254.1979388699411118
 51
290.2965413703680042
  0
LINE
  5
BB1A
  8
0
 10
3428.3151334679841966
 20
171.7840787748571074
 30
0.0
 11
3428.3151358353147771
 21
171.7882129579647881
 31
0.0
  0
LINE
  5
BB1B
  8
0
 10
3428.3371811894730854
 20
171.8113477167609062
 30
0.0
 11
3428.3390023511751679
 21
171.8107424491306858
 31
0.0
  0
ARC
  5
BB1C
  8
0
 10
3428.3403825918981056
 20
171.8148953914304116
 30
0.0
 40
0.0043762991440662
 50
251.6156443090708876
 51
293.1340991043858821
  0
ARC
  5
BB1D
  8
0
 10
3428.3438471615731942
 20
171.8155891905163912
 30
0.0
 40
0.005030607240343
 50
249.7013030229929029
 51
285.5542457785252282
  0
LINE
  5
BB1E
  8
0
 10
3428.3451961218729593
 20
171.8107428191609074
 30
0.0
 11
3428.3690704758728316
 21
171.8186489191608928
 31
0.0
  0
LINE
  5
BB1F
  8
0
 10
3428.364149215973157
 20
171.8254626990608926
 30
0.0
 11
3428.3487121702210061
 21
171.8201755620058861
 31
0.0
  0
LINE
  5
BB20
  8
0
 10
3428.3371807120720405
 20
171.7986704739608967
 30
0.0
 11
3428.3185139817292111
 21
171.7924889020173111
 31
0.0
  0
LINE
  5
BB21
  8
0
 10
3428.3151334679719184
 20
171.765064468960901
 30
0.0
 11
3428.2986468396161399
 21
171.7596700956607947
 31
0.0
  0
LINE
  5
BB22
  8
0
 10
3428.3102122080731533
 20
171.7718782488653915
 30
0.0
 11
3428.303062153573137
 21
171.7695104760609013
 31
0.0
  0
LINE
  5
BB23
  8
0
 10
3428.3014371710119121
 20
171.7338738479240021
 30
0.0
 11
3428.3033315389720883
 21
171.7297215182032062
 31
0.0
  0
LINE
  5
BB24
  8
0
 10
3428.3033315389720883
 20
171.7297215182032062
 30
0.0
 11
3428.3086587289631098
 21
171.7314856411908863
 31
0.0
  0
LINE
  5
BB25
  8
0
 10
3428.3033315389720883
 20
171.7297215182032062
 30
0.0
 11
3428.3033315389720883
 21
171.7160152340609045
 31
0.0
  0
ARC
  5
BB26
  8
0
 10
3428.3160800856580863
 20
171.7160152340609045
 30
0.0
 40
0.012748546685236
 50
180.0
 51
216.6450433223465097
  0
LINE
  5
BB27
  8
0
 10
3428.3058513083169601
 20
171.708406189659911
 30
0.0
 11
3428.3151334681238041
 21
171.711480018710887
 31
0.0
  0
LINE
  5
BB28
  8
0
 10
3428.3147885320749992
 20
171.7113657915836029
 30
0.0
 11
3428.3238923394728772
 21
171.7008073532608989
 31
0.0
  0
LINE
  5
BB29
  8
0
 10
3428.3238923394728772
 20
171.7008073532608989
 30
0.0
 11
3428.3356272328642262
 21
171.7046934160908904
 31
0.0
  0
LINE
  5
BB2A
  8
0
 10
3428.3238923394728772
 20
171.7008073532608989
 30
0.0
 11
3428.3238923394728772
 21
171.6871010690609012
 31
0.0
  0
LINE
  5
BB2B
  8
0
 10
3428.3238923394728772
 20
171.6871010690609012
 30
0.0
 11
3428.3371807120720405
 21
171.6915015735609131
 31
0.0
  0
ARC
  5
BB2C
  8
0
 10
3428.3300066701540345
 20
171.6862968919076025
 30
0.0
 40
0.0061669879659863
 50
172.5072745953272886
 51
254.5644852008680061
  0
LINE
  5
BB2D
  8
0
 10
3428.3283653037287877
 20
171.6803523434109024
 30
0.0
 11
3428.3421019720740333
 21
171.6846877936274041
 31
0.0
  0
LINE
  5
BB2E
  8
0
 10
3428.3420654926821953
 20
171.6846762803126012
 30
0.0
 11
3428.355268969673034
 21
171.675474898941701
 31
0.0
  0
LINE
  5
BB2F
  8
0
 10
3428.355268969673034
 20
171.675474898941701
 30
0.0
 11
3428.3625957368130912
 21
171.6779011910074075
 31
0.0
  0
LINE
  5
BB30
  8
0
 10
3428.3552689696539346
 20
171.6754748989546897
 30
0.0
 11
3428.355268969673034
 21
171.6617686147608879
 31
0.0
  0
ARC
  5
BB31
  8
0
 10
3428.3614434735209215
 20
171.6617686147693007
 30
0.0
 40
0.006174503847868
 50
180.0000000778771039
 51
270.8581742208630772
  0
LINE
  5
BB32
  8
0
 10
3428.3615359515702039
 20
171.6555948035008896
 30
0.0
 11
3428.3690704758728316
 21
171.6578955684609014
 31
0.0
  0
LINE
  5
BB33
  8
0
 10
3428.364149215973157
 20
171.6647093483609012
 30
0.0
 11
3428.355268969673034
 21
171.6617686147693007
 31
0.0
  0
LINE
  5
BB34
  8
0
 10
3428.4042981510970094
 20
171.6516986176006014
 30
0.0
 11
3428.4249900490221989
 21
171.6449788986734859
 31
0.0
  0
LINE
  5
BB35
  8
0
 10
3428.4249900490221989
 20
171.6449788986734859
 30
0.0
 11
3428.4435012484718754
 21
171.6511089658609137
 31
0.0
  0
LINE
  5
BB36
  8
0
 10
3428.4249900489730862
 20
171.6449788986892884
 30
0.0
 11
3428.4249900489730862
 21
171.6312726144608973
 31
0.0
  0
ARC
  5
BB37
  8
0
 10
3428.4320800321361276
 20
171.6327876199900118
 30
0.0
 40
0.0072500415865709
 50
192.0617102640183873
 51
283.53631460900192
  0
LINE
  5
BB38
  8
0
 10
3428.4337769885728449
 20
171.6257389717609101
 30
0.0
 11
3428.4499759876721328
 21
171.6311033433609055
 31
0.0
  0
LINE
  5
BB39
  8
0
 10
3428.4450547277729129
 20
171.6379171232609053
 30
0.0
 11
3428.4249900489730862
 21
171.6312726144608973
 31
0.0
  0
LINE
  5
BB3A
  8
0
 10
3428.3960389796720847
 20
171.6846877935942928
 30
0.0
 11
3428.4198015960209887
 21
171.6768186960213995
 31
0.0
  0
ARC
  5
BB3B
  8
0
 10
3428.4212789548819273
 20
171.6812799333494013
 30
0.0
 40
0.0046994922812683
 50
251.6774781645679013
 51
291.5807310828205914
  0
ARC
  5
BB3C
  8
0
 10
3428.4247528534328922
 20
171.6816388477384123
 30
0.0
 40
0.0050407840952435
 50
249.7419034069102111
 51
285.5461062561616927
  0
LINE
  5
BB3D
  8
0
 10
3428.4261038527729397
 20
171.676782480260897
 30
0.0
 11
3428.4499759876721328
 21
171.6846877936609133
 31
0.0
  0
LINE
  5
BB3E
  8
0
 10
3428.4720232317731643
 20
171.8381400999444963
 30
0.0
 11
3428.4720232317731643
 21
171.8254626990608926
 31
0.0
  0
ARC
  5
BB3F
  8
0
 10
3428.4792008352319499
 20
171.8254626990608926
 30
0.0
 40
0.0071776034592688
 50
179.9999999999967031
 51
251.7062399779318866
  0
LINE
  5
BB40
  8
0
 10
3428.4769478640728266
 20
171.818647854060913
 30
0.0
 11
3428.4989917356720071
 21
171.8113478748608998
 31
0.0
  0
LINE
  5
BB41
  8
0
 10
3428.4989917356720071
 20
171.8113478748608998
 30
0.0
 11
3428.5008188456718017
 21
171.8107428191609074
 31
0.0
  0
ARC
  5
BB42
  8
0
 10
3428.5021962632617942
 20
171.8149022601014053
 30
0.0
 40
0.0043815782716076
 50
251.6774786373914026
 51
293.0669727141964813
  0
ARC
  5
BB43
  8
0
 10
3428.5056551601760475
 20
171.8155161689298041
 30
0.0
 40
0.0049611220763639
 50
249.4415082991301063
 51
285.8140403493034114
  0
LINE
  5
BB44
  8
0
 10
3428.5070071454729259
 20
171.8107428191609074
 30
0.0
 11
3428.5308814994718887
 21
171.8186489191608928
 31
0.0
  0
LINE
  5
BB45
  8
0
 10
3428.5039129954220698
 20
171.7382722438109113
 30
0.0
 11
3428.5277947806471275
 21
171.7303660557915066
 31
0.0
  0
ARC
  5
BB46
  8
0
 10
3428.5291391856708287
 20
171.7352179203556091
 30
0.0
 40
0.0050346811831773
 50
254.5124588927936884
 51
290.246661474667178
  0
LINE
  5
BB47
  8
0
 10
3428.5259602396718037
 20
171.7309711994444967
 30
0.0
 11
3428.5259602396718037
 21
171.718293798660909
 31
0.0
  0
ARC
  5
BB48
  8
0
 10
3428.5328916749958807
 20
171.7193504961855126
 30
0.0
 40
0.0070115194717469
 50
188.6680034465697133
 51
253.3397386454545881
  0
LINE
  5
BB49
  8
0
 10
3428.5259602396718037
 20
171.6238022990445131
 30
0.0
 11
3428.5259602396718037
 21
171.6169259777609
 31
0.0
  0
ARC
  5
BB4A
  8
0
 10
3428.5305224235030437
 20
171.6174425891753117
 30
0.0
 40
0.0045913406165974
 50
186.460524751552299
 51
274.4855238988876067
  0
LINE
  5
BB4B
  8
0
 10
3428.4914032053497976
 20
171.8674444321518138
 30
0.0
 11
3428.4974382563459585
 21
171.8654467667520009
 31
0.0
  0
LINE
  5
BB4C
  8
0
 10
3428.4974382563459585
 20
171.8654467667520009
 30
0.0
 11
3428.4989917356720071
 21
171.8649323250608916
 31
0.0
  0
LINE
  5
BB4D
  8
0
 10
3428.4989917356720071
 20
171.8649323250608916
 30
0.0
 11
3428.5008133767960317
 21
171.8643268986618864
 31
0.0
  0
ARC
  5
BB4E
  8
0
 10
3428.5021742577691839
 20
171.8689378460562125
 30
0.0
 40
0.0048078146922643
 50
253.6395820960262881
 51
291.2014556948655013
  0
ARC
  5
BB4F
  8
0
 10
3428.5056584007588754
 20
171.8691754948704897
 30
0.0
 40
0.0050324210200825
 50
249.7063254243454082
 51
285.5178851170726944
  0
LINE
  5
BB50
  8
0
 10
3428.5070047704730314
 20
171.8643265207608977
 30
0.0
 11
3428.5218082916449021
 21
171.8692563951665875
 31
0.0
  0
LINE
  5
BB51
  8
0
 10
3428.6053122720618376
 20
171.8118623165574093
 30
0.0
 11
3428.5848185073728018
 21
171.8050757138609015
 31
0.0
  0
LINE
  5
BB52
  8
0
 10
3428.5848185073728018
 20
171.8050757138609015
 30
0.0
 11
3428.5643247425718982
 21
171.8118623165609051
 31
0.0
  0
LINE
  5
BB53
  8
0
 10
3428.5627712632731345
 20
171.8113478748608998
 30
0.0
 11
3428.5627712632731345
 21
171.7986704739608967
 31
0.0
  0
ARC
  5
BB54
  8
0
 10
3428.5558708906128231
 20
171.7996996713251008
 30
0.0
 40
0.0069767033797108
 50
286.4917356056861877
 51
351.5168149734851113
  0
ARC
  5
BB55
  8
0
 10
3428.5598321800439408
 20
171.7997033239279006
 30
0.0
 40
0.0069802732163097
 50
188.5091285692193992
 51
253.5149053017466088
  0
LINE
  5
BB56
  8
0
 10
3428.5529287435729202
 20
171.7986704739608967
 30
0.0
 11
3428.5529287435729202
 21
171.8113478748445004
 31
0.0
  0
LINE
  5
BB57
  8
0
 10
3428.5578514165231354
 20
171.7930099846979886
 30
0.0
 11
3428.5578500033730052
 21
171.7918566940608969
 31
0.0
  0
LINE
  5
BB58
  8
0
 10
3428.5578500033730052
 20
171.7918566940608969
 30
0.0
 11
3428.5817243573728774
 21
171.7839505940609115
 31
0.0
  0
ARC
  5
BB59
  8
0
 10
3428.5830689575109318
 20
171.7889022151539109
 30
0.0
 40
0.0051309356827061
 50
254.8078184502911938
 51
289.9366327480706786
  0
ARC
  5
BB5A
  8
0
 10
3428.5865559562780618
 20
171.7887624706291092
 30
0.0
 40
0.0049955715132474
 50
249.6473208398093107
 51
287.0944903334229252
  0
LINE
  5
BB5B
  8
0
 10
3428.5880243965962109
 20
171.7839875970418859
 30
0.0
 11
3428.6117870112730088
 21
171.7918566940608969
 31
0.0
  0
LINE
  5
BB5C
  8
0
 10
3428.6068657514720144
 20
171.7986704739608967
 30
0.0
 11
3428.5848185073728018
 21
171.7913694296609037
 31
0.0
  0
LINE
  5
BB5D
  8
0
 10
3428.5848185073728018
 20
171.7913694296609037
 30
0.0
 11
3428.5627712632731345
 21
171.7986704739608967
 31
0.0
  0
LINE
  5
BB5E
  8
0
 10
3428.5848185073728018
 20
171.8050757138609015
 30
0.0
 11
3428.5848185073728018
 21
171.7840787748612001
 31
0.0
  0
LINE
  5
BB5F
  8
0
 10
3428.6167082711731382
 20
171.8113478748608998
 30
0.0
 11
3428.6167082711731382
 21
171.7986704739608967
 31
0.0
  0
ARC
  5
BB60
  8
0
 10
3428.609807898514191
 20
171.7996996713251008
 30
0.0
 40
0.0069767033797108
 50
286.4917356056861877
 51
351.5168149734851113
  0
ARC
  5
BB61
  8
0
 10
3428.6137691879448539
 20
171.7997033239279006
 30
0.0
 40
0.0069802732163097
 50
188.5091285692193992
 51
253.5149053017466088
  0
LINE
  5
BB62
  8
0
 10
3428.6068657514720144
 20
171.7986704739608967
 30
0.0
 11
3428.6068657514720144
 21
171.8113478748445004
 31
0.0
  0
LINE
  5
BB63
  8
0
 10
3428.6117884244240486
 20
171.7930099846979886
 30
0.0
 11
3428.6117870112730088
 21
171.7918566940608969
 31
0.0
  0
LINE
  5
BB64
  8
0
 10
3428.6053122720618376
 20
171.758277866357389
 30
0.0
 11
3428.5848185073728018
 21
171.7514912636609097
 31
0.0
  0
LINE
  5
BB65
  8
0
 10
3428.5848185073728018
 20
171.7514912636609097
 30
0.0
 11
3428.5643247425718982
 21
171.7582778663609133
 31
0.0
  0
LINE
  5
BB66
  8
0
 10
3428.5627712632731345
 20
171.757763424660908
 30
0.0
 11
3428.5627712632731345
 21
171.7450860237609049
 31
0.0
  0
ARC
  5
BB67
  8
0
 10
3428.5558708906128231
 20
171.7461152211251942
 30
0.0
 40
0.0069767033797108
 50
286.4917356056861877
 51
351.5168149734851113
  0
ARC
  5
BB68
  8
0
 10
3428.5598321800439408
 20
171.7461188737279087
 30
0.0
 40
0.0069802732163097
 50
188.5091285692193992
 51
253.5149053017466088
  0
LINE
  5
BB69
  8
0
 10
3428.5529287435729202
 20
171.7450860237609049
 30
0.0
 11
3428.5529287435729202
 21
171.7577634246445086
 31
0.0
  0
LINE
  5
BB6A
  8
0
 10
3428.5578514165231354
 20
171.7394255344979968
 30
0.0
 11
3428.5578500033730052
 21
171.7382722438609051
 31
0.0
  0
LINE
  5
BB6B
  8
0
 10
3428.5578500033730052
 20
171.7382722438609051
 30
0.0
 11
3428.5817243573728774
 21
171.7303661438608913
 31
0.0
  0
ARC
  5
BB6C
  8
0
 10
3428.5830689575109318
 20
171.7353177649538907
 30
0.0
 40
0.0051309356827061
 50
254.8078184502911938
 51
289.9366327480706786
  0
ARC
  5
BB6D
  8
0
 10
3428.5865559562780618
 20
171.735178020429089
 30
0.0
 40
0.0049955715132474
 50
249.6473208398093107
 51
287.0944903334229252
  0
LINE
  5
BB6E
  8
0
 10
3428.5880243965962109
 20
171.7304031468418941
 30
0.0
 11
3428.6117870112730088
 21
171.7382722438609051
 31
0.0
  0
LINE
  5
BB6F
  8
0
 10
3428.6068657514720144
 20
171.7450860237609049
 30
0.0
 11
3428.5848185073728018
 21
171.7377849794609119
 31
0.0
  0
LINE
  5
BB70
  8
0
 10
3428.5848185073728018
 20
171.7377849794609119
 30
0.0
 11
3428.5627712632731345
 21
171.7450860237609049
 31
0.0
  0
LINE
  5
BB71
  8
0
 10
3428.5848185073728018
 20
171.7514912636609097
 30
0.0
 11
3428.5848185073728018
 21
171.7304943246612083
 31
0.0
  0
LINE
  5
BB72
  8
0
 10
3428.6167082711731382
 20
171.757763424660908
 30
0.0
 11
3428.6167082711731382
 21
171.7450860237609049
 31
0.0
  0
ARC
  5
BB73
  8
0
 10
3428.609807898514191
 20
171.7461152211251942
 30
0.0
 40
0.0069767033797108
 50
286.4917356056861877
 51
351.5168149734851113
  0
ARC
  5
BB74
  8
0
 10
3428.6137691879448539
 20
171.7461188737279087
 30
0.0
 40
0.0069802732163097
 50
188.5091285692193992
 51
253.5149053017466088
  0
LINE
  5
BB75
  8
0
 10
3428.6068657514720144
 20
171.7450860237609049
 30
0.0
 11
3428.6068657514720144
 21
171.7577634246445086
 31
0.0
  0
LINE
  5
BB76
  8
0
 10
3428.6117884244240486
 20
171.7394255344979968
 30
0.0
 11
3428.6117870112730088
 21
171.7382722438609051
 31
0.0
  0
LINE
  5
BB77
  8
0
 10
3428.6322807759629541
 20
171.7850700914574134
 30
0.0
 11
3428.6117870112730088
 21
171.7782834887609056
 31
0.0
  0
LINE
  5
BB78
  8
0
 10
3428.6117870112730088
 20
171.7782834887609056
 30
0.0
 11
3428.5912932464730147
 21
171.7850700914609092
 31
0.0
  0
LINE
  5
BB79
  8
0
 10
3428.5897397671719773
 20
171.7845556497609039
 30
0.0
 11
3428.5897397671719773
 21
171.7718782488609008
 31
0.0
  0
ARC
  5
BB7A
  8
0
 10
3428.5828393945139396
 20
171.7729074462251901
 30
0.0
 40
0.0069767033797108
 50
286.4917356056861877
 51
351.5168149734851113
  0
ARC
  5
BB7B
  8
0
 10
3428.5868006839450572
 20
171.7729110988279047
 30
0.0
 40
0.0069802732163097
 50
188.5091285692193992
 51
253.5149053017466088
  0
LINE
  5
BB7C
  8
0
 10
3428.5798972474731272
 20
171.7718782488609008
 30
0.0
 11
3428.5798972474731272
 21
171.7845556497445045
 31
0.0
  0
LINE
  5
BB7D
  8
0
 10
3428.5848199204228877
 20
171.7662177595979927
 30
0.0
 11
3428.5848185072718479
 21
171.765064468960901
 31
0.0
  0
LINE
  5
BB7E
  8
0
 10
3428.5848185072718479
 20
171.765064468960901
 30
0.0
 11
3428.6086928612730844
 21
171.7571583689608872
 31
0.0
  0
ARC
  5
BB7F
  8
0
 10
3428.6100374614111388
 20
171.7621099900538866
 30
0.0
 40
0.0051309356827061
 50
254.8078184502911938
 51
289.9366327480706786
  0
ARC
  5
BB80
  8
0
 10
3428.6135244601769045
 20
171.7619702455291133
 30
0.0
 40
0.0049955715132474
 50
249.6473208398093107
 51
287.0944903334229252
  0
LINE
  5
BB81
  8
0
 10
3428.6149929004959631
 20
171.75719537194189
 30
0.0
 11
3428.6387555151732158
 21
171.765064468960901
 31
0.0
  0
LINE
  5
BB82
  8
0
 10
3428.6338342553731309
 20
171.7718782488609008
 30
0.0
 11
3428.6117870112730088
 21
171.7645772045609078
 31
0.0
  0
LINE
  5
BB83
  8
0
 10
3428.6117870112730088
 20
171.7645772045609078
 30
0.0
 11
3428.5897397671719773
 21
171.7718782488609008
 31
0.0
  0
LINE
  5
BB84
  8
0
 10
3428.6117870112730088
 20
171.7782834887609056
 30
0.0
 11
3428.6117870112730088
 21
171.7572865497612042
 31
0.0
  0
LINE
  5
BB85
  8
0
 10
3428.643676775071981
 20
171.7845556497609039
 30
0.0
 11
3428.643676775071981
 21
171.7718782488609008
 31
0.0
  0
ARC
  5
BB86
  8
0
 10
3428.6367764024130338
 20
171.7729074462251901
 30
0.0
 40
0.0069767033797108
 50
286.4917356056861877
 51
351.5168149734851113
  0
ARC
  5
BB87
  8
0
 10
3428.6407376918441514
 20
171.7729110988279047
 30
0.0
 40
0.0069802732163097
 50
188.5091285692193992
 51
253.5149053017466088
  0
LINE
  5
BB88
  8
0
 10
3428.6338342553731309
 20
171.7718782488609008
 30
0.0
 11
3428.6338342553731309
 21
171.7845556497445045
 31
0.0
  0
LINE
  5
BB89
  8
0
 10
3428.6387569283228913
 20
171.7662177595979927
 30
0.0
 11
3428.6387555151732158
 21
171.765064468960901
 31
0.0
  0
LINE
  5
BB8A
  8
0
 10
3428.7131862877618005
 20
171.8118623165574093
 30
0.0
 11
3428.6926925230718552
 21
171.8050757138609015
 31
0.0
  0
LINE
  5
BB8B
  8
0
 10
3428.6926925230718552
 20
171.8050757138609015
 30
0.0
 11
3428.6721987582732254
 21
171.8118623165609051
 31
0.0
  0
LINE
  5
BB8C
  8
0
 10
3428.6706452789730974
 20
171.8113478748608998
 30
0.0
 11
3428.6706452789730974
 21
171.7986704739608967
 31
0.0
  0
ARC
  5
BB8D
  8
0
 10
3428.6637449063141503
 20
171.7996996713251008
 30
0.0
 40
0.0069767033797108
 50
286.4917356056861877
 51
351.5168149734851113
  0
ARC
  5
BB8E
  8
0
 10
3428.6677061957439037
 20
171.7997033239279006
 30
0.0
 40
0.0069802732163097
 50
188.5091285692193992
 51
253.5149053017466088
  0
LINE
  5
BB8F
  8
0
 10
3428.6608027592728831
 20
171.7986704739608967
 30
0.0
 11
3428.6608027592728831
 21
171.8113478748445004
 31
0.0
  0
LINE
  5
BB90
  8
0
 10
3428.6657254322230983
 20
171.7930099846979886
 30
0.0
 11
3428.6657240190729681
 21
171.7918566940608969
 31
0.0
  0
LINE
  5
BB91
  8
0
 10
3428.6657240190729681
 20
171.7918566940608969
 30
0.0
 11
3428.6895983730719308
 21
171.7839505940609115
 31
0.0
  0
ARC
  5
BB92
  8
0
 10
3428.6909429732108947
 20
171.7889022151539109
 30
0.0
 40
0.0051309356827061
 50
254.8078184502911938
 51
289.9366327480706786
  0
ARC
  5
BB93
  8
0
 10
3428.6944299719780247
 20
171.7887624706291092
 30
0.0
 40
0.0049955715132474
 50
249.6473208398093107
 51
287.0944903334229252
  0
LINE
  5
BB94
  8
0
 10
3428.6958984122961738
 20
171.7839875970418859
 30
0.0
 11
3428.7196610269729717
 21
171.7918566940608969
 31
0.0
  0
LINE
  5
BB95
  8
0
 10
3428.7147397671728868
 20
171.7986704739608967
 30
0.0
 11
3428.6926925230718552
 21
171.7913694296609037
 31
0.0
  0
LINE
  5
BB96
  8
0
 10
3428.6926925230718552
 20
171.7913694296609037
 30
0.0
 11
3428.6706452789730974
 21
171.7986704739608967
 31
0.0
  0
LINE
  5
BB97
  8
0
 10
3428.6926925230718552
 20
171.8050757138609015
 30
0.0
 11
3428.6926925230718552
 21
171.7840787748612001
 31
0.0
  0
LINE
  5
BB98
  8
0
 10
3428.7245822868731011
 20
171.8113998783132104
 30
0.0
 11
3428.7245822868731011
 21
171.7986704739608967
 31
0.0
  0
ARC
  5
BB99
  8
0
 10
3428.7176819142127897
 20
171.7996996713251008
 30
0.0
 40
0.0069767033797108
 50
286.4917356056861877
 51
351.5168149734851113
  0
ARC
  5
BB9A
  8
0
 10
3428.7216432036439073
 20
171.7997033239279006
 30
0.0
 40
0.0069802732163097
 50
188.5091285692193992
 51
253.5149053017466088
  0
LINE
  5
BB9B
  8
0
 10
3428.7147397671728868
 20
171.7986704739608967
 30
0.0
 11
3428.7147397671728868
 21
171.8113478748445004
 31
0.0
  0
LINE
  5
BB9C
  8
0
 10
3428.719662440123102
 20
171.7930099846979886
 30
0.0
 11
3428.7196610269729717
 21
171.7918566940608969
 31
0.0
  0
LINE
  5
BB9D
  8
0
 10
3428.682750236262109
 20
171.8375062476152948
 30
0.0
 11
3428.6657240191730125
 21
171.8318679389608974
 31
0.0
  0
LINE
  5
BB9E
  8
0
 10
3428.6657240191730125
 20
171.8318679389608974
 30
0.0
 11
3428.6452302543730184
 21
171.838654541660901
 31
0.0
  0
LINE
  5
BB9F
  8
0
 10
3428.643676775071981
 20
171.8381400999608957
 30
0.0
 11
3428.643676775071981
 21
171.8254626990608926
 31
0.0
  0
ARC
  5
BBA0
  8
0
 10
3428.6367764024130338
 20
171.8264918964250967
 30
0.0
 40
0.0069767033797108
 50
286.4917356056861877
 51
351.5168149734851113
  0
ARC
  5
BBA1
  8
0
 10
3428.6407376918441514
 20
171.8264955490278965
 30
0.0
 40
0.0069802732163097
 50
188.5091285692193992
 51
253.5149053017466088
  0
LINE
  5
BBA2
  8
0
 10
3428.6338342553731309
 20
171.8254626990608926
 30
0.0
 11
3428.6338342553731309
 21
171.8381400999444963
 31
0.0
  0
LINE
  5
BBA3
  8
0
 10
3428.6387569283228913
 20
171.8198022097980129
 30
0.0
 11
3428.6387555151732158
 21
171.8186489191608928
 31
0.0
  0
LINE
  5
BBA4
  8
0
 10
3428.6387555151732158
 20
171.8186489191608928
 30
0.0
 11
3428.6626298691730881
 21
171.8107428191609074
 31
0.0
  0
ARC
  5
BBA5
  8
0
 10
3428.6639744693111425
 20
171.8156944402539068
 30
0.0
 40
0.0051309356827061
 50
254.8078184502911938
 51
289.9366327480706786
  0
ARC
  5
BBA6
  8
0
 10
3428.6674614680778177
 20
171.8155546957291051
 30
0.0
 40
0.0049955715132474
 50
249.6473208398093107
 51
287.0944903334229252
  0
LINE
  5
BBA7
  8
0
 10
3428.6689299083959668
 20
171.8107798221419102
 30
0.0
 11
3428.6926925230718552
 21
171.8186489191608928
 31
0.0
  0
LINE
  5
BBA8
  8
0
 10
3428.6877712632731345
 20
171.8254626990608926
 30
0.0
 11
3428.6657240191730125
 21
171.8181616547608996
 31
0.0
  0
LINE
  5
BBA9
  8
0
 10
3428.6657240191730125
 20
171.8181616547608996
 30
0.0
 11
3428.643676775071981
 21
171.8254626990608926
 31
0.0
  0
LINE
  5
BBAA
  8
0
 10
3428.6657240191730125
 20
171.8318679389608974
 30
0.0
 11
3428.6657240191730125
 21
171.810870999961196
 31
0.0
  0
LINE
  5
BBAB
  8
0
 10
3428.6976137829719846
 20
171.8296821506654908
 30
0.0
 11
3428.6976137829719846
 21
171.8254626990608926
 31
0.0
  0
ARC
  5
BBAC
  8
0
 10
3428.690713410313947
 20
171.8264918964250967
 30
0.0
 40
0.0069767033797108
 50
286.4917356056861877
 51
351.5168149734851113
  0
ARC
  5
BBAD
  8
0
 10
3428.6946746997450646
 20
171.8264955490278965
 30
0.0
 40
0.0069802732163097
 50
188.5091285692193992
 51
253.5149053017466088
  0
LINE
  5
BBAE
  8
0
 10
3428.6877712632731345
 20
171.8254626990608926
 30
0.0
 11
3428.6877712632731345
 21
171.8349945485257138
 31
0.0
  0
LINE
  5
BBAF
  8
0
 10
3428.692693936222895
 20
171.8198022097980129
 30
0.0
 11
3428.6926925230718552
 21
171.8186489191608928
 31
0.0
  0
LINE
  5
BBB0
  8
0
 10
3428.7401547917620519
 20
171.7850700914574134
 30
0.0
 11
3428.7196610270730162
 21
171.7782834887609056
 31
0.0
  0
LINE
  5
BBB1
  8
0
 10
3428.7196610270730162
 20
171.7782834887609056
 30
0.0
 11
3428.6991672622730221
 21
171.7850700914609092
 31
0.0
  0
LINE
  5
BBB2
  8
0
 10
3428.6976137829719846
 20
171.7845556497609039
 30
0.0
 11
3428.6976137829719846
 21
171.7718782488609008
 31
0.0
  0
ARC
  5
BBB3
  8
0
 10
3428.690713410313947
 20
171.7729074462251901
 30
0.0
 40
0.0069767033797108
 50
286.4917356056861877
 51
351.5168149734851113
  0
ARC
  5
BBB4
  8
0
 10
3428.6946746997450646
 20
171.7729110988279047
 30
0.0
 40
0.0069802732163097
 50
188.5091285692193992
 51
253.5149053017466088
  0
LINE
  5
BBB5
  8
0
 10
3428.6877712632731345
 20
171.7718782488609008
 30
0.0
 11
3428.6877712632731345
 21
171.7845556497445045
 31
0.0
  0
LINE
  5
BBB6
  8
0
 10
3428.692693936222895
 20
171.7662177595979927
 30
0.0
 11
3428.6926925230718552
 21
171.765064468960901
 31
0.0
  0
LINE
  5
BBB7
  8
0
 10
3428.6926925230718552
 20
171.765064468960901
 30
0.0
 11
3428.7165668770730917
 21
171.7571583689608872
 31
0.0
  0
ARC
  5
BBB8
  8
0
 10
3428.7179114772111461
 20
171.7621099900538866
 30
0.0
 40
0.0051309356827061
 50
254.8078184502911938
 51
289.9366327480706786
  0
ARC
  5
BBB9
  8
0
 10
3428.7213984759769119
 20
171.7619702455291133
 30
0.0
 40
0.0049955715132474
 50
249.6473208398093107
 51
287.0944903334229252
  0
LINE
  5
BBBA
  8
0
 10
3428.7228669162968799
 20
171.75719537194189
 30
0.0
 11
3428.7466295309732232
 21
171.765064468960901
 31
0.0
  0
LINE
  5
BBBB
  8
0
 10
3428.7417082711731382
 20
171.7718782488609008
 30
0.0
 11
3428.7196610270730162
 21
171.7645772045609078
 31
0.0
  0
LINE
  5
BBBC
  8
0
 10
3428.7196610270730162
 20
171.7645772045609078
 30
0.0
 11
3428.6976137829719846
 21
171.7718782488609008
 31
0.0
  0
LINE
  5
BBBD
  8
0
 10
3428.7196610270730162
 20
171.7782834887609056
 30
0.0
 11
3428.7196610270730162
 21
171.7572865497612042
 31
0.0
  0
LINE
  5
BBBE
  8
0
 10
3428.7515507908728978
 20
171.7813275171187115
 30
0.0
 11
3428.7515507908728978
 21
171.7718782488609008
 31
0.0
  0
ARC
  5
BBBF
  8
0
 10
3428.7446504182130411
 20
171.7729074462251901
 30
0.0
 40
0.0069767033797108
 50
286.4917356056861877
 51
351.5168149734851113
  0
ARC
  5
BBC0
  8
0
 10
3428.7486117076441587
 20
171.7729110988279047
 30
0.0
 40
0.0069802732163097
 50
188.5091285692193992
 51
253.5149053017466088
  0
LINE
  5
BBC1
  8
0
 10
3428.7417082711731382
 20
171.7718782488609008
 30
0.0
 11
3428.7417082711731382
 21
171.7845556497445045
 31
0.0
  0
LINE
  5
BBC2
  8
0
 10
3428.7466309441228987
 20
171.7662177595979927
 30
0.0
 11
3428.7466295309732232
 21
171.765064468960901
 31
0.0
  0
LINE
  5
BBC3
  8
0
 10
3428.7131862877618005
 20
171.758277866357389
 30
0.0
 11
3428.6926925230718552
 21
171.7514912636609097
 31
0.0
  0
LINE
  5
BBC4
  8
0
 10
3428.6926925230718552
 20
171.7514912636609097
 30
0.0
 11
3428.6721987582732254
 21
171.7582778663609133
 31
0.0
  0
LINE
  5
BBC5
  8
0
 10
3428.6706452789730974
 20
171.757763424660908
 30
0.0
 11
3428.6706452789730974
 21
171.7450860237609049
 31
0.0
  0
ARC
  5
BBC6
  8
0
 10
3428.6637449063141503
 20
171.7461152211251942
 30
0.0
 40
0.0069767033797108
 50
286.4917356056861877
 51
351.5168149734851113
  0
ARC
  5
BBC7
  8
0
 10
3428.6677061957439037
 20
171.7461188737279087
 30
0.0
 40
0.0069802732163097
 50
188.5091285692193992
 51
253.5149053017466088
  0
LINE
  5
BBC8
  8
0
 10
3428.6608027592728831
 20
171.7450860237609049
 30
0.0
 11
3428.6608027592728831
 21
171.7577634246445086
 31
0.0
  0
LINE
  5
BBC9
  8
0
 10
3428.6657254322230983
 20
171.7394255344979968
 30
0.0
 11
3428.6657240190729681
 21
171.7382722438609051
 31
0.0
  0
LINE
  5
BBCA
  8
0
 10
3428.6657240190729681
 20
171.7382722438609051
 30
0.0
 11
3428.6895983730719308
 21
171.7303661438608913
 31
0.0
  0
ARC
  5
BBCB
  8
0
 10
3428.6909429732108947
 20
171.7353177649538907
 30
0.0
 40
0.0051309356827061
 50
254.8078184502911938
 51
289.9366327480706786
  0
ARC
  5
BBCC
  8
0
 10
3428.6944299719780247
 20
171.735178020429089
 30
0.0
 40
0.0049955715132474
 50
249.6473208398093107
 51
287.0944903334229252
  0
LINE
  5
BBCD
  8
0
 10
3428.6958984122961738
 20
171.7304031468418941
 30
0.0
 11
3428.7196610269729717
 21
171.7382722438609051
 31
0.0
  0
LINE
  5
BBCE
  8
0
 10
3428.7147397671728868
 20
171.7450860237609049
 30
0.0
 11
3428.6926925230718552
 21
171.7377849794609119
 31
0.0
  0
LINE
  5
BBCF
  8
0
 10
3428.6926925230718552
 20
171.7377849794609119
 30
0.0
 11
3428.6706452789730974
 21
171.7450860237609049
 31
0.0
  0
LINE
  5
BBD0
  8
0
 10
3428.6926925230718552
 20
171.7514912636609097
 30
0.0
 11
3428.6926925230718552
 21
171.7304943246612083
 31
0.0
  0
LINE
  5
BBD1
  8
0
 10
3428.7245822868731011
 20
171.757763424660908
 30
0.0
 11
3428.7245822868731011
 21
171.7450860237609049
 31
0.0
  0
ARC
  5
BBD2
  8
0
 10
3428.7176819142127897
 20
171.7461152211251942
 30
0.0
 40
0.0069767033797108
 50
286.4917356056861877
 51
351.5168149734851113
  0
ARC
  5
BBD3
  8
0
 10
3428.7216432036439073
 20
171.7461188737279087
 30
0.0
 40
0.0069802732163097
 50
188.5091285692193992
 51
253.5149053017466088
  0
LINE
  5
BBD4
  8
0
 10
3428.7147397671728868
 20
171.7450860237609049
 30
0.0
 11
3428.7147397671728868
 21
171.7577634246445086
 31
0.0
  0
LINE
  5
BBD5
  8
0
 10
3428.719662440123102
 20
171.7394255344979968
 30
0.0
 11
3428.7196610269729717
 21
171.7382722438609051
 31
0.0
  0
LINE
  5
BBD6
  8
0
 10
3428.7401547917620519
 20
171.7314856412573931
 30
0.0
 11
3428.7196610270730162
 21
171.7246990385609138
 31
0.0
  0
LINE
  5
BBD7
  8
0
 10
3428.7196610270730162
 20
171.7246990385609138
 30
0.0
 11
3428.6991672622730221
 21
171.731485641260889
 31
0.0
  0
LINE
  5
BBD8
  8
0
 10
3428.6976137829719846
 20
171.7309711995609121
 30
0.0
 11
3428.6976137829719846
 21
171.718293798660909
 31
0.0
  0
ARC
  5
BBD9
  8
0
 10
3428.690713410313947
 20
171.7193229960251983
 30
0.0
 40
0.0069767033797108
 50
286.4917356056861877
 51
351.5168149734851113
  0
ARC
  5
BBDA
  8
0
 10
3428.6946746997450646
 20
171.7193266486279128
 30
0.0
 40
0.0069802732163097
 50
188.5091285692193992
 51
253.5149053017466088
  0
LINE
  5
BBDB
  8
0
 10
3428.6877712632731345
 20
171.718293798660909
 30
0.0
 11
3428.6877712632731345
 21
171.7309711995445127
 31
0.0
  0
LINE
  5
BBDC
  8
0
 10
3428.692693936222895
 20
171.7126333093980008
 30
0.0
 11
3428.6926925230718552
 21
171.7114800187609092
 31
0.0
  0
LINE
  5
BBDD
  8
0
 10
3428.6926925230718552
 20
171.7114800187609092
 30
0.0
 11
3428.7165668770730917
 21
171.7035739187608954
 31
0.0
  0
ARC
  5
BBDE
  8
0
 10
3428.7179114772111461
 20
171.7085255398538948
 30
0.0
 40
0.0051309356827061
 50
254.8078184502911938
 51
289.9366327480706786
  0
ARC
  5
BBDF
  8
0
 10
3428.7213984759769119
 20
171.7083857953290931
 30
0.0
 40
0.0049955715132474
 50
249.6473208398093107
 51
287.0944903334229252
  0
LINE
  5
BBE0
  8
0
 10
3428.7228669162968799
 20
171.7036109217418982
 30
0.0
 11
3428.7466295309732232
 21
171.7114800187609092
 31
0.0
  0
LINE
  5
BBE1
  8
0
 10
3428.7417082711731382
 20
171.718293798660909
 30
0.0
 11
3428.7196610270730162
 21
171.7109927543608876
 31
0.0
  0
LINE
  5
BBE2
  8
0
 10
3428.7196610270730162
 20
171.7109927543608876
 30
0.0
 11
3428.6976137829719846
 21
171.718293798660909
 31
0.0
  0
LINE
  5
BBE3
  8
0
 10
3428.7196610270730162
 20
171.7246990385609138
 30
0.0
 11
3428.7196610270730162
 21
171.7037020995612124
 31
0.0
  0
LINE
  5
BBE4
  8
0
 10
3428.7515507908728978
 20
171.7309711995609121
 30
0.0
 11
3428.7515507908728978
 21
171.718293798660909
 31
0.0
  0
ARC
  5
BBE5
  8
0
 10
3428.7446504182130411
 20
171.7193229960251983
 30
0.0
 40
0.0069767033797108
 50
286.4917356056861877
 51
351.5168149734851113
  0
ARC
  5
BBE6
  8
0
 10
3428.7486117076441587
 20
171.7193266486279128
 30
0.0
 40
0.0069802732163097
 50
188.5091285692193992
 51
253.5149053017466088
  0
LINE
  5
BBE7
  8
0
 10
3428.7417082711731382
 20
171.718293798660909
 30
0.0
 11
3428.7417082711731382
 21
171.7309711995445127
 31
0.0
  0
LINE
  5
BBE8
  8
0
 10
3428.7466309441228987
 20
171.7126333093980008
 30
0.0
 11
3428.7466295309732232
 21
171.7114800187609092
 31
0.0
  0
LINE
  5
BBE9
  8
0
 10
3428.6322807759629541
 20
171.7314856412573931
 30
0.0
 11
3428.6117870112730088
 21
171.7246990385609138
 31
0.0
  0
LINE
  5
BBEA
  8
0
 10
3428.6117870112730088
 20
171.7246990385609138
 30
0.0
 11
3428.5912932464730147
 21
171.731485641260889
 31
0.0
  0
LINE
  5
BBEB
  8
0
 10
3428.5897397671719773
 20
171.7309711995609121
 30
0.0
 11
3428.5897397671719773
 21
171.718293798660909
 31
0.0
  0
ARC
  5
BBEC
  8
0
 10
3428.5828393945139396
 20
171.7193229960251983
 30
0.0
 40
0.0069767033797108
 50
286.4917356056861877
 51
351.5168149734851113
  0
ARC
  5
BBED
  8
0
 10
3428.5868006839450572
 20
171.7193266486279128
 30
0.0
 40
0.0069802732163097
 50
188.5091285692193992
 51
253.5149053017466088
  0
LINE
  5
BBEE
  8
0
 10
3428.5798972474731272
 20
171.718293798660909
 30
0.0
 11
3428.5798972474731272
 21
171.7309711995445127
 31
0.0
  0
LINE
  5
BBEF
  8
0
 10
3428.5848199204228877
 20
171.7126333093980008
 30
0.0
 11
3428.5848185072718479
 21
171.7114800187609092
 31
0.0
  0
LINE
  5
BBF0
  8
0
 10
3428.5848185072718479
 20
171.7114800187609092
 30
0.0
 11
3428.6086928612730844
 21
171.7035739187608954
 31
0.0
  0
ARC
  5
BBF1
  8
0
 10
3428.6100374614111388
 20
171.7085255398538948
 30
0.0
 40
0.0051309356827061
 50
254.8078184502911938
 51
289.9366327480706786
  0
ARC
  5
BBF2
  8
0
 10
3428.6135244601769045
 20
171.7083857953290931
 30
0.0
 40
0.0049955715132474
 50
249.6473208398093107
 51
287.0944903334229252
  0
LINE
  5
BBF3
  8
0
 10
3428.6149929004959631
 20
171.7036109217418982
 30
0.0
 11
3428.6387555151732158
 21
171.7114800187609092
 31
0.0
  0
LINE
  5
BBF4
  8
0
 10
3428.6338342553731309
 20
171.718293798660909
 30
0.0
 11
3428.6117870112730088
 21
171.7109927543608876
 31
0.0
  0
LINE
  5
BBF5
  8
0
 10
3428.6117870112730088
 20
171.7109927543608876
 30
0.0
 11
3428.5897397671719773
 21
171.718293798660909
 31
0.0
  0
LINE
  5
BBF6
  8
0
 10
3428.6117870112730088
 20
171.7246990385609138
 30
0.0
 11
3428.6117870112730088
 21
171.7037020995612124
 31
0.0
  0
LINE
  5
BBF7
  8
0
 10
3428.643676775071981
 20
171.7309711995609121
 30
0.0
 11
3428.643676775071981
 21
171.718293798660909
 31
0.0
  0
ARC
  5
BBF8
  8
0
 10
3428.6367764024130338
 20
171.7193229960251983
 30
0.0
 40
0.0069767033797108
 50
286.4917356056861877
 51
351.5168149734851113
  0
ARC
  5
BBF9
  8
0
 10
3428.6407376918441514
 20
171.7193266486279128
 30
0.0
 40
0.0069802732163097
 50
188.5091285692193992
 51
253.5149053017466088
  0
LINE
  5
BBFA
  8
0
 10
3428.6338342553731309
 20
171.718293798660909
 30
0.0
 11
3428.6338342553731309
 21
171.7309711995445127
 31
0.0
  0
LINE
  5
BBFB
  8
0
 10
3428.6387569283228913
 20
171.7126333093980008
 30
0.0
 11
3428.6387555151732158
 21
171.7114800187609092
 31
0.0
  0
LINE
  5
BBFC
  8
0
 10
3428.6862177838620482
 20
171.6779011909574137
 30
0.0
 11
3428.6657240191730125
 21
171.671114588260906
 31
0.0
  0
LINE
  5
BBFD
  8
0
 10
3428.6657240191730125
 20
171.671114588260906
 30
0.0
 11
3428.6452302543730184
 21
171.6779011909609096
 31
0.0
  0
LINE
  5
BBFE
  8
0
 10
3428.643676775071981
 20
171.6773867492609043
 30
0.0
 11
3428.643676775071981
 21
171.6647093483609012
 31
0.0
  0
ARC
  5
BBFF
  8
0
 10
3428.6367764024130338
 20
171.6657385457251905
 30
0.0
 40
0.0069767033797108
 50
286.4917356056861877
 51
351.5168149734851113
  0
ARC
  5
BC00
  8
0
 10
3428.6407376918441514
 20
171.665742198327905
 30
0.0
 40
0.0069802732163097
 50
188.5091285692193992
 51
253.5149053017466088
  0
LINE
  5
BC01
  8
0
 10
3428.6338342553731309
 20
171.6647093483609012
 30
0.0
 11
3428.6338342553731309
 21
171.6773867971247114
 31
0.0
  0
LINE
  5
BC02
  8
0
 10
3428.6387569283228913
 20
171.659048859097993
 30
0.0
 11
3428.6387555151732158
 21
171.6578955684609014
 31
0.0
  0
LINE
  5
BC03
  8
0
 10
3428.6387555151732158
 20
171.6578955684609014
 30
0.0
 11
3428.6626298691730881
 21
171.6499894684608876
 31
0.0
  0
ARC
  5
BC04
  8
0
 10
3428.6639744693111425
 20
171.654941089553887
 30
0.0
 40
0.0051309356827061
 50
254.8078184502911938
 51
289.9366327480706786
  0
ARC
  5
BC05
  8
0
 10
3428.6674614680778177
 20
171.6548013450291137
 30
0.0
 40
0.0049955715132474
 50
249.6473208398093107
 51
287.0944903334229252
  0
LINE
  5
BC06
  8
0
 10
3428.6689299083959668
 20
171.6500264714418904
 30
0.0
 11
3428.6926925230718552
 21
171.6578955684609014
 31
0.0
  0
LINE
  5
BC07
  8
0
 10
3428.6877712632731345
 20
171.6647093483609012
 30
0.0
 11
3428.6657240191730125
 21
171.6574083040609082
 31
0.0
  0
LINE
  5
BC08
  8
0
 10
3428.6657240191730125
 20
171.6574083040609082
 30
0.0
 11
3428.643676775071981
 21
171.6647093483609012
 31
0.0
  0
LINE
  5
BC09
  8
0
 10
3428.6657240191730125
 20
171.671114588260906
 30
0.0
 11
3428.6657240191730125
 21
171.6501176492612046
 31
0.0
  0
LINE
  5
BC0A
  8
0
 10
3428.6976137829719846
 20
171.6773867492609043
 30
0.0
 11
3428.6976137829719846
 21
171.6647093483609012
 31
0.0
  0
ARC
  5
BC0B
  8
0
 10
3428.690713410313947
 20
171.6657385457251905
 30
0.0
 40
0.0069767033797108
 50
286.4917356056861877
 51
351.5168149734851113
  0
ARC
  5
BC0C
  8
0
 10
3428.6946746997450646
 20
171.665742198327905
 30
0.0
 40
0.0069802732163097
 50
188.5091285692193992
 51
253.5149053017466088
  0
LINE
  5
BC0D
  8
0
 10
3428.6877712632731345
 20
171.6647093483609012
 30
0.0
 11
3428.6877712632731345
 21
171.6773867492445049
 31
0.0
  0
LINE
  5
BC0E
  8
0
 10
3428.692693936222895
 20
171.659048859097993
 30
0.0
 11
3428.6926925230718552
 21
171.6578955684609014
 31
0.0
  0
LINE
  5
BC0F
  8
0
 10
3428.7131862877618005
 20
171.7046934161573972
 30
0.0
 11
3428.6926925230718552
 21
171.6979068134608895
 31
0.0
  0
LINE
  5
BC10
  8
0
 10
3428.6926925230718552
 20
171.6979068134608895
 30
0.0
 11
3428.6721987582732254
 21
171.7046934161608931
 31
0.0
  0
LINE
  5
BC11
  8
0
 10
3428.6706452789730974
 20
171.7041789744608877
 30
0.0
 11
3428.6706452789730974
 21
171.6915015735609131
 31
0.0
  0
ARC
  5
BC12
  8
0
 10
3428.6637449063141503
 20
171.6925307709250887
 30
0.0
 40
0.0069767033797108
 50
286.4917356056861877
 51
351.5168149734851113
  0
ARC
  5
BC13
  8
0
 10
3428.6677061957439037
 20
171.6925344235278885
 30
0.0
 40
0.0069802732163097
 50
188.5091285692193992
 51
253.5149053017466088
  0
LINE
  5
BC14
  8
0
 10
3428.6608027592728831
 20
171.6915015735609131
 30
0.0
 11
3428.6608027592728831
 21
171.7041789744444884
 31
0.0
  0
LINE
  5
BC15
  8
0
 10
3428.6657254322230983
 20
171.6858410842980049
 30
0.0
 11
3428.6657240190729681
 21
171.6846877936609133
 31
0.0
  0
LINE
  5
BC16
  8
0
 10
3428.6657240190729681
 20
171.6846877936609133
 30
0.0
 11
3428.6895983730719308
 21
171.6767816936608995
 31
0.0
  0
ARC
  5
BC17
  8
0
 10
3428.6909429732108947
 20
171.6817333147538989
 30
0.0
 40
0.0051309356827061
 50
254.8078184502911938
 51
289.9366327480706786
  0
ARC
  5
BC18
  8
0
 10
3428.6944299719780247
 20
171.6815935702290972
 30
0.0
 40
0.0049955715132474
 50
249.6473208398093107
 51
287.0944903334229252
  0
LINE
  5
BC19
  8
0
 10
3428.6958984122961738
 20
171.6768186966419023
 30
0.0
 11
3428.7196610269729717
 21
171.6846877936609133
 31
0.0
  0
LINE
  5
BC1A
  8
0
 10
3428.7147397671728868
 20
171.6915015735609131
 30
0.0
 11
3428.6926925230718552
 21
171.6842005292608917
 31
0.0
  0
LINE
  5
BC1B
  8
0
 10
3428.6926925230718552
 20
171.6842005292608917
 30
0.0
 11
3428.6706452789730974
 21
171.6915015735609131
 31
0.0
  0
LINE
  5
BC1C
  8
0
 10
3428.6926925230718552
 20
171.6979068134608895
 30
0.0
 11
3428.6926925230718552
 21
171.6769098744611028
 31
0.0
  0
LINE
  5
BC1D
  8
0
 10
3428.7245822868731011
 20
171.7041789744608877
 30
0.0
 11
3428.7245822868731011
 21
171.6915015735609131
 31
0.0
  0
ARC
  5
BC1E
  8
0
 10
3428.7176819142127897
 20
171.6925307709250887
 30
0.0
 40
0.0069767033797108
 50
286.4917356056861877
 51
351.5168149734851113
  0
ARC
  5
BC1F
  8
0
 10
3428.7216432036439073
 20
171.6925344235278885
 30
0.0
 40
0.0069802732163097
 50
188.5091285692193992
 51
253.5149053017466088
  0
LINE
  5
BC20
  8
0
 10
3428.7147397671728868
 20
171.6915015735609131
 30
0.0
 11
3428.7147397671728868
 21
171.7041789744444884
 31
0.0
  0
LINE
  5
BC21
  8
0
 10
3428.719662440123102
 20
171.6858410842980049
 30
0.0
 11
3428.7196610269729717
 21
171.6846877936609133
 31
0.0
  0
LINE
  5
BC22
  8
0
 10
3428.6053122720618376
 20
171.6511089658573894
 30
0.0
 11
3428.5848185073728018
 21
171.6443223631609101
 31
0.0
  0
LINE
  5
BC23
  8
0
 10
3428.5848185073728018
 20
171.6443223631609101
 30
0.0
 11
3428.5643247425718982
 21
171.6511089658609137
 31
0.0
  0
LINE
  5
BC24
  8
0
 10
3428.5627712632731345
 20
171.6505945241609083
 30
0.0
 11
3428.5627712632731345
 21
171.6379171232609053
 31
0.0
  0
ARC
  5
BC25
  8
0
 10
3428.5558708906128231
 20
171.6389463206251946
 30
0.0
 40
0.0069767033797108
 50
286.4917356056861877
 51
351.5168149734851113
  0
ARC
  5
BC26
  8
0
 10
3428.5598321800439408
 20
171.6389499732279091
 30
0.0
 40
0.0069802732163097
 50
188.5091285692193992
 51
253.5149053017466088
  0
LINE
  5
BC27
  8
0
 10
3428.5529287435729202
 20
171.6379171232609053
 30
0.0
 11
3428.5529287435729202
 21
171.650594524144509
 31
0.0
  0
LINE
  5
BC28
  8
0
 10
3428.5578514165231354
 20
171.6322566339979971
 30
0.0
 11
3428.5578500033730052
 21
171.6311033433609055
 31
0.0
  0
LINE
  5
BC29
  8
0
 10
3428.5578500033730052
 20
171.6311033433609055
 30
0.0
 11
3428.5817243573728774
 21
171.6231972433608917
 31
0.0
  0
ARC
  5
BC2A
  8
0
 10
3428.5830689575109318
 20
171.6281488644538911
 30
0.0
 40
0.0051309356827061
 50
254.8078184502911938
 51
289.9366327480706786
  0
ARC
  5
BC2B
  8
0
 10
3428.5865559562780618
 20
171.6280091199290894
 30
0.0
 40
0.0049955715132474
 50
249.6473208398093107
 51
287.0944903334229252
  0
LINE
  5
BC2C
  8
0
 10
3428.5880243965962109
 20
171.6232342463418945
 30
0.0
 11
3428.6117870112730088
 21
171.6311033433609055
 31
0.0
  0
LINE
  5
BC2D
  8
0
 10
3428.6068657514720144
 20
171.6379171232609053
 30
0.0
 11
3428.5848185073728018
 21
171.6306160789609123
 31
0.0
  0
LINE
  5
BC2E
  8
0
 10
3428.5848185073728018
 20
171.6306160789609123
 30
0.0
 11
3428.5627712632731345
 21
171.6379171232609053
 31
0.0
  0
LINE
  5
BC2F
  8
0
 10
3428.5848185073728018
 20
171.6443223631609101
 30
0.0
 11
3428.5848185073728018
 21
171.6233254241612087
 31
0.0
  0
LINE
  5
BC30
  8
0
 10
3428.6167082711731382
 20
171.6505945241609083
 30
0.0
 11
3428.6167082711731382
 21
171.6379171232609053
 31
0.0
  0
ARC
  5
BC31
  8
0
 10
3428.609807898514191
 20
171.6389463206251946
 30
0.0
 40
0.0069767033797108
 50
286.4917356056861877
 51
351.5168149734851113
  0
ARC
  5
BC32
  8
0
 10
3428.6137691879448539
 20
171.6389499732279091
 30
0.0
 40
0.0069802732163097
 50
188.5091285692193992
 51
253.5149053017466088
  0
LINE
  5
BC33
  8
0
 10
3428.6068657514720144
 20
171.6379171232609053
 30
0.0
 11
3428.6068657514720144
 21
171.650594524144509
 31
0.0
  0
LINE
  5
BC34
  8
0
 10
3428.6117884244240486
 20
171.6322566339979971
 30
0.0
 11
3428.6117870112730088
 21
171.6311033433609055
 31
0.0
  0
LINE
  5
BC35
  8
0
 10
3428.6053122720618376
 20
171.7046934161573972
 30
0.0
 11
3428.5848185073728018
 21
171.6979068134608895
 31
0.0
  0
LINE
  5
BC36
  8
0
 10
3428.5848185073728018
 20
171.6979068134608895
 30
0.0
 11
3428.5643247425718982
 21
171.7046934161608931
 31
0.0
  0
LINE
  5
BC37
  8
0
 10
3428.5627712632731345
 20
171.7041789744608877
 30
0.0
 11
3428.5627712632731345
 21
171.6915015735609131
 31
0.0
  0
ARC
  5
BC38
  8
0
 10
3428.5558708906128231
 20
171.6925307709250887
 30
0.0
 40
0.0069767033797108
 50
286.4917356056861877
 51
351.5168149734851113
  0
ARC
  5
BC39
  8
0
 10
3428.5598321800439408
 20
171.6925344235278885
 30
0.0
 40
0.0069802732163097
 50
188.5091285692193992
 51
253.5149053017466088
  0
LINE
  5
BC3A
  8
0
 10
3428.5529287435729202
 20
171.6915015735609131
 30
0.0
 11
3428.5529287435729202
 21
171.7041789744444884
 31
0.0
  0
LINE
  5
BC3B
  8
0
 10
3428.5578514165231354
 20
171.6858410842980049
 30
0.0
 11
3428.5578500033730052
 21
171.6846877936609133
 31
0.0
  0
LINE
  5
BC3C
  8
0
 10
3428.5578500033730052
 20
171.6846877936609133
 30
0.0
 11
3428.5817243573728774
 21
171.6767816936608995
 31
0.0
  0
ARC
  5
BC3D
  8
0
 10
3428.5830689575109318
 20
171.6817333147538989
 30
0.0
 40
0.0051309356827061
 50
254.8078184502911938
 51
289.9366327480706786
  0
ARC
  5
BC3E
  8
0
 10
3428.5865559562780618
 20
171.6815935702290972
 30
0.0
 40
0.0049955715132474
 50
249.6473208398093107
 51
287.0944903334229252
  0
LINE
  5
BC3F
  8
0
 10
3428.5880243965962109
 20
171.6768186966419023
 30
0.0
 11
3428.6117870112730088
 21
171.6846877936609133
 31
0.0
  0
LINE
  5
BC40
  8
0
 10
3428.6068657514720144
 20
171.6915015735609131
 30
0.0
 11
3428.5848185073728018
 21
171.6842005292608917
 31
0.0
  0
LINE
  5
BC41
  8
0
 10
3428.5848185073728018
 20
171.6842005292608917
 30
0.0
 11
3428.5627712632731345
 21
171.6915015735609131
 31
0.0
  0
LINE
  5
BC42
  8
0
 10
3428.5848185073728018
 20
171.6979068134608895
 30
0.0
 11
3428.5848185073728018
 21
171.6769098744611028
 31
0.0
  0
LINE
  5
BC43
  8
0
 10
3428.6167082711731382
 20
171.7041789744608877
 30
0.0
 11
3428.6167082711731382
 21
171.6915015735609131
 31
0.0
  0
ARC
  5
BC44
  8
0
 10
3428.609807898514191
 20
171.6925307709250887
 30
0.0
 40
0.0069767033797108
 50
286.4917356056861877
 51
351.5168149734851113
  0
ARC
  5
BC45
  8
0
 10
3428.6137691879448539
 20
171.6925344235278885
 30
0.0
 40
0.0069802732163097
 50
188.5091285692193992
 51
253.5149053017466088
  0
LINE
  5
BC46
  8
0
 10
3428.6068657514720144
 20
171.6915015735609131
 30
0.0
 11
3428.6068657514720144
 21
171.7041789744444884
 31
0.0
  0
LINE
  5
BC47
  8
0
 10
3428.6117884244240486
 20
171.6858410842980049
 30
0.0
 11
3428.6117870112730088
 21
171.6846877936609133
 31
0.0
  0
LINE
  5
BC48
  8
0
 10
3428.5993241441110513
 20
171.8634637711527944
 30
0.0
 11
3428.5848185073728018
 21
171.8586601640608933
 31
0.0
  0
LINE
  5
BC49
  8
0
 10
3428.5848185073728018
 20
171.8586601640608933
 30
0.0
 11
3428.5643247425718982
 21
171.8654467667608969
 31
0.0
  0
LINE
  5
BC4A
  8
0
 10
3428.5627712632731345
 20
171.8649323250608916
 30
0.0
 11
3428.5627712632731345
 21
171.8522549241608885
 31
0.0
  0
ARC
  5
BC4B
  8
0
 10
3428.5558708906128231
 20
171.8532841215252063
 30
0.0
 40
0.0069767033797108
 50
286.4917356056861877
 51
351.5168149734851113
  0
ARC
  5
BC4C
  8
0
 10
3428.5598321800439408
 20
171.8532877741278924
 30
0.0
 40
0.0069802732163097
 50
188.5091285692193992
 51
253.5149053017466088
  0
LINE
  5
BC4D
  8
0
 10
3428.5529287435729202
 20
171.8522549241608885
 30
0.0
 11
3428.5529287435729202
 21
171.8649357765372088
 31
0.0
  0
LINE
  5
BC4E
  8
0
 10
3428.5578514165231354
 20
171.8465944348980088
 30
0.0
 11
3428.5578500033730052
 21
171.8454411442608887
 31
0.0
  0
LINE
  5
BC4F
  8
0
 10
3428.5578500033730052
 20
171.8454411442608887
 30
0.0
 11
3428.5817243573728774
 21
171.8375350442609033
 31
0.0
  0
ARC
  5
BC50
  8
0
 10
3428.5830689575109318
 20
171.8424866653539027
 30
0.0
 40
0.0051309356827061
 50
254.8078184502911938
 51
289.9366327480706786
  0
ARC
  5
BC51
  8
0
 10
3428.5865559562780618
 20
171.842346920829101
 30
0.0
 40
0.0049955715132474
 50
249.6473208398093107
 51
287.0944903334229252
  0
LINE
  5
BC52
  8
0
 10
3428.5880243965962109
 20
171.8375720472419061
 30
0.0
 11
3428.6117870112730088
 21
171.8454411442608887
 31
0.0
  0
LINE
  5
BC53
  8
0
 10
3428.6068657514720144
 20
171.8522549241608885
 30
0.0
 11
3428.5848185073728018
 21
171.8449538798608955
 31
0.0
  0
LINE
  5
BC54
  8
0
 10
3428.5848185073728018
 20
171.8449538798608955
 30
0.0
 11
3428.5627712632731345
 21
171.8522549241608885
 31
0.0
  0
LINE
  5
BC55
  8
0
 10
3428.5848185073728018
 20
171.8586601640608933
 30
0.0
 11
3428.5848185073728018
 21
171.837663225061192
 31
0.0
  0
LINE
  5
BC56
  8
0
 10
3428.6167082711731382
 20
171.8599905904416971
 30
0.0
 11
3428.6167082711731382
 21
171.8522549241608885
 31
0.0
  0
ARC
  5
BC57
  8
0
 10
3428.609807898514191
 20
171.8532841215252063
 30
0.0
 40
0.0069767033797108
 50
286.4917356056861877
 51
351.5168149734851113
  0
ARC
  5
BC58
  8
0
 10
3428.6137691879448539
 20
171.8532877741278924
 30
0.0
 40
0.0069802732163097
 50
188.5091285692193992
 51
253.5149053017466088
  0
LINE
  5
BC59
  8
0
 10
3428.6068657514720144
 20
171.8522549241608885
 30
0.0
 11
3428.6068657514720144
 21
171.8620585632648954
 31
0.0
  0
LINE
  5
BC5A
  8
0
 10
3428.6117884244240486
 20
171.8465944348980088
 30
0.0
 11
3428.6117870112730088
 21
171.8454411442608887
 31
0.0
  0
LINE
  5
BC5B
  8
0
 10
3428.5783437680620409
 20
171.6779011909574137
 30
0.0
 11
3428.5578500033730052
 21
171.671114588260906
 31
0.0
  0
LINE
  5
BC5C
  8
0
 10
3428.5578500033730052
 20
171.671114588260906
 30
0.0
 11
3428.5373562385730111
 21
171.6779011909609096
 31
0.0
  0
LINE
  5
BC5D
  8
0
 10
3428.5358027592728831
 20
171.6773867492609043
 30
0.0
 11
3428.5358027592728831
 21
171.6647093483609012
 31
0.0
  0
ARC
  5
BC5E
  8
0
 10
3428.5289023866130265
 20
171.6657385457251905
 30
0.0
 40
0.0069767033797108
 50
286.4796334995393181
 51
351.5168149734851113
  0
LINE
  5
BC5F
  8
0
 10
3428.5308814993732085
 20
171.6578955684609014
 30
0.0
 11
3428.5547558533730808
 21
171.6499894684608876
 31
0.0
  0
ARC
  5
BC60
  8
0
 10
3428.5561004535111351
 20
171.654941089553887
 30
0.0
 40
0.0051309356827061
 50
254.8078184502911938
 51
289.9366327480706786
  0
ARC
  5
BC61
  8
0
 10
3428.5595874522778104
 20
171.6548013450291137
 30
0.0
 40
0.0049955715132474
 50
249.6473208398093107
 51
287.0944903334229252
  0
LINE
  5
BC62
  8
0
 10
3428.5610558925959594
 20
171.6500264714418904
 30
0.0
 11
3428.5848185072718479
 21
171.6578955684609014
 31
0.0
  0
LINE
  5
BC63
  8
0
 10
3428.5798972474731272
 20
171.6647093483609012
 30
0.0
 11
3428.5578500033730052
 21
171.6574083040609082
 31
0.0
  0
LINE
  5
BC64
  8
0
 10
3428.5578500033730052
 20
171.6574083040609082
 30
0.0
 11
3428.5358027592728831
 21
171.6647093483609012
 31
0.0
  0
LINE
  5
BC65
  8
0
 10
3428.5578500033730052
 20
171.671114588260906
 30
0.0
 11
3428.5578500033730052
 21
171.6501176492612046
 31
0.0
  0
LINE
  5
BC66
  8
0
 10
3428.5897397671719773
 20
171.6773867492609043
 30
0.0
 11
3428.5897397671719773
 21
171.6647093483609012
 31
0.0
  0
ARC
  5
BC67
  8
0
 10
3428.5828393945139396
 20
171.6657385457251905
 30
0.0
 40
0.0069767033797108
 50
286.4917356056861877
 51
351.5168149734851113
  0
ARC
  5
BC68
  8
0
 10
3428.5868006839450572
 20
171.665742198327905
 30
0.0
 40
0.0069802732163097
 50
188.5091285692193992
 51
253.5149053017466088
  0
LINE
  5
BC69
  8
0
 10
3428.5798972474731272
 20
171.6647093483609012
 30
0.0
 11
3428.5798972474731272
 21
171.6773867492445049
 31
0.0
  0
LINE
  5
BC6A
  8
0
 10
3428.5848199204228877
 20
171.659048859097993
 30
0.0
 11
3428.5848185072718479
 21
171.6578955684609014
 31
0.0
  0
LINE
  5
BC6B
  8
0
 10
3428.6322807759629541
 20
171.6779011909574137
 30
0.0
 11
3428.6117870112730088
 21
171.671114588260906
 31
0.0
  0
LINE
  5
BC6C
  8
0
 10
3428.6117870112730088
 20
171.671114588260906
 30
0.0
 11
3428.5912932464730147
 21
171.6779011909609096
 31
0.0
  0
LINE
  5
BC6D
  8
0
 10
3428.5848185072718479
 20
171.6578955684609014
 30
0.0
 11
3428.6086928612730844
 21
171.6499894684608876
 31
0.0
  0
ARC
  5
BC6E
  8
0
 10
3428.6100374614111388
 20
171.654941089553887
 30
0.0
 40
0.0051309356827061
 50
254.8078184502911938
 51
289.9366327480706786
  0
ARC
  5
BC6F
  8
0
 10
3428.6135244601769045
 20
171.6548013450291137
 30
0.0
 40
0.0049955715132474
 50
249.6473208398093107
 51
287.0944903334229252
  0
LINE
  5
BC70
  8
0
 10
3428.6149929004959631
 20
171.6500264714418904
 30
0.0
 11
3428.6387555151732158
 21
171.6578955684609014
 31
0.0
  0
LINE
  5
BC71
  8
0
 10
3428.6338342553731309
 20
171.6647093483609012
 30
0.0
 11
3428.6117870112730088
 21
171.6574083040609082
 31
0.0
  0
LINE
  5
BC72
  8
0
 10
3428.6117870112730088
 20
171.6574083040609082
 30
0.0
 11
3428.5897397671719773
 21
171.6647093483609012
 31
0.0
  0
LINE
  5
BC73
  8
0
 10
3428.6117870112730088
 20
171.671114588260906
 30
0.0
 11
3428.6117870112730088
 21
171.6501176492612046
 31
0.0
  0
LINE
  5
BC74
  8
0
 10
3428.6862177838620482
 20
171.7314856412573931
 30
0.0
 11
3428.6657240191730125
 21
171.7246990385609138
 31
0.0
  0
LINE
  5
BC75
  8
0
 10
3428.6657240191730125
 20
171.7246990385609138
 30
0.0
 11
3428.6452302543730184
 21
171.731485641260889
 31
0.0
  0
LINE
  5
BC76
  8
0
 10
3428.6387555151732158
 20
171.7114800187609092
 30
0.0
 11
3428.6626298691730881
 21
171.7035739187608954
 31
0.0
  0
ARC
  5
BC77
  8
0
 10
3428.6639744693111425
 20
171.7085255398538948
 30
0.0
 40
0.0051309356827061
 50
254.8078184502911938
 51
289.9366327480706786
  0
ARC
  5
BC78
  8
0
 10
3428.6674614680778177
 20
171.7083857953290931
 30
0.0
 40
0.0049955715132474
 50
249.6473208398093107
 51
287.0944903334229252
  0
LINE
  5
BC79
  8
0
 10
3428.6689299083959668
 20
171.7036109217418982
 30
0.0
 11
3428.6926925230718552
 21
171.7114800187609092
 31
0.0
  0
LINE
  5
BC7A
  8
0
 10
3428.6877712632731345
 20
171.718293798660909
 30
0.0
 11
3428.6657240191730125
 21
171.7109927543608876
 31
0.0
  0
LINE
  5
BC7B
  8
0
 10
3428.6657240191730125
 20
171.7109927543608876
 30
0.0
 11
3428.643676775071981
 21
171.718293798660909
 31
0.0
  0
LINE
  5
BC7C
  8
0
 10
3428.6657240191730125
 20
171.7246990385609138
 30
0.0
 11
3428.6657240191730125
 21
171.7037020995612124
 31
0.0
  0
LINE
  5
BC7D
  8
0
 10
3428.7639502800921036
 20
171.7572271079268091
 30
0.0
 11
3428.7466295309732232
 21
171.7514912636609097
 31
0.0
  0
LINE
  5
BC7E
  8
0
 10
3428.7466295309732232
 20
171.7514912636609097
 30
0.0
 11
3428.7261357661727743
 21
171.7582778663609133
 31
0.0
  0
LINE
  5
BC7F
  8
0
 10
3428.7196610269729717
 20
171.7382722438609051
 30
0.0
 11
3428.743535380972844
 21
171.7303661438608913
 31
0.0
  0
ARC
  5
BC80
  8
0
 10
3428.7448799811099889
 20
171.7353177649538907
 30
0.0
 40
0.0051309356827061
 50
254.8078184502911938
 51
289.9366327480706786
  0
ARC
  5
BC81
  8
0
 10
3428.7483669798780284
 20
171.735178020429089
 30
0.0
 40
0.0049955715132474
 50
249.6473208398093107
 51
287.0944903334229252
  0
LINE
  5
BC82
  8
0
 10
3428.7498354201970869
 20
171.7304031468418941
 30
0.0
 11
3428.7674048251737986
 21
171.7362213345377029
 31
0.0
  0
LINE
  5
BC83
  8
0
 10
3428.766808277086966
 20
171.744467262227289
 30
0.0
 11
3428.7466295309732232
 21
171.7377849794609119
 31
0.0
  0
LINE
  5
BC84
  8
0
 10
3428.7466295309732232
 20
171.7377849794609119
 30
0.0
 11
3428.7245822868731011
 21
171.7450860237609049
 31
0.0
  0
LINE
  5
BC85
  8
0
 10
3428.7466295309732232
 20
171.7514912636609097
 30
0.0
 11
3428.7466295309732232
 21
171.7304943246612083
 31
0.0
  0
LINE
  5
BC86
  8
0
 10
3428.6862177838620482
 20
171.7850700914574134
 30
0.0
 11
3428.6657240191730125
 21
171.7782834887609056
 31
0.0
  0
LINE
  5
BC87
  8
0
 10
3428.6657240191730125
 20
171.7782834887609056
 30
0.0
 11
3428.6452302543730184
 21
171.7850700914609092
 31
0.0
  0
LINE
  5
BC88
  8
0
 10
3428.6387555151732158
 20
171.765064468960901
 30
0.0
 11
3428.6626298691730881
 21
171.7571583689608872
 31
0.0
  0
ARC
  5
BC89
  8
0
 10
3428.6639744693111425
 20
171.7621099900538866
 30
0.0
 40
0.0051309356827061
 50
254.8078184502911938
 51
289.9366327480706786
  0
ARC
  5
BC8A
  8
0
 10
3428.6674614680778177
 20
171.7619702455291133
 30
0.0
 40
0.0049955715132474
 50
249.6473208398093107
 51
287.0944903334229252
  0
LINE
  5
BC8B
  8
0
 10
3428.6689299083959668
 20
171.75719537194189
 30
0.0
 11
3428.6926925230718552
 21
171.765064468960901
 31
0.0
  0
LINE
  5
BC8C
  8
0
 10
3428.6877712632731345
 20
171.7718782488609008
 30
0.0
 11
3428.6657240191730125
 21
171.7645772045609078
 31
0.0
  0
LINE
  5
BC8D
  8
0
 10
3428.6657240191730125
 20
171.7645772045609078
 30
0.0
 11
3428.643676775071981
 21
171.7718782488609008
 31
0.0
  0
LINE
  5
BC8E
  8
0
 10
3428.6657240191730125
 20
171.7782834887609056
 30
0.0
 11
3428.6657240191730125
 21
171.7572865497612042
 31
0.0
  0
LINE
  5
BC8F
  8
0
 10
3428.6592492798631611
 20
171.8118623165574093
 30
0.0
 11
3428.6387555151732158
 21
171.8050757138609015
 31
0.0
  0
LINE
  5
BC90
  8
0
 10
3428.6387555151732158
 20
171.8050757138609015
 30
0.0
 11
3428.6182617503732217
 21
171.8118623165609051
 31
0.0
  0
LINE
  5
BC91
  8
0
 10
3428.6117870111729644
 20
171.7918566940608969
 30
0.0
 11
3428.6356613651728367
 21
171.7839505940609115
 31
0.0
  0
ARC
  5
BC92
  8
0
 10
3428.6370059653099815
 20
171.7889022151539109
 30
0.0
 40
0.0051309356827061
 50
254.8078184502911938
 51
289.9366327480706786
  0
ARC
  5
BC93
  8
0
 10
3428.640492964078021
 20
171.7887624706291092
 30
0.0
 40
0.0049955715132474
 50
249.6473208398093107
 51
287.0944903334229252
  0
LINE
  5
BC94
  8
0
 10
3428.6419614043970796
 20
171.7839875970418859
 30
0.0
 11
3428.6657240190729681
 21
171.7918566940608969
 31
0.0
  0
LINE
  5
BC95
  8
0
 10
3428.6608027592728831
 20
171.7986704739608967
 30
0.0
 11
3428.6387555151732158
 21
171.7913694296609037
 31
0.0
  0
LINE
  5
BC96
  8
0
 10
3428.6387555151732158
 20
171.7913694296609037
 30
0.0
 11
3428.6167082710730938
 21
171.7986704739608967
 31
0.0
  0
LINE
  5
BC97
  8
0
 10
3428.6387555151732158
 20
171.8050757138609015
 30
0.0
 11
3428.6387555151732158
 21
171.7840787748612001
 31
0.0
  0
LINE
  5
BC98
  8
0
 10
3428.6322807759629541
 20
171.8386545416574052
 30
0.0
 11
3428.6117870112730088
 21
171.8318679389608974
 31
0.0
  0
LINE
  5
BC99
  8
0
 10
3428.6117870112730088
 20
171.8318679389608974
 30
0.0
 11
3428.5912932464730147
 21
171.838654541660901
 31
0.0
  0
LINE
  5
BC9A
  8
0
 10
3428.5848185072718479
 20
171.8186489191608928
 30
0.0
 11
3428.6086928612730844
 21
171.8107428191609074
 31
0.0
  0
ARC
  5
BC9B
  8
0
 10
3428.6100374614111388
 20
171.8156944402539068
 30
0.0
 40
0.0051309356827061
 50
254.8078184502911938
 51
289.9366327480706786
  0
ARC
  5
BC9C
  8
0
 10
3428.6135244601769045
 20
171.8155546957291051
 30
0.0
 40
0.0049955715132474
 50
249.6473208398093107
 51
287.0944903334229252
  0
LINE
  5
BC9D
  8
0
 10
3428.6149929004959631
 20
171.8107798221419102
 30
0.0
 11
3428.6387555151732158
 21
171.8186489191608928
 31
0.0
  0
LINE
  5
BC9E
  8
0
 10
3428.6338342553731309
 20
171.8254626990608926
 30
0.0
 11
3428.6117870112730088
 21
171.8181616547608996
 31
0.0
  0
LINE
  5
BC9F
  8
0
 10
3428.6117870112730088
 20
171.8181616547608996
 30
0.0
 11
3428.5897397671719773
 21
171.8254626990608926
 31
0.0
  0
LINE
  5
BCA0
  8
0
 10
3428.6117870112730088
 20
171.8318679389608974
 30
0.0
 11
3428.6117870112730088
 21
171.810870999961196
 31
0.0
  0
LINE
  5
BCA1
  8
0
 10
3428.6117870111729644
 20
171.8454411442608887
 30
0.0
 11
3428.6356613651728367
 21
171.8375350442609033
 31
0.0
  0
ARC
  5
BCA2
  8
0
 10
3428.6370059653099815
 20
171.8424866653539027
 30
0.0
 40
0.0051309356827061
 50
254.8078184502911938
 51
289.9366327480706786
  0
ARC
  5
BCA3
  8
0
 10
3428.640492964078021
 20
171.842346920829101
 30
0.0
 40
0.0049955715132474
 50
249.6473208398093107
 51
287.0944903334229252
  0
LINE
  5
BCA4
  8
0
 10
3428.6419614043970796
 20
171.8375720472419061
 30
0.0
 11
3428.6652433720901172
 21
171.8452819758446992
 31
0.0
  0
LINE
  5
BCA5
  8
0
 10
3428.6532885362630623
 20
171.8497665553279035
 30
0.0
 11
3428.6387555151732158
 21
171.8449538798608955
 31
0.0
  0
LINE
  5
BCA6
  8
0
 10
3428.6387555151732158
 20
171.8449538798608955
 30
0.0
 11
3428.6167082710730938
 21
171.8522549241608885
 31
0.0
  0
LINE
  5
BCA7
  8
0
 10
3428.6387555151732158
 20
171.8543742314608949
 30
0.0
 11
3428.6387555151732158
 21
171.837663225061192
 31
0.0
  0
LINE
  5
BCA8
  8
0
 10
3428.5783437680620409
 20
171.7850700914574134
 30
0.0
 11
3428.5578500033730052
 21
171.7782834887609056
 31
0.0
  0
LINE
  5
BCA9
  8
0
 10
3428.5578500033730052
 20
171.7782834887609056
 30
0.0
 11
3428.5373562385730111
 21
171.7850700914609092
 31
0.0
  0
LINE
  5
BCAA
  8
0
 10
3428.5308814993732085
 20
171.765064468960901
 30
0.0
 11
3428.5547558533730808
 21
171.7571583689608872
 31
0.0
  0
ARC
  5
BCAB
  8
0
 10
3428.5561004535111351
 20
171.7621099900538866
 30
0.0
 40
0.0051309356827061
 50
254.8078184502911938
 51
289.9366327480706786
  0
ARC
  5
BCAC
  8
0
 10
3428.5595874522778104
 20
171.7619702455291133
 30
0.0
 40
0.0049955715132474
 50
249.6473208398093107
 51
287.0944903334229252
  0
LINE
  5
BCAD
  8
0
 10
3428.5610558925959594
 20
171.75719537194189
 30
0.0
 11
3428.5848185072718479
 21
171.765064468960901
 31
0.0
  0
LINE
  5
BCAE
  8
0
 10
3428.5798972474731272
 20
171.7718782488609008
 30
0.0
 11
3428.5578500033730052
 21
171.7645772045609078
 31
0.0
  0
LINE
  5
BCAF
  8
0
 10
3428.5578500033730052
 20
171.7645772045609078
 30
0.0
 11
3428.5308814994718887
 21
171.7735079462347869
 31
0.0
  0
LINE
  5
BCB0
  8
0
 10
3428.5578500033730052
 20
171.7782834887609056
 30
0.0
 11
3428.5578500033730052
 21
171.7572865497612042
 31
0.0
  0
LINE
  5
BCB1
  8
0
 10
3428.6592492798631611
 20
171.758277866357389
 30
0.0
 11
3428.6387555151732158
 21
171.7514912636609097
 31
0.0
  0
LINE
  5
BCB2
  8
0
 10
3428.6387555151732158
 20
171.7514912636609097
 30
0.0
 11
3428.6182617503732217
 21
171.7582778663609133
 31
0.0
  0
LINE
  5
BCB3
  8
0
 10
3428.6117870111729644
 20
171.7382722438609051
 30
0.0
 11
3428.6356613651728367
 21
171.7303661438608913
 31
0.0
  0
ARC
  5
BCB4
  8
0
 10
3428.6370059653099815
 20
171.7353177649538907
 30
0.0
 40
0.0051309356827061
 50
254.8078184502911938
 51
289.9366327480706786
  0
ARC
  5
BCB5
  8
0
 10
3428.640492964078021
 20
171.735178020429089
 30
0.0
 40
0.0049955715132474
 50
249.6473208398093107
 51
287.0944903334229252
  0
LINE
  5
BCB6
  8
0
 10
3428.6419614043970796
 20
171.7304031468418941
 30
0.0
 11
3428.6657240190729681
 21
171.7382722438609051
 31
0.0
  0
LINE
  5
BCB7
  8
0
 10
3428.6608027592728831
 20
171.7450860237609049
 30
0.0
 11
3428.6387555151732158
 21
171.7377849794609119
 31
0.0
  0
LINE
  5
BCB8
  8
0
 10
3428.6387555151732158
 20
171.7377849794609119
 30
0.0
 11
3428.6167082710730938
 21
171.7450860237609049
 31
0.0
  0
LINE
  5
BCB9
  8
0
 10
3428.6387555151732158
 20
171.7514912636609097
 30
0.0
 11
3428.6387555151732158
 21
171.7304943246612083
 31
0.0
  0
LINE
  5
BCBA
  8
0
 10
3428.5513752641618339
 20
171.6511089658573894
 30
0.0
 11
3428.5308814994718887
 21
171.6443223631609101
 31
0.0
  0
ARC
  5
BCBB
  8
0
 10
3428.5326189483780581
 20
171.6280091199290894
 30
0.0
 40
0.0049955715132474
 50
249.6473208398093107
 51
287.0944903334229252
  0
LINE
  5
BCBC
  8
0
 10
3428.5340873886971167
 20
171.6232342463418945
 30
0.0
 11
3428.5578500033730052
 21
171.6311033433609055
 31
0.0
  0
LINE
  5
BCBD
  8
0
 10
3428.5529287435729202
 20
171.6379171232609053
 30
0.0
 11
3428.5308814994718887
 21
171.6306160789609123
 31
0.0
  0
LINE
  5
BCBE
  8
0
 10
3428.5308814994718887
 20
171.6443223631609101
 30
0.0
 11
3428.5308814994718887
 21
171.6233254241612087
 31
0.0
  0
LINE
  5
BCBF
  8
0
 10
3428.5513752641618339
 20
171.7046934161573972
 30
0.0
 11
3428.5308814994718887
 21
171.6979068134608895
 31
0.0
  0
ARC
  5
BCC0
  8
0
 10
3428.5326189483780581
 20
171.6815935702290972
 30
0.0
 40
0.0049955715132474
 50
249.6473208398093107
 51
287.0944903334229252
  0
LINE
  5
BCC1
  8
0
 10
3428.5340873886971167
 20
171.6768186966419023
 30
0.0
 11
3428.5578500033730052
 21
171.6846877936609133
 31
0.0
  0
LINE
  5
BCC2
  8
0
 10
3428.5529287435729202
 20
171.6915015735609131
 30
0.0
 11
3428.5308814994718887
 21
171.6842005292608917
 31
0.0
  0
LINE
  5
BCC3
  8
0
 10
3428.5308814994718887
 20
171.6979068134608895
 30
0.0
 11
3428.5308814994718887
 21
171.6769098744611028
 31
0.0
  0
LINE
  5
BCC4
  8
0
 10
3428.5783437680620409
 20
171.7314856412573931
 30
0.0
 11
3428.5578500033730052
 21
171.7246990385609138
 31
0.0
  0
LINE
  5
BCC5
  8
0
 10
3428.5578500033730052
 20
171.7246990385609138
 30
0.0
 11
3428.5373562385730111
 21
171.731485641260889
 31
0.0
  0
LINE
  5
BCC6
  8
0
 10
3428.5308814993732085
 20
171.7114800187609092
 30
0.0
 11
3428.5547558533730808
 21
171.7035739187608954
 31
0.0
  0
ARC
  5
BCC7
  8
0
 10
3428.5561004535111351
 20
171.7085255398538948
 30
0.0
 40
0.0051309356827061
 50
254.8078184502911938
 51
289.9366327480706786
  0
ARC
  5
BCC8
  8
0
 10
3428.5595874522778104
 20
171.7083857953290931
 30
0.0
 40
0.0049955715132474
 50
249.6473208398093107
 51
287.0944903334229252
  0
LINE
  5
BCC9
  8
0
 10
3428.5610558925959594
 20
171.7036109217418982
 30
0.0
 11
3428.5848185072718479
 21
171.7114800187609092
 31
0.0
  0
LINE
  5
BCCA
  8
0
 10
3428.5798972474731272
 20
171.718293798660909
 30
0.0
 11
3428.5578500033730052
 21
171.7109927543608876
 31
0.0
  0
LINE
  5
BCCB
  8
0
 10
3428.5578500033730052
 20
171.7109927543608876
 30
0.0
 11
3428.5358027592728831
 21
171.718293798660909
 31
0.0
  0
LINE
  5
BCCC
  8
0
 10
3428.5578500033730052
 20
171.7246990385609138
 30
0.0
 11
3428.5578500033730052
 21
171.7037020995612124
 31
0.0
  0
LINE
  5
BCCD
  8
0
 10
3428.5513752641618339
 20
171.8118623165574093
 30
0.0
 11
3428.5308814994718887
 21
171.8050757138609015
 31
0.0
  0
ARC
  5
BCCE
  8
0
 10
3428.5326189483780581
 20
171.7887624706291092
 30
0.0
 40
0.0049955715132474
 50
249.6473208398093107
 51
287.0944903334229252
  0
LINE
  5
BCCF
  8
0
 10
3428.5340873886971167
 20
171.7839875970418859
 30
0.0
 11
3428.5578500033730052
 21
171.7918566940608969
 31
0.0
  0
LINE
  5
BCD0
  8
0
 10
3428.5529287435729202
 20
171.7986704739608967
 30
0.0
 11
3428.5308814994718887
 21
171.7913694296609037
 31
0.0
  0
LINE
  5
BCD1
  8
0
 10
3428.5308814994718887
 20
171.8050757138609015
 30
0.0
 11
3428.5308814994718887
 21
171.7840787748612001
 31
0.0
  0
LINE
  5
BCD2
  8
0
 10
3428.5513848250470801
 20
171.8654499328877989
 30
0.0
 11
3428.5308814994718887
 21
171.8586601640608933
 31
0.0
  0
ARC
  5
BCD3
  8
0
 10
3428.5326189483780581
 20
171.842346920829101
 30
0.0
 40
0.0049955715132474
 50
249.6473208398093107
 51
287.0944903334229252
  0
LINE
  5
BCD4
  8
0
 10
3428.5340873886971167
 20
171.8375720472419061
 30
0.0
 11
3428.5578500033730052
 21
171.8454411442608887
 31
0.0
  0
LINE
  5
BCD5
  8
0
 10
3428.5529287435729202
 20
171.8522549241608885
 30
0.0
 11
3428.5308814994718887
 21
171.8449538798608955
 31
0.0
  0
LINE
  5
BCD6
  8
0
 10
3428.5308814994718887
 20
171.8586601640608933
 30
0.0
 11
3428.5308814994718887
 21
171.837663225061192
 31
0.0
  0
LINE
  5
BCD7
  8
0
 10
3428.7196610270730162
 20
171.7918566940608969
 30
0.0
 11
3428.7435331618730743
 21
171.7839513806609091
 31
0.0
  0
ARC
  5
BCD8
  8
0
 10
3428.7449125846160314
 20
171.7881169037729023
 30
0.0
 40
0.0043879824409238
 50
251.677589991661506
 51
293.034403560519479
  0
ARC
  5
BCD9
  8
0
 10
3428.748373131947119
 20
171.7887932153549002
 30
0.0
 40
0.0050265389214663
 50
249.7034586296319958
 51
285.802061130058803
  0
LINE
  5
BCDA
  8
0
 10
3428.746629530960945
 20
171.7840787748571074
 30
0.0
 11
3428.7466271636308193
 21
171.7882129579647881
 31
0.0
  0
LINE
  5
BCDB
  8
0
 10
3428.7245818094720562
 20
171.8113477167609062
 30
0.0
 11
3428.7227606477699737
 21
171.8107424491306858
 31
0.0
  0
ARC
  5
BCDC
  8
0
 10
3428.721380407047036
 20
171.8148953914304116
 30
0.0
 40
0.0043762991440662
 50
246.8659008956140894
 51
288.3843556909284871
  0
ARC
  5
BCDD
  8
0
 10
3428.7179158373728569
 20
171.8155891905163912
 30
0.0
 40
0.005030607240343
 50
254.4457542214749139
 51
290.2986969770071823
  0
LINE
  5
BCDE
  8
0
 10
3428.7165668770730917
 20
171.8107428191609074
 30
0.0
 11
3428.6926925230718552
 21
171.8186489191608928
 31
0.0
  0
LINE
  5
BCDF
  8
0
 10
3428.6976137829719846
 20
171.8254626990608926
 30
0.0
 11
3428.7130508287241355
 21
171.8201755620058861
 31
0.0
  0
LINE
  5
BCE0
  8
0
 10
3428.7245822868731011
 20
171.7986704739608967
 30
0.0
 11
3428.7432490172159305
 21
171.7924889020173111
 31
0.0
  0
LINE
  5
BCE1
  8
0
 10
3428.7466295309732232
 20
171.765064468960901
 30
0.0
 11
3428.7631161593299112
 21
171.7596700956607947
 31
0.0
  0
LINE
  5
BCE2
  8
0
 10
3428.7515507908728978
 20
171.7718782488653915
 30
0.0
 11
3428.758700845372914
 21
171.7695104760609013
 31
0.0
  0
LINE
  5
BCE3
  8
0
 10
3428.7603258279327747
 20
171.7338738479240021
 30
0.0
 11
3428.7584314599730533
 21
171.7297215182032062
 31
0.0
  0
LINE
  5
BCE4
  8
0
 10
3428.7584314599730533
 20
171.7297215182032062
 30
0.0
 11
3428.7531042699820318
 21
171.7314856411908863
 31
0.0
  0
LINE
  5
BCE5
  8
0
 10
3428.7584314599730533
 20
171.7297215182032062
 30
0.0
 11
3428.7584314599730533
 21
171.7160152340609045
 31
0.0
  0
ARC
  5
BCE6
  8
0
 10
3428.7456829132870553
 20
171.7160152340609045
 30
0.0
 40
0.012748546685236
 50
323.3549566776534903
 51
0.0
  0
LINE
  5
BCE7
  8
0
 10
3428.7559116906281815
 20
171.708406189659911
 30
0.0
 11
3428.7466295308208828
 21
171.711480018710887
 31
0.0
  0
LINE
  5
BCE8
  8
0
 10
3428.7469744668710518
 20
171.7113657915836029
 30
0.0
 11
3428.7378706594718096
 21
171.7008073532608989
 31
0.0
  0
LINE
  5
BCE9
  8
0
 10
3428.7378706594718096
 20
171.7008073532608989
 30
0.0
 11
3428.7261357660818248
 21
171.7046934160908904
 31
0.0
  0
LINE
  5
BCEA
  8
0
 10
3428.7378706594718096
 20
171.7008073532608989
 30
0.0
 11
3428.7378706594718096
 21
171.6871010690609012
 31
0.0
  0
LINE
  5
BCEB
  8
0
 10
3428.7378706594718096
 20
171.6871010690609012
 30
0.0
 11
3428.7245822868731011
 21
171.6915015735609131
 31
0.0
  0
ARC
  5
BCEC
  8
0
 10
3428.7317563287920166
 20
171.6862968919076025
 30
0.0
 40
0.0061669879659863
 50
285.4355147991320223
 51
7.4927254046727176
  0
LINE
  5
BCED
  8
0
 10
3428.7333976952168086
 20
171.6803523434109024
 30
0.0
 11
3428.7196610268711083
 21
171.6846877936274041
 31
0.0
  0
LINE
  5
BCEE
  8
0
 10
3428.7196975062629463
 20
171.6846762803126012
 30
0.0
 11
3428.7064940292730171
 21
171.675474898941701
 31
0.0
  0
LINE
  5
BCEF
  8
0
 10
3428.7064940292730171
 20
171.675474898941701
 30
0.0
 11
3428.6991672621320504
 21
171.6779011910074075
 31
0.0
  0
LINE
  5
BCF0
  8
0
 10
3428.7064940292921165
 20
171.6754748989546897
 30
0.0
 11
3428.7064940292730171
 21
171.6617686147608879
 31
0.0
  0
ARC
  5
BCF1
  8
0
 10
3428.7003195254251295
 20
171.6617686147693007
 30
0.0
 40
0.006174503847868
 50
269.1418257791369228
 51
359.9999999221229245
  0
LINE
  5
BCF2
  8
0
 10
3428.7002270473758472
 20
171.6555948035008896
 30
0.0
 11
3428.6926925230718552
 21
171.6578955684609014
 31
0.0
  0
LINE
  5
BCF3
  8
0
 10
3428.6976137829719846
 20
171.6647093483609012
 30
0.0
 11
3428.7064940292730171
 21
171.6617686147693007
 31
0.0
  0
LINE
  5
BCF4
  8
0
 10
3428.6574648478481322
 20
171.6516986176006014
 30
0.0
 11
3428.6367729499238521
 21
171.6449788986734859
 31
0.0
  0
LINE
  5
BCF5
  8
0
 10
3428.6367729499238521
 20
171.6449788986734859
 30
0.0
 11
3428.6182617504719019
 21
171.6511089658609137
 31
0.0
  0
LINE
  5
BCF6
  8
0
 10
3428.6367729499720554
 20
171.6449788986892884
 30
0.0
 11
3428.6367729499720554
 21
171.6312726144608973
 31
0.0
  0
ARC
  5
BCF7
  8
0
 10
3428.6296829668099235
 20
171.6327876199900118
 30
0.0
 40
0.0072500415865709
 50
256.46368539099808
 51
347.9382897359815843
  0
LINE
  5
BCF8
  8
0
 10
3428.627986010371842
 20
171.6257389717609101
 30
0.0
 11
3428.6117870112730088
 21
171.6311033433609055
 31
0.0
  0
LINE
  5
BCF9
  8
0
 10
3428.6167082711731382
 20
171.6379171232609053
 30
0.0
 11
3428.6367729499720554
 21
171.6312726144608973
 31
0.0
  0
LINE
  5
BCFA
  8
0
 10
3428.6657240192739664
 20
171.6846877935942928
 30
0.0
 11
3428.6419614029241529
 21
171.6768186960213995
 31
0.0
  0
ARC
  5
BCFB
  8
0
 10
3428.6404840440632142
 20
171.6812799333494013
 30
0.0
 40
0.0046994922812683
 50
248.4192689171794086
 51
288.3225218354320987
  0
ARC
  5
BCFC
  8
0
 10
3428.6370101455131589
 20
171.6816388477384123
 30
0.0
 40
0.0050407840952435
 50
254.4538937438383073
 51
290.2580965930898174
  0
LINE
  5
BCFD
  8
0
 10
3428.6356591461731114
 20
171.676782480260897
 30
0.0
 11
3428.6117870112730088
 21
171.6846877936609133
 31
0.0
  0
LINE
  5
BCFE
  8
0
 10
3428.5897397671719773
 20
171.8381400999444963
 30
0.0
 11
3428.5897397671719773
 21
171.8254626990608926
 31
0.0
  0
ARC
  5
BCFF
  8
0
 10
3428.5825621637131917
 20
171.8254626990608926
 30
0.0
 40
0.0071776034592688
 50
288.2937600220681134
 51
0.0000000000032569
  0
LINE
  5
BD00
  8
0
 10
3428.5848151348718602
 20
171.818647854060913
 30
0.0
 11
3428.5627712632731345
 21
171.8113478748608998
 31
0.0
  0
LINE
  5
BD01
  8
0
 10
3428.5627712632731345
 20
171.8113478748608998
 30
0.0
 11
3428.5609441532728852
 21
171.8107428191609074
 31
0.0
  0
ARC
  5
BD02
  8
0
 10
3428.5595667356838021
 20
171.8149022601014053
 30
0.0
 40
0.0043815782716076
 50
246.9330272858034903
 51
288.3225213626085974
  0
ARC
  5
BD03
  8
0
 10
3428.5561078387690941
 20
171.8155161689298041
 30
0.0
 40
0.0049611220763639
 50
254.1859596506967023
 51
290.5584917008699222
  0
LINE
  5
BD04
  8
0
 10
3428.5547558534731252
 20
171.8107428191609074
 30
0.0
 11
3428.5308814994718887
 21
171.8186489191608928
 31
0.0
  0
LINE
  5
BD05
  8
0
 10
3428.5578500035239813
 20
171.7382722438109113
 30
0.0
 11
3428.5339682182980141
 21
171.7303660557915066
 31
0.0
  0
ARC
  5
BD06
  8
0
 10
3428.5326238132752223
 20
171.7352179203556091
 30
0.0
 40
0.0050346811831773
 50
249.7533385253327936
 51
285.4875411072063116
  0
LINE
  5
BD07
  8
0
 10
3428.5358027592728831
 20
171.7309711994444967
 30
0.0
 11
3428.5358027592728831
 21
171.718293798660909
 31
0.0
  0
ARC
  5
BD08
  8
0
 10
3428.5288713239488061
 20
171.7193504961855126
 30
0.0
 40
0.0070115194717514
 50
286.6602613545467761
 51
351.3319965534062135
  0
LINE
  5
BD09
  8
0
 10
3428.5358027592728831
 20
171.6238022990445131
 30
0.0
 11
3428.5358027592728831
 21
171.6169259777609
 31
0.0
  0
ARC
  5
BD0A
  8
0
 10
3428.5312405754430074
 20
171.6174425891753117
 30
0.0
 40
0.0045913406165974
 50
265.5144761011122796
 51
353.5394752484476726
  0
LINE
  5
BD0B
  8
0
 10
3428.5703597935948892
 20
171.8674444321518138
 30
0.0
 11
3428.5643247426000926
 21
171.8654467667520009
 31
0.0
  0
LINE
  5
BD0C
  8
0
 10
3428.5643247426000926
 20
171.8654467667520009
 30
0.0
 11
3428.5627712632731345
 21
171.8649323250608916
 31
0.0
  0
LINE
  5
BD0D
  8
0
 10
3428.5627712632731345
 20
171.8649323250608916
 30
0.0
 11
3428.5609496221500194
 21
171.8643268986618864
 31
0.0
  0
ARC
  5
BD0E
  8
0
 10
3428.5595887411768672
 20
171.8689378460562125
 30
0.0
 40
0.0048078146922643
 50
248.7985443051344987
 51
286.3604179039735982
  0
ARC
  5
BD0F
  8
0
 10
3428.5561045981858115
 20
171.8691754948704897
 30
0.0
 40
0.0050324210200825
 50
254.482114882927192
 51
290.2936745756546202
  0
LINE
  5
BD10
  8
0
 10
3428.5547582284730197
 20
171.8643265207608977
 30
0.0
 11
3428.5399547072997848
 21
171.8692563951665875
 31
0.0
  0
ARC
  5
BD11
  8
0
 10
3428.5305082293371015
 20
171.4559645877588991
 30
0.0
 40
0.4218377633995778
 50
90.0
 51
102.7096475334267041
  0
ARC
  5
BD12
  8
0
 10
3428.5068334641018737
 20
171.5609353890536113
 30
0.0
 40
0.3142303118295531
 50
102.7096475334267041
 51
121.883380232371394
  0
ARC
  5
BD13
  8
0
 10
3428.4183310833991527
 20
171.7032123849189134
 30
0.0
 40
0.1466731128123506
 50
121.883380232371394
 51
148.7093283925927949
  0
ARC
  5
BD14
  8
0
 10
3428.3687309878641827
 20
171.7333586560521042
 30
0.0
 40
0.0886303084315916
 50
148.7093283925927949
 51
180.0670543124039114
  0
ARC
  5
BD15
  8
0
 10
3428.3644055480272073
 20
171.7333535939073954
 30
0.0
 40
0.084304865632272
 50
180.0670543124039114
 51
209.2502445378819118
  0
ARC
  5
BD16
  8
0
 10
3428.4136033088598197
 20
171.7609059396415034
 30
0.0
 40
0.1406923768952433
 50
209.2502445378804907
 51
232.5052593790875903
  0
ARC
  5
BD17
  8
0
 10
3428.474429953615072
 20
171.8401918347028072
 30
0.0
 40
0.2406230221846953
 50
232.5052593790875903
 51
247.5259599012142928
  0
ARC
  5
BD18
  8
0
 10
3428.5178078379899489
 20
171.9450496636686978
 30
0.0
 40
0.354099033518509
 50
247.5259599012142928
 51
262.6457220824328829
  0
ARC
  5
BD19
  8
0
 10
3428.53000689392411
 20
172.0395676702736978
 30
0.0
 40
0.449401030025875
 50
262.6457220824328829
 51
282.0038189018719095
  0
ARC
  5
BD1A
  8
0
 10
3428.5612736283078448
 20
171.8925174455409035
 30
0.0
 40
0.2990634855703456
 50
282.0038189018719095
 51
301.9309706088673124
  0
ARC
  5
BD1B
  8
0
 10
3428.6526078796491674
 20
171.7539654653729997
 30
0.0
 40
0.133237246158591
 50
300.1097762050027882
 51
342.2928417627288127
  0
ARC
  5
BD1C
  8
0
 10
3428.6951479355570882
 20
171.7339735491241868
 30
0.0
 40
0.0868469304498011
 50
346.3245782531511736
 51
31.5315894673725694
  0
ARC
  5
BD1D
  8
0
 10
3428.6353828132459967
 20
171.6953632177381053
 30
0.0
 40
0.1579885012394961
 50
32.1315492148034565
 51
60.0099278343030207
  0
ARC
  5
BD1E
  8
0
 10
3428.5497414063001997
 20
171.5469131852564999
 30
0.0
 40
0.3293707125679842
 50
60.0147440010413007
 51
83.3613508501708509
  0
ARC
  5
BD1F
  8
0
 10
3428.5312338783810446
 20
171.4464439578526935
 30
0.0
 40
0.4313590036637884
 50
82.4622840159933332
 51
90.096385254248105
  0
ARC
  5
BD20
  8
0
 10
3428.5310871546480485
 20
171.3679473315245048
 30
0.0
 40
0.5298911336694641
 50
88.9692425137450442
 51
94.8439665859325061
  0
ARC
  5
BD21
  8
0
 10
3428.5277764720399318
 20
171.4070136601092997
 30
0.0
 40
0.4906847738737827
 50
94.8439665859325061
 51
106.9154190252906034
  0
ARC
  5
BD22
  8
0
 10
3428.4820352856932004
 20
171.557420099188505
 30
0.0
 40
0.3334767809315192
 50
106.9154190252906034
 51
125.1762848768603931
  0
ARC
  5
BD23
  8
0
 10
3428.3890976396910446
 20
171.6892834492863074
 30
0.0
 40
0.1721530407581597
 50
125.1762848768603931
 51
148.1457231037078088
  0
ARC
  5
BD24
  8
0
 10
3428.3376298294638218
 20
171.7212623827186064
 30
0.0
 40
0.111559413429172
 50
148.1457231037078088
 51
179.160121718075402
  0
ARC
  5
BD25
  8
0
 10
3428.333777873011968
 20
171.7236970069060078
 30
0.0
 40
0.1076984381317797
 50
180.4252720742196914
 51
207.8279839220190865
  0
ARC
  5
BD26
  8
0
 10
3428.3961391040270428
 20
171.7611182731131976
 30
0.0
 40
0.1803606965823154
 50
209.0931342781659055
 51
239.6040646198250954
  0
ARC
  5
BD27
  8
0
 10
3428.5098129892821817
 20
171.9549022154390059
 30
0.0
 40
0.4050248203141219
 50
239.6040646198250954
 51
260.0815328484683278
  0
ARC
  5
BD28
  8
0
 10
3428.5313541131567945
 20
172.0780928425411105
 30
0.0
 40
0.5300846085101159
 50
260.0815328484683278
 51
276.96420369420008
  0
ARC
  5
BD29
  8
0
 10
3428.5425189425191093
 20
171.9866905476251873
 30
0.0
 40
0.4380029440454193
 50
276.96420369420008
 51
297.8565891333067839
  0
ARC
  5
BD2A
  8
0
 10
3428.6599537284710095
 20
171.7644878902985965
 30
0.0
 40
0.1866765628702698
 50
297.8565891333067839
 51
334.7097221323896861
  0
ARC
  5
BD2B
  8
0
 10
3428.7336182324738729
 20
171.7228207395972106
 30
0.0
 40
0.1024600226895363
 50
338.1809966043580857
 51
17.9660601334866215
  0
ARC
  5
BD2C
  8
0
 10
3428.673090703779053
 20
171.6923899015762913
 30
0.0
 40
0.1697341079328216
 50
21.4373346054471412
 51
56.4554605802542895
  0
ARC
  5
BD2D
  8
0
 10
3428.5684964845750073
 20
171.5346318623628008
 30
0.0
 40
0.3590157753685768
 50
56.4554605802542895
 51
79.828854860827235
  0
ARC
  5
BD2E
  8
0
 10
3428.5178610134798873
 20
171.2523962790959047
 30
0.0
 40
0.6457576024447864
 50
79.828854860827235
 51
87.9803072534793102
  0
ARC
  5
BD2F
  8
0
 10
3428.5305358505938784
 20
172.0217847722333886
 30
0.0
 40
0.4340364577661007
 50
257.400945946675904
 51
270.072148478629174
  0
ARC
  5
BD30
  8
0
 10
3428.5091659548129428
 20
171.9261739394966071
 30
0.0
 40
0.3360665451279563
 50
241.7756590655721141
 51
257.400945946675904
  0
ARC
  5
BD31
  8
0
 10
3428.4385539182280809
 20
171.7946172786888894
 30
0.0
 40
0.1867574204452454
 50
214.8822084109266939
 51
241.7756590655721141
  0
ARC
  5
BD32
  8
0
 10
3428.3633063510251304
 20
171.7421585784917966
 30
0.0
 40
0.0950289537830466
 50
179.180134374254294
 51
214.8822084109266939
  0
ARC
  5
BD33
  8
0
 10
3428.3641422548339506
 20
171.7421466164313131
 30
0.0
 40
0.0958649431781554
 50
149.0290407242318906
 51
179.180134374254294
  0
ARC
  5
BD34
  8
0
 10
3428.4088076944240129
 20
171.7153397157512131
 30
0.0
 40
0.1479572786775545
 50
122.2074134419053024
 51
149.0290407242318906
  0
ARC
  5
BD35
  8
0
 10
3428.5093204807208167
 20
171.5557739104164057
 30
0.0
 40
0.3365416535376807
 50
107.592057792726095
 51
122.2074134419053024
  0
ARC
  5
BD36
  8
0
 10
3428.5147541722531059
 20
171.5386365025080124
 30
0.0
 40
0.3545198557138752
 50
94.90977766428351
 51
107.592057792726095
  0
ARC
  5
BD37
  8
0
 10
3428.5318534240082045
 20
171.3395815130639903
 30
0.0
 40
0.5543079265116773
 50
85.9675578709605333
 51
94.90977766428351
  0
ARC
  5
BD38
  8
0
 10
3428.5451145989941324
 20
171.5276944254256932
 30
0.0
 40
0.3657281647152514
 50
70.7870014177741922
 51
85.9675578709605333
  0
ARC
  5
BD39
  8
0
 10
3428.5629234639418428
 20
171.5787971869528121
 30
0.0
 40
0.3116111811849938
 50
56.4258794080297932
 51
70.7870014177741922
  0
ARC
  5
BD3A
  8
0
 10
3428.6531194798021716
 20
171.7146862261957097
 30
0.0
 40
0.1485125844303389
 50
31.5764339518601389
 51
56.4258794080297932
  0
ARC
  5
BD3B
  8
0
 10
3428.698113629675845
 20
171.742341307812012
 30
0.0
 40
0.0956989776407349
 50
357.3073574033707018
 51
31.5764339518601389
  0
ARC
  5
BD3C
  8
0
 10
3428.687902567115998
 20
171.7455844321524978
 30
0.0
 40
0.1060870270938694
 50
324.6626750630067022
 51
355.8166435746949219
  0
ARC
  5
BD3D
  8
0
 10
3428.6392681313691355
 20
171.7797819293944031
 30
0.0
 40
0.1655407273328632
 50
304.9358091433758773
 51
324.7431972695843001
  0
ARC
  5
BD3E
  8
0
 10
3428.5714359016042181
 20
171.8795237318396119
 30
0.0
 40
0.2861571456399106
 50
285.2992639415746794
 51
304.6335659375529872
  0
ARC
  5
BD3F
  8
0
 10
3428.5325902752019829
 20
172.0104338675103861
 30
0.0
 40
0.4226878984884566
 50
269.7956057385812869
 51
285.696016051860795
  0
ARC
  5
BD40
  8
0
 10
3428.4360235713829752
 20
171.7727259137384976
 30
0.0
 40
0.1689289260517593
 50
165.0868255890495959
 51
187.6832023647407084
  0
ARC
  5
BD41
  8
0
 10
3428.3591505291751673
 20
171.8018055590783888
 30
0.0
 40
0.1047084333114665
 50
182.7649863598697095
 51
210.0827811357488031
  0
ARC
  5
BD42
  8
0
 10
3428.3563480829079708
 20
171.8083487197816055
 30
0.0
 40
0.1070794571155417
 50
189.0142809004329081
 51
214.7936293969819985
  0
ARC
  5
BD43
  8
0
 10
3428.3803353578441602
 20
171.8098806039652118
 30
0.0
 40
0.1592246488400948
 50
200.4012722978837928
 51
237.3696223722957939
  0
ARC
  5
BD44
  8
0
 10
3428.6851709462589497
 20
171.8068671943620984
 30
0.0
 40
0.1550493495577483
 50
302.3555215639124185
 51
340.2309455241376099
  0
ARC
  5
BD45
  8
0
 10
3428.7087262559348346
 20
171.8075739879668049
 30
0.0
 40
0.1040910684417403
 50
324.6987943283551203
 51
350.680228126470297
  0
ARC
  5
BD46
  8
0
 10
3428.708360652994088
 20
171.8011419321908022
 30
0.0
 40
0.0993439807031973
 50
328.9926039627928844
 51
357.0057899613399854
  0
ARC
  5
BD47
  8
0
 10
3428.6081295527251314
 20
171.7732036988419964
 30
0.0
 40
0.1863907835060078
 50
353.4873908949858219
 51
13.2239056897191105
  0
LINE
  5
BD48
  8
0
 10
3430.978090275627892
 20
172.8863054748836134
 30
0.0
 11
3432.1680869450278806
 21
172.8863080002836909
 31
0.0
  0
ARC
  5
BD49
  8
0
 10
3432.1680867752447739
 20
172.966311516839113
 30
0.0
 40
0.0800035165555898
 50
270.0001215925781821
 51
359.9952481565135827
  0
ARC
  5
BD4A
  8
0
 10
-3740.865923624800871
 20
173.5612093488726089
 30
0.0
 40
7173.1140385856197099
 50
359.9952481565135827
 51
0.0047533743752021
  0
ARC
  5
BD4B
  8
0
 10
3432.2580894460761556
 20
174.1563063044351054
 30
0.0
 40
0.0099991704828967
 50
89.9952466256410872
 51
180.0047533743833128
  0
LINE
  5
BD4C
  8
0
 10
3432.2580902756280921
 20
174.1663054748835862
 30
0.0
 11
3432.6780901988831829
 21
174.1662706308358963
 31
0.0
  0
ARC
  5
BD4D
  8
0
 10
3432.6780893691820893
 20
174.1562696602958056
 30
0.0
 40
0.0100009705744365
 50
0.2051829962115325
 51
89.9952466256410872
  0
LINE
  5
BD4E
  8
0
 10
3432.6880902756279283
 20
174.1563054748835953
 30
0.0
 11
3432.6880902756279283
 21
172.9663054748835975
 31
0.0
  0
ARC
  5
BD4F
  8
0
 10
3432.7680902238239469
 20
172.966305423079092
 30
0.0
 40
0.0799999481955823
 50
179.9999628977826944
 51
270.0000371022075001
  0
LINE
  5
BD50
  8
0
 10
3432.7680902756278556
 20
172.8863054748836134
 30
0.0
 11
3433.9580902756270007
 21
172.8863062454749979
 31
0.0
  0
ARC
  5
BD51
  8
0
 10
3433.9580902821039672
 20
172.8763062519136895
 30
0.0
 40
0.0099999935612726
 50
359.9951169114016238
 51
90.0000371009307543
  0
ARC
  5
BD52
  8
0
 10
3433.9580277882018891
 20
172.4563679618298977
 30
0.0
 40
0.010062680965963
 50
270.3557986962978816
 51
359.6446410716956166
  0
LINE
  5
BD53
  8
0
 10
3433.9580902756279102
 20
172.4463054748835873
 30
0.0
 11
3432.7680982772230891
 21
172.4463054748835873
 31
0.0
  0
ARC
  5
BD54
  8
0
 10
3432.7680821496660428
 20
172.3663235166019945
 30
0.0
 40
0.0799815162796444
 50
89.9935339764643487
 51
180.0240981393345976
  0
LINE
  5
BD55
  8
0
 10
3432.6881006404610162
 20
172.3662898770270999
 30
0.0
 11
3432.6880902756279283
 21
171.1763054929905081
 31
0.0
  0
ARC
  5
BD56
  8
0
 10
3432.6780902756281648
 20
171.1763054748836907
 30
0.0
 40
0.0100000000001194
 50
270.0000000003126956
 51
0.000129239011892
  0
LINE
  5
BD57
  8
0
 10
3432.6780902756281648
 20
171.1663054748835862
 30
0.0
 11
3432.2580902756280921
 21
171.1663054748813124
 31
0.0
  0
ARC
  5
BD58
  8
0
 10
3432.2580902756280921
 20
171.1763054748811896
 30
0.0
 40
0.0099999999999447
 50
179.9999999864317886
 51
270.0000000003126956
  0
LINE
  5
BD59
  8
0
 10
3432.2480902756278738
 20
171.1763054748836055
 30
0.0
 11
3432.2480902759098171
 21
172.3663054748836032
 31
0.0
  0
ARC
  5
BD5A
  8
0
 10
3432.1680902759280798
 20
172.3663054749025036
 30
0.0
 40
0.0799999999810535
 50
359.9999999864334086
 51
90.0000002153975345
  0
LINE
  5
BD5B
  8
0
 10
3432.1680902756279465
 20
172.4463054748835873
 30
0.0
 11
3430.978090275627892
 21
172.4463054704098965
 31
0.0
  0
ARC
  5
BD5C
  8
0
 10
3430.9780902755910574
 20
172.4563054703723139
 30
0.0
 40
0.0099999999624414
 50
179.9995431169191988
 51
270.0000002153976197
  0
LINE
  5
BD5D
  8
0
 10
3430.9680902756290379
 20
172.4563055501135125
 30
0.0
 11
3430.9680936247550562
 21
172.8763053996403016
 31
0.0
  0
ARC
  5
BD5E
  8
0
 10
3430.9780937803548113
 20
172.8763053198979094
 30
0.0
 40
0.0100001555997853
 50
90.0200802914091298
 51
179.9995431169224958
  0
LINE
  5
BD5F
  8
0
 10
3432.2246588524621984
 20
172.9097369392478072
 30
0.0
 11
3432.7113054847759486
 21
172.4226569282706123
 31
0.0
  0
LINE
  5
BD60
  8
0
 10
3432.7115331938621239
 20
172.9097254437525919
 30
0.0
 11
3432.2248232943038602
 21
172.4227090617937108
 31
0.0
  0
LINE
  5
BD61
  8
0
 10
3433.9680902756281284
 20
172.8763062519136895
 30
0.0
 11
3433.9680902756281284
 21
172.4563055516377972
 31
0.0
  0
ARC
  5
BD62
  8
0
 10
3424.5940745275279369
 20
172.6663054748835862
 30
0.0
 40
0.9900000000000002
 50
282.8395884009681822
 51
347.1604114446450922
  0
ARC
  5
BD63
  8
0
 10
3424.5940745275279369
 20
172.6663054748835862
 30
0.0
 40
0.9900000000000002
 50
192.8395884069043973
 51
257.1604115871402882
  0
ARC
  5
BD64
  8
0
 10
3424.5940745275279369
 20
172.6663054748835862
 30
0.0
 40
0.9900000000000002
 50
102.8395884128596975
 51
167.1603860223077902
  0
ARC
  5
BD65
  8
0
 10
3424.5940745275279369
 20
172.6663054748835862
 30
0.0
 40
0.9900000000000002
 50
12.8396545104826405
 51
77.1618564003769478
  0
ARC
  5
BD66
  8
0
 10
3424.5940745275279369
 20
172.6663054748835862
 30
0.0
 40
0.5449999999999995
 50
113.8077920894634047
 51
156.1921931426354035
  0
ARC
  5
BD67
  8
0
 10
3424.5940745275279369
 20
172.6663054748835862
 30
0.0
 40
0.5449999999999995
 50
23.8080338322980403
 51
66.1937866682437033
  0
ARC
  5
BD68
  8
0
 10
3424.5940745275279369
 20
172.6663054748835862
 30
0.0
 40
0.5449999999999995
 50
293.8077920394819103
 51
336.1922078362434263
  0
ARC
  5
BD69
  8
0
 10
3424.5940745275279369
 20
172.6663054748835862
 30
0.0
 40
0.5449999999999995
 50
203.8077917329653133
 51
246.1912156781201872
  0
ARC
  5
BD6A
  8
0
 10
3424.5940745275279369
 20
172.6663054748835862
 30
0.0
 40
0.5449999999999995
 50
203.8077920779579983
 51
246.1922079105366095
  0
LINE
  5
BD6B
  8
0
 10
3426.0840745274281289
 20
172.8863054748836134
 30
0.0
 11
3424.8940778580281403
 21
172.8863080002836909
 31
0.0
  0
ARC
  5
BD6C
  8
0
 10
3424.8940780278098828
 20
172.966311516839113
 30
0.0
 40
0.0800035165555898
 50
180.0047518434863889
 51
269.9998784074218179
  0
ARC
  5
BD6D
  8
0
 10
10597.9280884278505255
 20
173.5612093488726089
 30
0.0
 40
7173.1140385856197099
 50
179.9952466256247874
 51
180.0047518434863889
  0
ARC
  5
BD6E
  8
0
 10
3424.8040753569798653
 20
174.1563063044351054
 30
0.0
 40
0.0099991704828967
 50
359.9952466256166872
 51
90.004753374358927
  0
LINE
  5
BD6F
  8
0
 10
3424.8040745274279288
 20
174.1663054748835862
 30
0.0
 11
3424.384074604172838
 21
174.1662706308358963
 31
0.0
  0
ARC
  5
BD70
  8
0
 10
3424.3840754338739316
 20
174.1562696602958056
 30
0.0
 40
0.0100009705744365
 50
90.004753374358927
 51
179.7948170037884097
  0
LINE
  5
BD71
  8
0
 10
3424.3740745274280926
 20
174.1563054748835953
 30
0.0
 11
3424.3740745274280926
 21
172.9663054748835975
 31
0.0
  0
ARC
  5
BD72
  8
0
 10
3424.2940745792329835
 20
172.966305423079092
 30
0.0
 40
0.0799999481955823
 50
269.9999628977924999
 51
0.0000371022172452
  0
LINE
  5
BD73
  8
0
 10
3424.2940745274268011
 20
172.8863054748836134
 30
0.0
 11
3423.1040745274290202
 21
172.8863062454749979
 31
0.0
  0
ARC
  5
BD74
  8
0
 10
3423.1040745209529632
 20
172.8763062519136895
 30
0.0
 40
0.0099999935612726
 50
89.9999628990692173
 51
180.0048830885984046
  0
ARC
  5
BD75
  8
0
 10
3423.1041370148532224
 20
172.4563679618298977
 30
0.0
 40
0.010062680965963
 50
180.3553589283044118
 51
269.6442013037021184
  0
LINE
  5
BD76
  8
0
 10
3423.1040745274281107
 20
172.4463054748835873
 30
0.0
 11
3424.2940665258329318
 21
172.4463054748835873
 31
0.0
  0
ARC
  5
BD77
  8
0
 10
3424.2940826533890686
 20
172.3663235166019945
 30
0.0
 40
0.0799815162796444
 50
359.9759018606654877
 51
90.0064660235356513
  0
LINE
  5
BD78
  8
0
 10
3424.3740641625950047
 20
172.3662898770270999
 30
0.0
 11
3424.3740745274280926
 21
171.1763054929905081
 31
0.0
  0
ARC
  5
BD79
  8
0
 10
3424.3840745274278561
 20
171.1763054748836907
 30
0.0
 40
0.0100000000001194
 50
179.9998707609881023
 51
269.999999999687418
  0
LINE
  5
BD7A
  8
0
 10
3424.3840745274278561
 20
171.1663054748835862
 30
0.0
 11
3424.8040745274279288
 21
171.1663054748813124
 31
0.0
  0
ARC
  5
BD7B
  8
0
 10
3424.8040745274279288
 20
171.1763054748811896
 30
0.0
 40
0.0099999999999447
 50
269.999999999687418
 51
0.0000000135681954
  0
LINE
  5
BD7C
  8
0
 10
3424.8140745274281471
 20
171.1763054748836055
 30
0.0
 11
3424.8140745271471133
 21
172.3663054748836032
 31
0.0
  0
ARC
  5
BD7D
  8
0
 10
3424.8940745271270316
 20
172.3663054749025036
 30
0.0
 40
0.0799999999810535
 50
89.9999997846024513
 51
180.0000000135665914
  0
LINE
  5
BD7E
  8
0
 10
3424.8940745274280744
 20
172.4463054748835873
 30
0.0
 11
3426.0840745274281289
 21
172.4463054704098965
 31
0.0
  0
ARC
  5
BD7F
  8
0
 10
3426.084074527465873
 20
172.4563054703723139
 30
0.0
 40
0.0099999999624414
 50
269.9999997846023803
 51
0.0004568830807287
  0
LINE
  5
BD80
  8
0
 10
3426.0940745274278925
 20
172.4563055501135125
 30
0.0
 11
3426.0940711783009647
 21
172.8763053996403016
 31
0.0
  0
ARC
  5
BD81
  8
0
 10
3426.0840710227021191
 20
172.8763053198979094
 30
0.0
 40
0.0100001555997853
 50
0.0004568830758434
 51
89.9799197085908844
  0
LINE
  5
BD82
  8
0
 10
3424.8375059505938225
 20
172.9097369392478072
 30
0.0
 11
3424.3508593182800723
 21
172.4226569282706123
 31
0.0
  0
LINE
  5
BD83
  8
0
 10
3424.350631609193897
 20
172.9097254437525919
 30
0.0
 11
3424.8373415087530702
 21
172.4227090617937108
 31
0.0
  0
LINE
  5
BD84
  8
0
 10
3423.0940745274278925
 20
172.8763062519136895
 30
0.0
 11
3423.0940745274278925
 21
172.4563055516377972
 31
0.0
  0
ENDSEC
  0
EOF
