  0
SECTION
  2
HEADER
  9
$ACADVER
  1
AC1009
  9
$INSBASE
 10
3428.5314496443102144
 20
172.66693812145121
 30
0.0
  9
$EXTMIN
 10
3422.1751512685641501
 20
171.5083045780633029
 30
-0.0015258207003583
  9
$EXTMAX
 10
3434.7532053175991678
 20
173.6679580987058102
 30
0.0000000349246037
  9
$LIMMIN
 10
0.0
 20
0.0
  9
$LIMMAX
 10
11.6929133858000007
 20
8.2677165353999982
  9
$ORTHOMODE
 70
     0
  9
$REGENMODE
 70
     1
  9
$FILLMODE
 70
     1
  9
$QTEXTMODE
 70
     0
  9
$MIRRTEXT
 70
     0
  9
$DRAGMODE
 70
     2
  9
$LTSCALE
 40
0.6431102362
  9
$OSMODE
 70
  4095
  9
$ATTMODE
 70
     1
  9
$TEXTSIZE
 40
0.2
  9
$TRACEWID
 40
0.05
  9
$TEXTSTYLE
  7
STANDARD
  9
$CLAYER
  8
0
  9
$CELTYPE
  6
BYLAYER
  9
$CECOLOR
 62
   256
  9
$DIMSCALE
 40
1.0
  9
$DIMASZ
 40
0.1875
  9
$DIMEXO
 40
0.0625
  9
$DIMDLI
 40
0.4443307087
  9
$DIMRND
 40
0.0
  9
$DIMDLE
 40
0.0
  9
$DIMEXE
 40
0.125
  9
$DIMTP
 40
0.01
  9
$DIMTM
 40
0.01
  9
$DIMTXT
 40
2.0
  9
$DIMCEN
 40
0.1052362205
  9
$DIMTSZ
 40
0.0
  9
$DIMTOL
 70
     1
  9
$DIMLIM
 70
     0
  9
$DIMTIH
 70
     1
  9
$DIMTOH
 70
     1
  9
$DIMSE1
 70
     0
  9
$DIMSE2
 70
     0
  9
$DIMTAD
 70
     0
  9
$DIMZIN
 70
     0
  9
$DIMBLK
  1

  9
$DIMASO
 70
     1
  9
$DIMSHO
 70
     1
  9
$DIMPOST
  1
\X
  9
$DIMAPOST
  1

  9
$DIMALT
 70
     1
  9
$DIMALTD
 70
     2
  9
$DIMALTF
 40
25.3999999999999986
  9
$DIMLFAC
 40
1.0
  9
$DIMTOFL
 70
     0
  9
$DIMTVP
 40
0.0
  9
$DIMTIX
 70
     0
  9
$DIMSOXD
 70
     0
  9
$DIMSAH
 70
     0
  9
$DIMBLK1
  1

  9
$DIMBLK2
  1

  9
$DIMSTYLE
  2
STANDARD
  9
$DIMCLRD
 70
     0
  9
$DIMCLRE
 70
     0
  9
$DIMCLRT
 70
     0
  9
$DIMTFAC
 40
1.0
  9
$DIMGAP
 40
0.09
  9
$LUNITS
 70
     2
  9
$LUPREC
 70
     4
  9
$SKETCHINC
 40
0.1
  9
$FILLETRAD
 40
0.0
  9
$AUNITS
 70
     0
  9
$AUPREC
 70
     0
  9
$MENU
  1
.
  9
$ELEVATION
 40
0.0
  9
$PELEVATION
 40
0.0
  9
$THICKNESS
 40
0.0
  9
$LIMCHECK
 70
     0
  9
$BLIPMODE
 70
     0
  9
$CHAMFERA
 40
0.0
  9
$CHAMFERB
 40
0.0
  9
$SKPOLY
 70
     0
  9
$TDCREATE
 40
2458060.468368056230247
  9
$TDUPDATE
 40
2459066.8672337969765067
  9
$TDINDWG
 40
0.5219399306
  9
$TDUSRTIMER
 40
0.5219399306
  9
$USRTIMER
 70
     1
  9
$ANGBASE
 50
0.0
  9
$ANGDIR
 70
     0
  9
$PDMODE
 70
     0
  9
$PDSIZE
 40
0.3125
  9
$PLINEWID
 40
0.0
  9
$COORDS
 70
     1
  9
$SPLFRAME
 70
     0
  9
$SPLINETYPE
 70
     6
  9
$SPLINESEGS
 70
     8
  9
$ATTDIA
 70
     1
  9
$ATTREQ
 70
     1
  9
$HANDLING
 70
     1
  9
$HANDSEED
  5
B1DF
  9
$SURFTAB1
 70
     6
  9
$SURFTAB2
 70
     6
  9
$SURFTYPE
 70
     6
  9
$SURFU
 70
     6
  9
$SURFV
 70
     6
  9
$UCSNAME
  2

  9
$UCSORG
 10
0.0
 20
0.0
 30
0.0
  9
$UCSXDIR
 10
1.0
 20
0.0
 30
0.0
  9
$UCSYDIR
 10
0.0
 20
1.0
 30
0.0
  9
$PUCSNAME
  2

  9
$PUCSORG
 10
0.0
 20
0.0
 30
0.0
  9
$PUCSXDIR
 10
1.0
 20
0.0
 30
0.0
  9
$PUCSYDIR
 10
0.0
 20
1.0
 30
0.0
  9
$USERI1
 70
     0
  9
$USERI2
 70
     0
  9
$USERI3
 70
     0
  9
$USERI4
 70
     0
  9
$USERI5
 70
     0
  9
$USERR1
 40
0.0
  9
$USERR2
 40
0.0
  9
$USERR3
 40
0.0
  9
$USERR4
 40
0.0
  9
$USERR5
 40
0.0
  9
$WORLDVIEW
 70
     1
  9
$SHADEDGE
 70
     3
  9
$SHADEDIF
 70
    70
  9
$TILEMODE
 70
     1
  9
$MAXACTVP
 70
    64
  9
$PLIMCHECK
 70
     0
  9
$PEXTMIN
 10
1.0000000000000000E+20
 20
1.0000000000000000E+20
 30
1.0000000000000000E+20
  9
$PEXTMAX
 10
-1.0000000000000000E+20
 20
-1.0000000000000000E+20
 30
-1.0000000000000000E+20
  9
$PLIMMIN
 10
0.0
 20
0.0
  9
$PLIMMAX
 10
12.0
 20
9.0
  9
$UNITMODE
 70
     0
  9
$VISRETAIN
 70
     1
  9
$PLINEGEN
 70
     0
  9
$PSLTSCALE
 70
     1
  0
ENDSEC
  0
SECTION
  2
TABLES
  0
TABLE
  2
VPORT
 70
     1
  0
VPORT
  2
*ACTIVE
 70
     0
 10
0.0
 20
0.0
 11
1.0
 21
1.0
 12
124.7710630587062042
 22
-22.6733802375031814
 13
0.0
 23
0.0
 14
1.0
 24
1.0
 15
0.0
 25
0.0
 16
0.0
 26
0.0
 36
96.5995694866707311
 17
3303.693115234375
 27
195.2615115758877096
 37
0.0
 40
4.7638452766070021
 41
2.6486111111111108
 42
50.0
 43
0.0
 44
0.0
 50
0.0
 51
0.0
 71
     0
 72
   100
 73
     1
 74
     1
 75
     0
 76
     0
 77
     0
 78
     0
  0
ENDTAB
  0
TABLE
  2
LTYPE
 70
     2
  0
LTYPE
  2
CONTINUOUS
 70
     0
  3
Solid line
 72
    65
 73
     0
 40
0.0
  0
LTYPE
  2
PHANTOM2
 70
     0
  3
___ _ _ ___ _ _ ___ _ _ ___ _ _
 72
    65
 73
     6
 40
1.25
 49
0.625
 49
-0.125
 49
0.125
 49
-0.125
 49
0.125
 49
-0.125
  0
ENDTAB
  0
TABLE
  2
LAYER
 70
     2
  0
LAYER
  2
0
 70
     0
 62
   255
  6
CONTINUOUS
  0
LAYER
  2
DEFPOINTS
 70
     0
 62
     7
  6
CONTINUOUS
  0
ENDTAB
  0
TABLE
  2
STYLE
 70
     1
  0
STYLE
  2
STANDARD
 70
     0
 40
0.0
 41
0.8
 50
0.0
 71
     0
 42
0.2
  3
txt
  4

  0
ENDTAB
  0
TABLE
  2
VIEW
 70
     0
  0
ENDTAB
  0
TABLE
  2
UCS
 70
     0
  0
ENDTAB
  0
TABLE
  2
APPID
 70
     9
  0
APPID
  2
ACAD
 70
     0
  0
APPID
  2
ACAD_MLEADERVER
 70
     0
  0
APPID
  2
ACAD_EXEMPT_FROM_CAD_STANDARDS
 70
     0
  0
APPID
  2
ACAD_NAV_VCDISPLAY
 70
     0
  0
APPID
  2
ACAECLAYERSTANDARD
 70
     0
  0
APPID
  2
ACCMTRANSPARENCY
 70
     0
  0
APPID
  2
ACAD_DSTYLE_DIMJAG
 70
     0
  0
APPID
  2
ACAD_DSTYLE_DIMTALN
 70
     0
  0
APPID
  2
ACDBATTR
 70
     0
  0
ENDTAB
  0
TABLE
  2
DIMSTYLE
 70
     1
  0
DIMSTYLE
  2
STANDARD
 70
     0
  3

  4

  5

  6

  7

 40
1.0
 41
0.1875
 42
0.0625
 43
0.38
 44
0.125
 45
0.0
 46
0.0
 47
0.01
 48
0.01
140
0.15625
141
0.09
142
0.0
143
25.3999999999999986
144
1.0
145
0.0
146
1.0
147
0.09
 71
     1
 72
     0
 73
     1
 74
     1
 75
     0
 76
     0
 77
     0
 78
     4
170
     0
171
     2
172
     0
173
     0
174
     0
175
     0
176
     0
177
     0
178
     0
  0
ENDTAB
  0
ENDSEC
  0
SECTION
  2
BLOCKS
  0
BLOCK
  8
0
  2
$MODEL_SPACE
 70
     0
 10
0.0
 20
0.0
 30
0.0
  3
$MODEL_SPACE
  1

  0
ENDBLK
  5
21
  8
0
  0
BLOCK
 67
     1
  8
0
  2
$PAPER_SPACE
 70
     0
 10
0.0
 20
0.0
 30
0.0
  3
$PAPER_SPACE
  1

  0
ENDBLK
  5
1D
 67
     1
  8
0
  0
BLOCK
  8
0
  2
_FILLED
 70
     0
 10
0.0
 20
0.0
 30
0.0
  3
_FILLED
  1

  0
SOLID
  5
A467
  8
0
  6
BYBLOCK
 62
     0
 10
0.0
 20
0.0
 30
0.0
 11
-1.0
 21
0.1666666667
 31
0.0
 12
-1.0
 22
-0.1666666667
 32
0.0
 13
-1.0
 23
-0.1666666667
 33
0.0
  0
ENDBLK
  5
A468
  8
0
  6
BYBLOCK
 62
     0
  0
ENDSEC
  0
SECTION
  2
ENTITIES
  0
ATTDEF
  5
9F01
  8
DEFPOINTS
 10
3428.5319962068010682
 20
172.6708701540269999
 30
0.0
 40
0.001
  1
K-14415T-4
  3

  2
MODELNUMBER
 70
     0
1001
ACDBATTR
1070
     0
1070
     1
  0
ATTDEF
  5
9F02
  8
DEFPOINTS
 10
3428.5319962068010682
 20
172.6692034873603916
 30
0.0
 40
0.001
  1
PURIST
  3

  2
TRADENAME
 70
     0
1001
ACDBATTR
1070
     0
1070
     1
  0
ATTDEF
  5
9F03
  8
DEFPOINTS
 10
3428.5319962068010682
 20
172.667536820693698
 30
0.0
 40
0.001
  1
BATHROOM SINK FAUCET
  3

  2
PRODUCT
 70
     0
1001
ACDBATTR
1070
     0
1070
     1
  0
ARC
  5
A99E
  8
0
 10
3432.4684703072689445
 20
172.66693812145121
 30
0.0
 40
0.9900000000000002
 50
168.4636381127290008
 51
191.5363618872709139
  0
ARC
  5
A99F
  8
0
 10
3432.4684703072689445
 20
172.66693812145121
 30
0.0
 40
0.9900000000000002
 50
195.5265822329382104
 51
344.4737320270450027
  0
ARC
  5
A9A0
  8
0
 10
3432.4684703072689445
 20
172.66693812145121
 30
0.0
 40
0.9900000000000002
 50
15.5263254422336701
 51
164.4736745577662873
  0
LINE
  5
A9A2
  8
0
 10
3431.5084703072698176
 20
172.9319424133630889
 30
0.0
 11
3434.6384703072690172
 21
172.9319424133630889
 31
0.0
  0
ARC
  5
A9A3
  8
0
 10
3434.638462976719893
 20
172.9219350850383989
 30
0.0
 40
0.0100073310095792
 50
0.0173846193304526
 51
89.958029813128249
  0
LINE
  5
A9A4
  8
0
 10
3434.6484703072687807
 20
172.9219381214512055
 30
0.0
 11
3434.6484703072687807
 21
172.4119381488756062
 31
0.0
  0
ARC
  5
A9A5
  8
0
 10
3434.638470279844114
 20
172.4119381488756062
 30
0.0
 40
0.0100000274244323
 50
270.0001571299943066
 51
0.0000000000081422
  0
LINE
  5
A9A6
  8
0
 10
3434.6384703072690172
 20
172.4019381214511952
 30
0.0
 11
3431.5084703072811863
 21
172.4019295376274101
 31
0.0
  0
ARC
  5
A9A7
  8
0
 10
3431.5084702810408999
 20
172.4119295168015924
 30
0.0
 40
0.0099999791742831
 50
179.9505417512162921
 51
270.0001503412848933
  0
LINE
  5
A9A8
  8
0
 10
3431.4984703055929458
 20
172.4119381488754073
 30
0.0
 11
3431.4984703055929458
 21
172.9219379313169895
 31
0.0
  0
ARC
  5
A9A9
  8
0
 10
3431.5084776388957835
 20
172.921935082338905
 30
0.0
 40
0.0100073337098807
 50
90.0419763537517071
 51
179.9836885199457868
  0
ARC
  5
A9AA
  8
0
 10
3432.4684703072689445
 20
172.66693812145121
 30
0.0
 40
0.5449999999999995
 50
29.0941659314739596
 51
150.9058340685259907
  0
ARC
  5
A9AB
  8
0
 10
3432.4684703072689445
 20
172.66693812145121
 30
0.0
 40
0.5449999999999995
 50
209.093649570996206
 51
330.906350429003794
  0
ARC
  5
A9AC
  8
0
 10
3428.5314624332690983
 20
172.66693812145121
 30
0.0
 40
0.9900000000000002
 50
292.2586212738391964
 51
247.7413787261608036
  0
LINE
  5
A9AD
  8
0
 10
3428.1564624332690983
 20
172.66693812145121
 30
0.0
 11
3428.1564624332690983
 21
171.7235302801512091
 31
0.0
  0
ARC
  5
A9AE
  8
0
 10
3428.3011550894248103
 20
171.7205242891830892
 30
0.0
 40
0.1447238775293644
 50
134.8555121462927104
 51
178.8098509736311996
  0
ARC
  5
A9AF
  8
0
 10
3428.4444807670211048
 20
171.5764739083319057
 30
0.0
 40
0.3479300833445055
 50
108.422590465747902
 51
134.8555121462927104
  0
ARC
  5
A9B0
  8
0
 10
3428.5321530112501023
 20
171.3132679494044055
 30
0.0
 40
0.6253535849142821
 50
90.0638216037191768
 51
108.422590465747902
  0
ARC
  5
A9B1
  8
0
 10
3428.5321434873631006
 20
171.3218180059172937
 30
0.0
 40
0.6168035230970049
 50
71.4117532571267191
 51
90.0638216037191768
  0
ARC
  5
A9B2
  8
0
 10
3428.7624278908087945
 20
171.7208063450347026
 30
0.0
 40
0.1440602972510321
 50
1.083430272630534
 51
45.2532978604856666
  0
LINE
  5
A9B3
  8
0
 10
3428.9064624332690983
 20
171.7235302801512091
 30
0.0
 11
3428.9064624332690983
 21
172.66693812145121
 31
0.0
  0
ARC
  5
A9B4
  8
0
 10
3428.5314624332690983
 20
172.66693812145121
 30
0.0
 40
0.3750000000000009
 50
0.0
 51
180.0
  0
ARC
  5
A9B5
  8
0
 10
3428.5314624332690983
 20
172.66693812145121
 30
0.0
 40
0.3800000000000013
 50
350.7920395950994248
 51
189.1923754272980034
  0
ARC
  5
A9B6
  8
0
 10
3428.5314624332690983
 20
172.66693812145121
 30
0.0
 40
0.4300000000000006
 50
330.7317251979043817
 51
209.2701447656993139
  0
ARC
  5
A9B7
  8
0
 10
3428.4444807670211048
 20
171.8705866519705978
 30
0.0
 40
0.3479300833445055
 50
225.1444878537072896
 51
251.5774095342520127
  0
ARC
  5
A9B8
  8
0
 10
3428.535631187159197
 20
172.1551584977285074
 30
0.0
 40
0.646732899582349
 50
251.8832496322042118
 51
269.6295434691259061
  0
ARC
  5
A9B9
  8
0
 10
3428.5295389223288112
 20
172.1412082790249087
 30
0.0
 40
0.6327720473797037
 50
270.1730109163373754
 51
288.3509563086324192
  0
ARC
  5
A9BA
  8
0
 10
3428.6169753948879588
 20
171.872998486934307
 30
0.0
 40
0.3506766321250656
 50
288.5882467428733094
 51
314.7467021395144116
  0
ARC
  5
A9BB
  8
0
 10
3428.7624278908087945
 20
171.7262542152678009
 30
0.0
 40
0.1440602972510321
 50
314.7467021395144116
 51
358.9165697273695059
  0
ARC
  5
A9BC
  8
0
 10
3428.3011550894248103
 20
171.7265362711193859
 30
0.0
 40
0.1447238775293644
 50
181.1901490263688004
 51
225.1444878537072896
  0
ARC
  5
A9BD
  8
0
 10
3428.5314496287419388
 20
171.4487840235464091
 30
0.0
 40
0.4103012541180586
 50
90.0008922454923947
 51
94.2095640031405139
  0
ARC
  5
A9BE
  8
0
 10
3428.5290449242138493
 20
171.4747564409913139
 30
0.0
 40
0.3842227021716678
 50
94.1362380029148653
 51
103.153520360093097
  0
ARC
  5
A9BF
  8
0
 10
3428.5108591281809822
 20
171.5489548032277014
 30
0.0
 40
0.3078337459230693
 50
103.0001495279092012
 51
114.6100691511060035
  0
ARC
  5
A9C0
  8
0
 10
3428.479154442194158
 20
171.6199301133511881
 30
0.0
 40
0.2301036719792036
 50
114.7924054471569946
 51
122.8533803924386945
  0
ARC
  5
A9C1
  8
0
 10
3428.4430250832160709
 20
171.6742264590673983
 30
0.0
 40
0.16489397617692
 50
122.5421840287754947
 51
137.4572637518666056
  0
ARC
  5
A9C2
  8
0
 10
3428.4046171063278052
 20
171.7099202127965043
 30
0.0
 40
0.1124625160975028
 50
137.6248956561620105
 51
153.0651723013602066
  0
ARC
  5
A9C3
  8
0
 10
3428.3829642141758995
 20
171.7213207118487048
 30
0.0
 40
0.0879950365418011
 50
153.2966764343142074
 51
166.7565650736474936
  0
ARC
  5
A9C4
  8
0
 10
3428.3738922127008664
 20
171.7235669351667866
 30
0.0
 40
0.078649789960792
 50
166.8353819448294928
 51
179.9797143671835045
  0
ARC
  5
A9C5
  8
0
 10
3428.6184440994547913
 20
171.5764739083319057
 30
0.0
 40
0.3479300833445055
 50
45.1444878537072967
 51
71.5774095342520553
  0
ARC
  5
A9C6
  8
0
 10
3428.5314751889450235
 20
171.448783138712713
 30
0.0
 40
0.4103021401459892
 50
85.7904382722933008
 51
90.004461544374621
  0
ARC
  5
A9C7
  8
0
 10
3428.5338799422611373
 20
171.4747564409913139
 30
0.0
 40
0.3842227021716678
 50
76.8464796399068746
 51
85.8637619970851205
  0
ARC
  5
A9C8
  8
0
 10
3428.5520657382940044
 20
171.5489548032277014
 30
0.0
 40
0.3078337459230693
 50
65.389930848894025
 51
76.999850472090742
  0
ARC
  5
A9C9
  8
0
 10
3428.5837704242821928
 20
171.6199301133511881
 30
0.0
 40
0.2301036719792036
 50
57.1466196075612984
 51
65.2075945528430054
  0
ARC
  5
A9CA
  8
0
 10
3428.6198997832589157
 20
171.6742264590673983
 30
0.0
 40
0.16489397617692
 50
42.5427362481333731
 51
57.4578159712244982
  0
ARC
  5
A9CB
  8
0
 10
3428.6583077601471814
 20
171.7099202127965043
 30
0.0
 40
0.1124625160975028
 50
26.9348276986397792
 51
42.3751043438379966
  0
ARC
  5
A9CC
  8
0
 10
3428.6799606522999966
 20
171.7213207118487048
 30
0.0
 40
0.0879950365418011
 50
13.2434349263524602
 51
26.7033235656858103
  0
ARC
  5
A9CD
  8
0
 10
3428.6890340489380833
 20
171.7235670961327969
 30
0.0
 40
0.0786483948032315
 50
0.0201687280294729
 51
13.1647353533034508
  0
ARC
  5
A9CE
  8
0
 10
3428.5314496443102144
 20
171.9984058212806985
 30
0.0
 40
0.410301536906925
 50
265.7904367235685754
 51
270.0035649988237765
  0
ARC
  5
A9CF
  8
0
 10
3428.5290449242138493
 20
171.9724331214279118
 30
0.0
 40
0.3842227021716678
 50
256.8464796399068177
 51
265.8637619970850778
  0
ARC
  5
A9D0
  8
0
 10
3428.5108591281809822
 20
171.8982347591914106
 30
0.0
 40
0.3078337459230693
 50
245.3899308488940108
 51
256.9998504720908272
  0
ARC
  5
A9D1
  8
0
 10
3428.479154442194158
 20
171.8272594490680092
 30
0.0
 40
0.2301036719792036
 50
237.1466196075612913
 51
245.2075945528430054
  0
ARC
  5
A9D2
  8
0
 10
3428.4430250832160709
 20
171.7729631033517137
 30
0.0
 40
0.16489397617692
 50
222.5427362481333944
 51
237.4578159712245053
  0
ARC
  5
A9D3
  8
0
 10
3428.4046171063278052
 20
171.7372693496226077
 30
0.0
 40
0.1124625160975028
 50
206.9348276986397934
 51
222.3751043438379895
  0
ARC
  5
A9D4
  8
0
 10
3428.3829642141758995
 20
171.7258688505704924
 30
0.0
 40
0.0879950365418011
 50
193.2434349263523927
 51
206.7033235656857926
  0
ARC
  5
A9D5
  8
0
 10
3428.3738922127008664
 20
171.723622627252297
 30
0.0
 40
0.0786497899607866
 50
180.0202856328147902
 51
193.1646180551705072
  0
ARC
  5
A9D6
  8
0
 10
3428.531475222165227
 20
171.9984058212806985
 30
0.0
 40
0.410301536906925
 50
269.9964350011762235
 51
274.2095632764314246
  0
ARC
  5
A9D7
  8
0
 10
3428.5338799422611373
 20
171.9724331214279118
 30
0.0
 40
0.3842227021716678
 50
274.1362380029149222
 51
283.1535203600931254
  0
ARC
  5
A9D8
  8
0
 10
3428.5520657382940044
 20
171.8982347591914106
 30
0.0
 40
0.3078337459230693
 50
283.0001495279091728
 51
294.610069151105904
  0
ARC
  5
A9D9
  8
0
 10
3428.5837704242821928
 20
171.8272594490680092
 30
0.0
 40
0.2301036719792036
 50
294.792405447157023
 51
302.8533803924386802
  0
ARC
  5
A9DA
  8
0
 10
3428.6198997832589157
 20
171.7729631033517137
 30
0.0
 40
0.16489397617692
 50
302.5421840287755231
 51
317.4572637518666056
  0
ARC
  5
A9DB
  8
0
 10
3428.6583077601471814
 20
171.7372693496226077
 30
0.0
 40
0.1124625160975028
 50
317.6248956561619821
 51
333.0651723013601782
  0
ARC
  5
A9DC
  8
0
 10
3428.6799606522999966
 20
171.7258688505704924
 30
0.0
 40
0.0879950365418011
 50
333.296676434314179
 51
346.7565650736474936
  0
ARC
  5
A9DD
  8
0
 10
3428.6890340489380833
 20
171.7236224662862867
 30
0.0
 40
0.0786483948032315
 50
346.8352646466966007
 51
359.9798312719705109
  0
ARC
  5
A9DE
  8
0
 10
3428.528634094725021
 20
171.4709016514358098
 30
0.0
 40
0.3966614459920657
 50
89.594160693198944
 51
110.1026454794810974
  0
ARC
  5
A9DF
  8
0
 10
3428.4734296597530374
 20
171.621732625416513
 30
0.0
 40
0.236045405845322
 50
110.1025908397022022
 51
130.731649677825601
  0
ARC
  5
A9E0
  8
0
 10
3428.3988485793688596
 20
171.7083443095031896
 30
0.0
 40
0.1217478933108843
 50
130.731649677825601
 51
150.5157790212479938
  0
ARC
  5
A9E1
  8
0
 10
3428.3806591457841932
 20
171.718628784141913
 30
0.0
 40
0.100852297776404
 50
150.5157790212493865
 51
167.1686068879918992
  0
ARC
  5
A9E2
  8
0
 10
3428.3642228423200322
 20
171.7235342671235117
 30
0.0
 40
0.0837446828980649
 50
167.9436352171651095
 51
179.9585979441916948
  0
ARC
  5
A9E3
  8
0
 10
3428.5279333727198718
 20
171.4708852645512138
 30
0.0
 40
0.4131326388658475
 50
89.5130295331741195
 51
109.367640130591397
  0
ARC
  5
A9E4
  8
0
 10
3428.4779770805721455
 20
171.6130041818443033
 30
0.0
 40
0.2624892925981362
 50
109.3679440791332951
 51
128.1859733991329051
  0
ARC
  5
A9E5
  8
0
 10
3428.4004028894228213
 20
171.7116330689802055
 30
0.0
 40
0.1370085669460918
 50
128.1859733991329051
 51
152.1935815200803006
  0
ARC
  5
A9E6
  8
0
 10
3428.3600169012720471
 20
171.7329319671636085
 30
0.0
 40
0.0913503683104357
 50
152.1935815200789079
 51
179.788104906153194
  0
ARC
  5
A9E7
  8
0
 10
3428.3568047031008064
 20
171.7329438467843943
 30
0.0
 40
0.0881381481718536
 50
179.788104906153194
 51
186.0889822066407078
  0
ARC
  5
A9E8
  8
0
 10
3428.5308151982558229
 20
171.3883088317545003
 30
0.0
 40
0.5101625531003839
 50
89.9292162047756278
 51
104.4506703774462011
  0
ARC
  5
A9E9
  8
0
 10
3428.4964547323138504
 20
171.5216443662143888
 30
0.0
 40
0.3724708453999201
 50
104.4506703774462011
 51
117.1693034529596957
  0
ARC
  5
A9EA
  8
0
 10
3428.4430570868971699
 20
171.6256820111040895
 30
0.0
 40
0.2555300907835621
 50
117.1693034529596957
 51
131.7634523072634067
  0
ARC
  5
A9EB
  8
0
 10
3428.3759426945539417
 20
171.7008418058663892
 30
0.0
 40
0.1547663254299552
 50
131.763452307262412
 51
154.7110284727372971
  0
ARC
  5
A9EC
  8
0
 10
3428.3253401473762096
 20
171.724749604912887
 30
0.0
 40
0.0988002586020753
 50
154.7110284727372971
 51
176.5443175242471909
  0
ARC
  5
A9ED
  8
0
 10
3428.3736372887251491
 20
171.7218331203812909
 30
0.0
 40
0.1471853776419286
 50
176.5443175242471909
 51
179.3142108127806011
  0
ARC
  5
A9EE
  8
0
 10
3428.4430833647470536
 20
171.7564541043734039
 30
0.0
 40
0.1757939424956253
 50
157.8981968289554061
 51
187.207060127803004
  0
ARC
  5
A9EF
  8
0
 10
3428.5080284293248951
 20
171.8501500191134994
 30
0.0
 40
0.263511671837739
 50
192.7156095344666937
 51
204.3296797294061946
  0
ARC
  5
A9F0
  8
0
 10
3428.3655082878240137
 20
171.792151344505811
 30
0.0
 40
0.1107398302413399
 50
177.3515832349490893
 51
191.5605970820035111
  0
ARC
  5
A9F1
  8
0
 10
3428.3542401508771036
 20
171.7960580996104056
 30
0.0
 40
0.1295127133375507
 50
198.3953549224042092
 51
217.0838371794644956
  0
ARC
  5
A9F2
  8
0
 10
3428.3950228531771245
 20
171.8268837340013135
 30
0.0
 40
0.1806346121919987
 50
217.0838371794644956
 51
230.4289105087075029
  0
ARC
  5
A9F3
  8
0
 10
3428.5342380483048146
 20
171.4709051313612918
 30
0.0
 40
0.3966578581483655
 50
69.8973080144218955
 51
90.4036343906748243
  0
ARC
  5
A9F4
  8
0
 10
3428.589441552469907
 20
171.621732625416513
 30
0.0
 40
0.236045405845322
 50
49.2683503221690628
 51
69.8974091602961067
  0
ARC
  5
A9F5
  8
0
 10
3428.6640226328549943
 20
171.7083443095031896
 30
0.0
 40
0.1217478933108843
 50
29.4842209787420693
 51
49.2683503221690628
  0
ARC
  5
A9F6
  8
0
 10
3428.6822120664401154
 20
171.7186287841417993
 30
0.0
 40
0.100852297776404
 50
12.8313931119969098
 51
29.4842209787420693
  0
ARC
  5
A9F7
  8
0
 10
3428.6986483669320478
 20
171.7235342666498923
 30
0.0
 40
0.083744685903627
 50
0.0414180059035788
 51
12.0563646749205606
  0
ARC
  5
A9F8
  8
0
 10
3428.5349391170179842
 20
171.4708902375961941
 30
0.0
 40
0.4131275235851805
 50
70.632298294338753
 51
90.484646955105049
  0
ARC
  5
A9F9
  8
0
 10
3428.5848941316530727
 20
171.6130041818443033
 30
0.0
 40
0.2624892925981362
 50
51.8140266008631016
 51
70.6320559208410259
  0
ARC
  5
A9FA
  8
0
 10
3428.6624683228019421
 20
171.7116330689802055
 30
0.0
 40
0.1370085669460918
 50
27.8064184799110592
 51
51.8140266008631016
  0
ARC
  5
A9FB
  8
0
 10
3428.7028543109518068
 20
171.7329319671636085
 30
0.0
 40
0.0913503683104357
 50
0.211895093835352
 51
27.8064184799110592
  0
ARC
  5
A9FC
  8
0
 10
3428.7060665091239571
 20
171.7329438467843943
 30
0.0
 40
0.0881381481718536
 50
353.9110177933479235
 51
0.211895093835352
  0
ARC
  5
A9FD
  8
0
 10
3428.5320562951537795
 20
171.3883103029480139
 30
0.0
 40
0.5101610582824336
 50
75.5493189710036575
 51
90.0686026295879145
  0
ARC
  5
A9FE
  8
0
 10
3428.566416479910913
 20
171.5216443662143888
 30
0.0
 40
0.3724708453999201
 50
62.830696547038059
 51
75.5493296225529889
  0
ARC
  5
A9FF
  8
0
 10
3428.6198141253271388
 20
171.6256820111040895
 30
0.0
 40
0.2555300907835621
 50
48.2365476927116816
 51
62.830696547038059
  0
ARC
  5
AA00
  8
0
 10
3428.6869285176699123
 20
171.7008418058663892
 30
0.0
 40
0.1547663254299552
 50
25.2889715272413191
 51
48.2365476927127617
  0
ARC
  5
AA01
  8
0
 10
3428.737531064848099
 20
171.7247496049128017
 30
0.0
 40
0.0988002586020753
 50
3.4556824757397799
 51
25.2889715272413191
  0
ARC
  5
AA02
  8
0
 10
3428.6892339235000691
 20
171.7218331203812909
 30
0.0
 40
0.1471853776419286
 50
0.6857891872064111
 51
3.4556824757397799
  0
ARC
  5
AA03
  8
0
 10
3428.6197878474768004
 20
171.7564541043732902
 30
0.0
 40
0.1757939424956253
 50
352.7929398721856273
 51
22.101803171034021
  0
ARC
  5
AA04
  8
0
 10
3428.5548427828989588
 20
171.8501500191134994
 30
0.0
 40
0.263511671837739
 50
335.6703202705726881
 51
347.2843904655221081
  0
ARC
  5
AA05
  8
0
 10
3428.6973629244012045
 20
171.792151344505811
 30
0.0
 40
0.1107398302413399
 50
348.4394029179837275
 51
2.6484167650395358
  0
ARC
  5
AA06
  8
0
 10
3428.7086310613472051
 20
171.7960580996102919
 30
0.0
 40
0.1295127133375507
 50
322.9161628205276884
 51
341.6046450775767198
  0
ARC
  5
AA07
  8
0
 10
3428.6678483590471842
 20
171.8268837340013135
 30
0.0
 40
0.1806346121919987
 50
309.5959363862916121
 51
322.9161628205276884
  0
ARC
  5
AA08
  8
0
 10
3428.528634094725021
 20
171.9762879109833875
 30
0.0
 40
0.3966614459920657
 50
249.8973545205188884
 51
270.4058393068009991
  0
ARC
  5
AA09
  8
0
 10
3428.4734296597530374
 20
171.825456937002599
 30
0.0
 40
0.236045405845322
 50
229.268350322174399
 51
249.8974091602977978
  0
ARC
  5
AA0A
  8
0
 10
3428.3988485793688596
 20
171.7388452529160077
 30
0.0
 40
0.1217478933108843
 50
209.4842209787520062
 51
229.268350322174399
  0
ARC
  5
AA0B
  8
0
 10
3428.3806591457841932
 20
171.7285607782773127
 30
0.0
 40
0.100852297776404
 50
192.8313931120079872
 51
209.4842209787506135
  0
ARC
  5
AA0C
  8
0
 10
3428.3642228423200322
 20
171.7236552952956004
 30
0.0
 40
0.0837446828980004
 50
180.0414020558050083
 51
192.0563647828396086
  0
ARC
  5
AA0D
  8
0
 10
3428.5308151982558229
 20
172.0588807306646117
 30
0.0
 40
0.5101625531003839
 50
255.5493296225538984
 51
270.0707837952243722
  0
ARC
  5
AA0E
  8
0
 10
3428.4964547323138504
 20
171.9255451962046948
 30
0.0
 40
0.3724708453999201
 50
242.8306965470401906
 51
255.5493296225538984
  0
ARC
  5
AA0F
  8
0
 10
3428.4430570868971699
 20
171.8215075513151078
 30
0.0
 40
0.2555300907835621
 50
228.2365476927365933
 51
242.8306965470401906
  0
ARC
  5
AA10
  8
0
 10
3428.3759426945539417
 20
171.7463477565526944
 30
0.0
 40
0.1547663254299552
 50
205.2889715272627029
 51
228.2365476927365933
  0
ARC
  5
AA11
  8
0
 10
3428.3267061491419554
 20
171.7229325739909882
 30
0.0
 40
0.1002458822664032
 50
179.6215110897796023
 51
205.2100244534196065
  0
ARC
  5
AA12
  8
0
 10
3428.5342380483048146
 20
171.9762844310577918
 30
0.0
 40
0.3966578581483655
 50
269.5963656093251757
 51
290.1026919855780761
  0
ARC
  5
AA13
  8
0
 10
3428.589441552469907
 20
171.825456937002599
 30
0.0
 40
0.236045405845322
 50
290.1025908397039075
 51
310.7316496778310011
  0
ARC
  5
AA14
  8
0
 10
3428.6640226328549943
 20
171.7388452529160077
 30
0.0
 40
0.1217478933108843
 50
310.7316496778310011
 51
330.515779021257913
  0
ARC
  5
AA15
  8
0
 10
3428.6885174566600654
 20
171.7255774041636016
 30
0.0
 40
0.0938965076693279
 50
330.206765379558874
 51
358.790124743598426
  0
ARC
  5
AA16
  8
0
 10
3428.5320562951537795
 20
172.0588792594712118
 30
0.0
 40
0.5101610582824336
 50
269.9313973704121281
 51
284.4506810289963141
  0
ARC
  5
AA17
  8
0
 10
3428.566416479910913
 20
171.9255451962046948
 30
0.0
 40
0.3724708453999201
 50
284.4506703774470111
 51
297.1693034529619126
  0
ARC
  5
AA18
  8
0
 10
3428.6198141253271388
 20
171.8215075513151078
 30
0.0
 40
0.2555300907835621
 50
297.1693034529619126
 51
311.7634523072882757
  0
ARC
  5
AA19
  8
0
 10
3428.6869285176699123
 20
171.7463477565526944
 30
0.0
 40
0.1547663254299552
 50
311.7634523072873094
 51
334.7110284727586986
  0
ARC
  5
AA1A
  8
0
 10
3428.7361650630818986
 20
171.7229325739911019
 30
0.0
 40
0.1002458822663946
 50
334.7899755465907106
 51
0.3784889101633885
  0
ARC
  5
AA1B
  8
0
 10
3428.3721310032951806
 20
171.7349004291849894
 30
0.0
 40
0.1035860169718802
 50
186.2658930102155921
 51
207.1422924666414076
  0
ARC
  5
AA1C
  8
0
 10
3428.3972166085509343
 20
171.7477607563976107
 30
0.0
 40
0.13177600822893
 50
207.1422924666414076
 51
226.8313478808175034
  0
ARC
  5
AA1D
  8
0
 10
3428.4591640806797841
 20
171.8138004835045933
 30
0.0
 40
0.2223228737717689
 50
226.8313478808175034
 51
243.6570423463213899
  0
ARC
  5
AA1E
  8
0
 10
3428.508201384197946
 20
171.9128329284835104
 30
0.0
 40
0.3328311643873377
 50
243.6570423463213899
 51
259.1151256302476895
  0
ARC
  5
AA1F
  8
0
 10
3428.5345678728408529
 20
172.049947091848793
 30
0.0
 40
0.4724573994533706
 50
259.1151256302476895
 51
269.6191432999490871
  0
ARC
  5
AA20
  8
0
 10
3428.5341784480219758
 20
171.9913631942924042
 30
0.0
 40
0.4138722075992644
 50
269.6191432999490871
 51
282.1762706636707208
  0
ARC
  5
AA21
  8
0
 10
3428.5437615233790893
 20
171.946950672352898
 30
0.0
 40
0.3684375574045293
 50
282.1762706636707208
 51
294.409698507801977
  0
ARC
  5
AA22
  8
0
 10
3428.606222364749101
 20
171.809318442866811
 30
0.0
 40
0.217295282385644
 50
294.409698507801977
 51
304.5593287867289973
  0
ARC
  5
AA23
  8
0
 10
3428.6212762960749387
 20
171.7874633526514003
 30
0.0
 40
0.190757275363409
 50
304.5593287867289973
 51
324.8175436777952996
  0
ARC
  5
AA24
  8
0
 10
3428.7269064963797973
 20
171.7129978708694864
 30
0.0
 40
0.0615177798775938
 50
324.8175436777952996
 51
335.7120438593772747
  0
ARC
  5
AA25
  8
0
 10
3428.6851174335361065
 20
171.7373837488264883
 30
0.0
 40
0.1097542704693284
 50
333.0807394849414891
 51
342.5306725844366724
  0
ARC
  5
AA26
  8
0
 10
3428.7001482731011492
 20
171.7326533883334037
 30
0.0
 40
0.0939966548991958
 50
342.5306725844366724
 51
354.4697315919303264
  0
LINE
  5
AA27
  8
0
 10
3428.5441658376521445
 20
171.8532407839512075
 30
0.0
 11
3428.5187334509691937
 21
171.8532407839512075
 31
0.0
  0
LINE
  5
AA28
  8
0
 10
3428.5187334509691937
 20
171.8532407839512075
 30
0.0
 11
3428.5187334509691937
 21
171.8588881785157128
 31
0.0
  0
LINE
  5
AA29
  8
0
 10
3428.5132566981228592
 20
171.8586817381464016
 30
0.0
 11
3428.5187334509691937
 21
171.8532407839512075
 31
0.0
  0
ARC
  5
AA2A
  8
0
 10
3428.5077575129598699
 20
171.8537749045804901
 30
0.0
 40
0.0109889262444431
 50
317.7534501526844792
 51
357.2140207575533282
  0
LINE
  5
AA2B
  8
0
 10
3428.5013016726747992
 20
171.857976178744309
 30
0.0
 11
3428.5112675905688775
 21
171.8480754028512081
 31
0.0
  0
ARC
  5
AA2C
  8
0
 10
3428.5156473924780585
 20
171.8528934217611095
 30
0.0
 40
0.0065112188551108
 50
227.7277127222816091
 51
272.15435340119069
  0
ARC
  5
AA2D
  8
0
 10
3428.5181096534520293
 20
171.8483878976988137
 30
0.0
 40
0.0029869126874674
 50
222.0634744218814092
 51
253.3102153895916899
  0
ARC
  5
AA2E
  8
0
 10
3428.5177491285739961
 20
171.8491392063137937
 30
0.0
 40
0.0036464615559363
 50
262.1618691338230178
 51
272.7041879078910256
  0
LINE
  5
AA2F
  8
0
 10
3428.5179211666691117
 20
171.8454968053511891
 30
0.0
 11
3428.5453022684391726
 21
171.8454959186616975
 31
0.0
  0
LINE
  5
AA30
  8
0
 10
3428.5441476209698521
 20
171.8223048222347984
 30
0.0
 11
3428.5187534105571103
 21
171.8223048222347984
 31
0.0
  0
LINE
  5
AA31
  8
0
 10
3428.5187534105571103
 20
171.8223048222347984
 30
0.0
 11
3428.5187534105571103
 21
171.8360100713512111
 31
0.0
  0
LINE
  5
AA32
  8
0
 10
3428.5066650014791776
 20
171.8343142157469003
 30
0.0
 11
3428.5187534105571103
 21
171.8223048222347984
 31
0.0
  0
ARC
  5
AA33
  8
0
 10
3428.5077774725491508
 20
171.8228389428641094
 30
0.0
 40
0.0109889262444431
 50
317.7534501526844792
 51
357.2140207575533282
  0
LINE
  5
AA34
  8
0
 10
3428.4983138822490218
 20
171.830028306951192
 30
0.0
 11
3428.5112875501581584
 21
171.817139441134799
 31
0.0
  0
ARC
  5
AA35
  8
0
 10
3428.5156673520668846
 20
171.8219574600445867
 30
0.0
 40
0.0065112188551108
 50
227.7277127222816091
 51
272.15435340119069
  0
ARC
  5
AA36
  8
0
 10
3428.5181296130408555
 20
171.8174519359824046
 30
0.0
 40
0.0029869126874674
 50
222.0634744218814092
 51
253.3102153895916899
  0
ARC
  5
AA37
  8
0
 10
3428.5177690881619128
 20
171.818203244597413
 30
0.0
 40
0.0036464615559363
 50
262.1618691338230178
 51
272.7041879078910256
  0
LINE
  5
AA38
  8
0
 10
3428.5179411262570284
 20
171.8145608436348084
 30
0.0
 11
3428.5452856417018666
 21
171.8145600976201024
 31
0.0
  0
LINE
  5
AA39
  8
0
 10
3428.5187334509691937
 20
171.8360100713512111
 30
0.0
 11
3428.5441658376521445
 21
171.8360100713512111
 31
0.0
  0
LINE
  5
AA3A
  8
0
 10
3428.5187334509691937
 20
171.8360100713512111
 30
0.0
 11
3428.5135527328689022
 21
171.8411569257511928
 31
0.0
  0
LINE
  5
AA3B
  8
0
 10
3428.5179211666691117
 20
171.8454968053511891
 30
0.0
 11
3428.5049464569688098
 21
171.832606904451211
 31
0.0
  0
ARC
  5
AA3C
  8
0
 10
3428.5008030122799028
 20
171.8367776108370037
 30
0.0
 40
0.0058790242086806
 50
265.3058032771367039
 51
314.8121305993802821
  0
ARC
  5
AA3D
  8
0
 10
3428.5084599115571109
 20
171.83830780609469
 30
0.0
 40
0.0109923673458415
 50
182.7924118772415056
 51
222.2401172125449023
  0
LINE
  5
AA3E
  8
0
 10
3428.4974805965689484
 20
171.8377722855512104
 30
0.0
 11
3428.4974805965689484
 21
171.8514785697512082
 31
0.0
  0
LINE
  5
AA3F
  8
0
 10
3428.4974805965689484
 20
171.8514785697512082
 30
0.0
 11
3428.5026613145528245
 21
171.8566254241353874
 31
0.0
  0
LINE
  5
AA40
  8
0
 10
3428.4974805965689484
 20
171.8377722855512104
 30
0.0
 11
3428.5095595467691965
 21
171.849772282051191
 31
0.0
  0
ARC
  5
AA41
  8
0
 10
3428.4984330247480102
 20
171.8324697155530885
 30
0.0
 40
0.0024443139929465
 50
267.2061411615691782
 51
320.6021802013877959
  0
LINE
  5
AA42
  8
0
 10
3428.5441476209698521
 20
171.7913678237734985
 30
0.0
 11
3428.5187516676510313
 21
171.7913678237734985
 31
0.0
  0
LINE
  5
AA43
  8
0
 10
3428.5187516676510313
 20
171.7913678237734985
 30
0.0
 11
3428.5187516676510313
 21
171.8050730728899964
 31
0.0
  0
LINE
  5
AA44
  8
0
 10
3428.5066632585730986
 20
171.8033772172857141
 30
0.0
 11
3428.5187516676510313
 21
171.7913678237734985
 31
0.0
  0
ARC
  5
AA45
  8
0
 10
3428.5077757296439813
 20
171.7919019444028947
 30
0.0
 40
0.0109889262444431
 50
317.7534501526844792
 51
357.2140207575533282
  0
LINE
  5
AA46
  8
0
 10
3428.4983121393438523
 20
171.7990913084900058
 30
0.0
 11
3428.5112858072520794
 21
171.7862024426736127
 31
0.0
  0
ARC
  5
AA47
  8
0
 10
3428.5156656091598961
 20
171.7910204615834004
 30
0.0
 40
0.0065112188551108
 50
227.7277127222816091
 51
272.15435340119069
  0
ARC
  5
AA48
  8
0
 10
3428.5181278701347765
 20
171.7865149375211899
 30
0.0
 40
0.0029869126874674
 50
222.0634744218814092
 51
253.3102153895916899
  0
ARC
  5
AA49
  8
0
 10
3428.5177673452558338
 20
171.7872662461361983
 30
0.0
 40
0.0036464615559363
 50
262.1618691338230178
 51
272.7041879078910256
  0
LINE
  5
AA4A
  8
0
 10
3428.5179393833509494
 20
171.7836238451735937
 30
0.0
 11
3428.5452820252321544
 21
171.7836228744407094
 31
0.0
  0
LINE
  5
AA4B
  8
0
 10
3428.5187317080631146
 20
171.8050730728899964
 30
0.0
 11
3428.5441675805582236
 21
171.8050730728899964
 31
0.0
  0
LINE
  5
AA4C
  8
0
 10
3428.5187317080631146
 20
171.8050730728899964
 30
0.0
 11
3428.5135509899641875
 21
171.8102199272900066
 31
0.0
  0
ARC
  5
AA4D
  8
0
 10
3428.4984312818410217
 20
171.8015327170919022
 30
0.0
 40
0.0024443139929465
 50
267.2061411615691782
 51
320.6021802013877959
  0
LINE
  5
AA4E
  8
0
 10
3428.5441241756279851
 20
171.636682839973588
 30
0.0
 11
3428.5187751129928984
 21
171.636682839973588
 31
0.0
  0
LINE
  5
AA4F
  8
0
 10
3428.5187751129928984
 20
171.636682839973588
 30
0.0
 11
3428.5187751129928984
 21
171.6503880890900007
 31
0.0
  0
LINE
  5
AA50
  8
0
 10
3428.5066867039149656
 20
171.6486922334856899
 30
0.0
 11
3428.5187751129928984
 21
171.636682839973588
 31
0.0
  0
ARC
  5
AA51
  8
0
 10
3428.5077991749849389
 20
171.637216960602899
 30
0.0
 40
0.0109889262444431
 50
317.7534501526844792
 51
357.2140207575533282
  0
LINE
  5
AA52
  8
0
 10
3428.4983355846848099
 20
171.64440632469001
 30
0.0
 11
3428.5113092525939464
 21
171.6315174588735886
 31
0.0
  0
ARC
  5
AA53
  8
0
 10
3428.5156890545031274
 20
171.6363354777834047
 30
0.0
 40
0.0065112188551108
 50
227.7277127222816091
 51
272.15435340119069
  0
ARC
  5
AA54
  8
0
 10
3428.5181513154761888
 20
171.6318299537211942
 30
0.0
 40
0.0029869126874674
 50
222.0634744218814092
 51
253.3102153895916899
  0
ARC
  5
AA55
  8
0
 10
3428.5177907905981556
 20
171.6325812623362026
 30
0.0
 40
0.0036464615559363
 50
262.1618691338230178
 51
272.7041879078910256
  0
LINE
  5
AA56
  8
0
 10
3428.5179628286928164
 20
171.628938861373598
 30
0.0
 11
3428.5449792433350922
 21
171.6289367934118104
 31
0.0
  0
LINE
  5
AA57
  8
0
 10
3428.5187551534049817
 20
171.6503880890900007
 30
0.0
 11
3428.5441441352159018
 21
171.6503880890900007
 31
0.0
  0
LINE
  5
AA58
  8
0
 10
3428.5187551534049817
 20
171.6503880890900007
 30
0.0
 11
3428.513574435305145
 21
171.6555349434900108
 31
0.0
  0
ARC
  5
AA59
  8
0
 10
3428.4984547271828887
 20
171.6468477332919065
 30
0.0
 40
0.0024443139929465
 50
267.2061411615691782
 51
320.6021802013877959
  0
LINE
  5
AA5A
  8
0
 10
3428.544154592592804
 20
171.6676198366735946
 30
0.0
 11
3428.5187446960280795
 21
171.6676198366735946
 31
0.0
  0
LINE
  5
AA5B
  8
0
 10
3428.5187446960280795
 20
171.6676198366735946
 30
0.0
 11
3428.5187446960280795
 21
171.6813250857900073
 31
0.0
  0
LINE
  5
AA5C
  8
0
 10
3428.5066562869501468
 20
171.6796292301856965
 30
0.0
 11
3428.5187446960280795
 21
171.6676198366735946
 31
0.0
  0
ARC
  5
AA5D
  8
0
 10
3428.50776875802012
 20
171.6681539573029056
 30
0.0
 40
0.0109889262444431
 50
317.7534501526844792
 51
357.2140207575533282
  0
ARC
  5
AA5E
  8
0
 10
3428.5181208985118246
 20
171.6627669504212008
 30
0.0
 40
0.0029869126874674
 50
222.0634744218814092
 51
253.3102153895916899
  0
ARC
  5
AA5F
  8
0
 10
3428.517760373632882
 20
171.6635182590362092
 30
0.0
 40
0.0036464615559363
 50
262.1618691338230178
 51
272.7041879078910256
  0
LINE
  5
AA60
  8
0
 10
3428.5179324117279975
 20
171.6598758580736046
 30
0.0
 11
3428.5452884639098556
 21
171.6598748654259907
 31
0.0
  0
LINE
  5
AA61
  8
0
 10
3428.5187247364401628
 20
171.6813250857900073
 30
0.0
 11
3428.5441745521811754
 21
171.6813250857900073
 31
0.0
  0
LINE
  5
AA62
  8
0
 10
3428.5187247364401628
 20
171.6813250857900073
 30
0.0
 11
3428.5135440183398714
 21
171.686471940189989
 31
0.0
  0
LINE
  5
AA63
  8
0
 10
3428.5441206898158271
 20
171.6985568334735888
 30
0.0
 11
3428.5187785988050564
 21
171.6985568334735888
 31
0.0
  0
LINE
  5
AA64
  8
0
 10
3428.5187785988050564
 20
171.6985568334735888
 30
0.0
 11
3428.5187785988050564
 21
171.7122620825900015
 31
0.0
  0
LINE
  5
AA65
  8
0
 10
3428.5066901897262142
 20
171.7105662269856907
 30
0.0
 11
3428.5187785988050564
 21
171.6985568334735888
 31
0.0
  0
ARC
  5
AA66
  8
0
 10
3428.5078026607961874
 20
171.6990909541028998
 30
0.0
 40
0.0109889262444431
 50
317.7534501526844792
 51
357.2140207575533282
  0
LINE
  5
AA67
  8
0
 10
3428.4983390704969679
 20
171.7062803181900108
 30
0.0
 11
3428.5113127384038307
 21
171.6933914523735893
 31
0.0
  0
ARC
  5
AA68
  8
0
 10
3428.5156925403139212
 20
171.6982094712834055
 30
0.0
 40
0.0065112188551108
 50
227.7277127222816091
 51
272.15435340119069
  0
ARC
  5
AA69
  8
0
 10
3428.518154801287892
 20
171.693703947221195
 30
0.0
 40
0.0029869126874674
 50
222.0634744218814092
 51
253.3102153895916899
  0
ARC
  5
AA6A
  8
0
 10
3428.5177942764089494
 20
171.6944552558362034
 30
0.0
 40
0.0036464615559363
 50
262.1618691338230178
 51
272.7041879078910256
  0
LINE
  5
AA6B
  8
0
 10
3428.5179663145049744
 20
171.6908128548735988
 30
0.0
 11
3428.5452573110801495
 21
171.6908119761415037
 31
0.0
  0
LINE
  5
AA6C
  8
0
 10
3428.5187586392157755
 20
171.7122620825900015
 30
0.0
 11
3428.544140649405108
 21
171.7122620825900015
 31
0.0
  0
LINE
  5
AA6D
  8
0
 10
3428.5187586392157755
 20
171.7122620825900015
 30
0.0
 11
3428.5135779211159388
 21
171.7174089369900116
 31
0.0
  0
ARC
  5
AA6E
  8
0
 10
3428.4984582129941373
 20
171.7087217267919073
 30
0.0
 40
0.0024443139929465
 50
267.2061411615691782
 51
320.6021802013877959
  0
LINE
  5
AA6F
  8
0
 10
3428.5179194237630327
 20
171.8145598085511949
 30
0.0
 11
3428.5049447140631855
 21
171.8016699076511884
 31
0.0
  0
ARC
  5
AA70
  8
0
 10
3428.5008012693738237
 20
171.8058406140370096
 30
0.0
 40
0.0058790242086806
 50
265.3058032771367039
 51
314.8121305993802821
  0
ARC
  5
AA71
  8
0
 10
3428.5084454670968626
 20
171.8073627554232132
 30
0.0
 40
0.0109775501264639
 50
182.7540985897690007
 51
222.2535618981243033
  0
LINE
  5
AA72
  8
0
 10
3428.4974805965689484
 20
171.8068352887511878
 30
0.0
 11
3428.5095578038631174
 21
171.8188352852511969
 31
0.0
  0
LINE
  5
AA73
  8
0
 10
3428.5179141950447956
 20
171.7217488165900079
 30
0.0
 11
3428.5049394853449485
 21
171.7088589156900014
 31
0.0
  0
ARC
  5
AA74
  8
0
 10
3428.5007960406569509
 20
171.7130296220757941
 30
0.0
 40
0.0058790242086806
 50
265.3058032771367039
 51
314.8121305993802821
  0
ARC
  5
AA75
  8
0
 10
3428.5084023215022171
 20
171.7145277209206995
 30
0.0
 40
0.0109333211502977
 50
182.6391139129605961
 51
222.2939139366696963
  0
LINE
  5
AA76
  8
0
 10
3428.4974805965689484
 20
171.7140242967900008
 30
0.0
 11
3428.5095525751448804
 21
171.7260242932900098
 31
0.0
  0
LINE
  5
AA77
  8
0
 10
3428.5179124521400809
 20
171.6908118197900137
 30
0.0
 11
3428.504937742439779
 21
171.6779219188900072
 31
0.0
  0
ARC
  5
AA78
  8
0
 10
3428.5007942977508719
 20
171.6820926252757999
 30
0.0
 40
0.0058790242086806
 50
265.3058032771367039
 51
314.8121305993802821
  0
ARC
  5
AA79
  8
0
 10
3428.5084511970280801
 20
171.6836228205334862
 30
0.0
 40
0.0109923673458415
 50
182.7924118772415056
 51
222.2401172125449023
  0
LINE
  5
AA7A
  8
0
 10
3428.4974718820390081
 20
171.6830872999900066
 30
0.0
 11
3428.5095508322401656
 21
171.6950872964899872
 31
0.0
  0
LINE
  5
AA7B
  8
0
 10
3428.5179107092340018
 20
171.6598748230900071
 30
0.0
 11
3428.5049359995341547
 21
171.6469849221900006
 31
0.0
  0
ARC
  5
AA7C
  8
0
 10
3428.5007925548447929
 20
171.6511556285757933
 30
0.0
 40
0.0058790242086806
 50
265.3058032771367039
 51
314.8121305993802821
  0
LINE
  5
AA7D
  8
0
 10
3428.450568736519017
 20
171.636682858551211
 30
0.0
 11
3428.4251107719192078
 21
171.636682858551211
 31
0.0
  0
LINE
  5
AA7E
  8
0
 10
3428.4251107719192078
 20
171.636682858551211
 30
0.0
 11
3428.4251107719192078
 21
171.6503881076675952
 31
0.0
  0
LINE
  5
AA7F
  8
0
 10
3428.4130223628399108
 20
171.6486922520633129
 30
0.0
 11
3428.4251107719192078
 21
171.636682858551211
 31
0.0
  0
ARC
  5
AA80
  8
0
 10
3428.4141348339107935
 20
171.6372169791804936
 30
0.0
 40
0.0109889262444431
 50
317.7534501526844792
 51
357.2140207575533282
  0
LINE
  5
AA81
  8
0
 10
3428.4046712436111193
 20
171.6444063432676046
 30
0.0
 11
3428.4176449115188916
 21
171.6315174774512116
 31
0.0
  0
ARC
  5
AA82
  8
0
 10
3428.4220247134280726
 20
171.6363354963609993
 30
0.0
 40
0.0065112188551108
 50
227.7277127222816091
 51
272.15435340119069
  0
ARC
  5
AA83
  8
0
 10
3428.4314064172758663
 20
171.6438395954797898
 30
0.0
 40
0.0167267377498007
 50
236.8900560155668984
 51
242.3629429553035095
  0
LINE
  5
AA84
  8
0
 10
3428.4242984876191258
 20
171.6289388799511926
 30
0.0
 11
3428.4517831028188084
 21
171.6289367761511926
 31
0.0
  0
ARC
  5
AA85
  8
0
 10
3428.4517399992910214
 20
171.6305994479481001
 30
0.0
 40
0.0016632304165147
 50
271.4850177778379816
 51
309.2880086530150834
  0
ARC
  5
AA86
  8
0
 10
3428.4308403725858625
 20
171.6561447080860887
 30
0.0
 40
0.0346686044023185
 50
309.2880086530150834
 51
310.617896096337688
  0
LINE
  5
AA87
  8
0
 10
3428.450568736519017
 20
171.6503881076675952
 30
0.0
 11
3428.450568736519017
 21
171.636682858551211
 31
0.0
  0
ARC
  5
AA88
  8
0
 10
3428.4602562278819278
 20
171.636682858551211
 30
0.0
 40
0.0096874913631844
 50
179.9999999999917861
 51
225.0325290895027877
  0
ARC
  5
AA89
  8
0
 10
3428.4536016152928823
 20
171.636481777343505
 30
0.0
 40
0.0066556556674334
 50
268.3504698612555899
 51
311.7366849639219026
  0
LINE
  5
AA8A
  8
0
 10
3428.4580323403188231
 20
171.6315152465512028
 30
0.0
 11
3428.4710082681990571
 21
171.6444063432676046
 31
0.0
  0
LINE
  5
AA8B
  8
0
 10
3428.450568736519017
 20
171.636682858551211
 30
0.0
 11
3428.4626371859681058
 21
171.6486724229820879
 31
0.0
  0
LINE
  5
AA8C
  8
0
 10
3428.4250908123308363
 20
171.6503881076675952
 30
0.0
 11
3428.4505487769301908
 21
171.6503881076675952
 31
0.0
  0
LINE
  5
AA8D
  8
0
 10
3428.4505487769301908
 20
171.6503881076675952
 30
0.0
 11
3428.4558006434308481
 21
171.6556056455081034
 31
0.0
  0
LINE
  5
AA8E
  8
0
 10
3428.4250908123308363
 20
171.6503881076675952
 30
0.0
 11
3428.4199100942300902
 21
171.6555349620676054
 31
0.0
  0
LINE
  5
AA8F
  8
0
 10
3428.450568736519017
 20
171.6676198552511892
 30
0.0
 11
3428.4251107719192078
 21
171.6676198552511892
 31
0.0
  0
LINE
  5
AA90
  8
0
 10
3428.4251107719192078
 20
171.6676198552511892
 30
0.0
 11
3428.4251107719192078
 21
171.6813251043676019
 31
0.0
  0
LINE
  5
AA91
  8
0
 10
3428.4130223628399108
 20
171.6796292487632911
 30
0.0
 11
3428.4251107719192078
 21
171.6676198552511892
 31
0.0
  0
ARC
  5
AA92
  8
0
 10
3428.4141348339107935
 20
171.6681539758805002
 30
0.0
 40
0.0109889262444431
 50
317.7534501526844792
 51
357.2140207575533282
  0
LINE
  5
AA93
  8
0
 10
3428.4046712436111193
 20
171.6753433399676112
 30
0.0
 11
3428.4176449115188916
 21
171.6624544741511897
 31
0.0
  0
ARC
  5
AA94
  8
0
 10
3428.4220247134280726
 20
171.6672724930610059
 30
0.0
 40
0.0065112188551108
 50
227.7277127222816091
 51
272.15435340119069
  0
ARC
  5
AA95
  8
0
 10
3428.4244869744020434
 20
171.6627669689987954
 30
0.0
 40
0.0029869126874674
 50
222.0634744218814092
 51
253.3102153895916899
  0
LINE
  5
AA96
  8
0
 10
3428.4242984876191258
 20
171.6598758766511992
 30
0.0
 11
3428.4517831028188084
 21
171.6598737728511992
 31
0.0
  0
ARC
  5
AA97
  8
0
 10
3428.4517399992910214
 20
171.6615364446481067
 30
0.0
 40
0.0016632304165147
 50
271.4850177778379816
 51
309.2880086530150834
  0
ARC
  5
AA98
  8
0
 10
3428.4308403725858625
 20
171.6870817047860953
 30
0.0
 40
0.0346686044023185
 50
309.2880086530150834
 51
310.617896096337688
  0
LINE
  5
AA99
  8
0
 10
3428.450568736519017
 20
171.6813251043676019
 30
0.0
 11
3428.450568736519017
 21
171.6676198552511892
 31
0.0
  0
ARC
  5
AA9A
  8
0
 10
3428.4602562278819278
 20
171.6676198552511892
 30
0.0
 40
0.0096874913631844
 50
179.9999999999917861
 51
225.0325290895027877
  0
LINE
  5
AA9B
  8
0
 10
3428.450568736519017
 20
171.6676198552511892
 30
0.0
 11
3428.4627476777732227
 21
171.6797191892615899
 31
0.0
  0
LINE
  5
AA9C
  8
0
 10
3428.4250908123308363
 20
171.6813251043676019
 30
0.0
 11
3428.4505487769301908
 21
171.6813251043676019
 31
0.0
  0
LINE
  5
AA9D
  8
0
 10
3428.4505487769301908
 20
171.6813251043676019
 30
0.0
 11
3428.4558399867569278
 21
171.6865817283668889
 31
0.0
  0
LINE
  5
AA9E
  8
0
 10
3428.4250908123308363
 20
171.6813251043676019
 30
0.0
 11
3428.4199100942300902
 21
171.686471958767612
 31
0.0
  0
LINE
  5
AA9F
  8
0
 10
3428.450568736519017
 20
171.6985568520512118
 30
0.0
 11
3428.4251107719192078
 21
171.6985568520512118
 31
0.0
  0
LINE
  5
AAA0
  8
0
 10
3428.4251107719192078
 20
171.6985568520512118
 30
0.0
 11
3428.4251107719192078
 21
171.712262101167596
 31
0.0
  0
LINE
  5
AAA1
  8
0
 10
3428.4130223628399108
 20
171.7105662455633137
 30
0.0
 11
3428.4251107719192078
 21
171.6985568520512118
 31
0.0
  0
ARC
  5
AAA2
  8
0
 10
3428.4141348339107935
 20
171.6990909726804944
 30
0.0
 40
0.0109889262444431
 50
317.7534501526844792
 51
357.2140207575533282
  0
LINE
  5
AAA3
  8
0
 10
3428.4046712436111193
 20
171.7062803367676054
 30
0.0
 11
3428.4176449115188916
 21
171.6933914709512123
 31
0.0
  0
ARC
  5
AAA4
  8
0
 10
3428.4220247134280726
 20
171.6982094898610001
 30
0.0
 40
0.0065112188551108
 50
227.7277127222816091
 51
272.15435340119069
  0
ARC
  5
AAA5
  8
0
 10
3428.4244869744020434
 20
171.6937039657987896
 30
0.0
 40
0.0029869126874674
 50
222.0634744218814092
 51
253.3102153895916899
  0
LINE
  5
AAA6
  8
0
 10
3428.4242984876191258
 20
171.6908128734511934
 30
0.0
 11
3428.4517831028188084
 21
171.6908107696511934
 31
0.0
  0
ARC
  5
AAA7
  8
0
 10
3428.4517399992910214
 20
171.6924734414481009
 30
0.0
 40
0.0016632304165147
 50
271.4850177778379816
 51
309.2880086530150834
  0
ARC
  5
AAA8
  8
0
 10
3428.4308403725858625
 20
171.7180187015860895
 30
0.0
 40
0.0346686044023185
 50
309.2880086530150834
 51
310.617896096337688
  0
LINE
  5
AAA9
  8
0
 10
3428.450568736519017
 20
171.712262101167596
 30
0.0
 11
3428.450568736519017
 21
171.6985568520512118
 31
0.0
  0
ARC
  5
AAAA
  8
0
 10
3428.4602562278819278
 20
171.6985568520512118
 30
0.0
 40
0.0096874913631844
 50
179.9999999999917861
 51
225.0325290895027877
  0
ARC
  5
AAAB
  8
0
 10
3428.4536016152928823
 20
171.6983557708435058
 30
0.0
 40
0.0066556556674334
 50
268.3504698612555899
 51
311.7366849639219026
  0
LINE
  5
AAAC
  8
0
 10
3428.4580323403188231
 20
171.6933892400512036
 30
0.0
 11
3428.4710082681990571
 21
171.7062803367676054
 31
0.0
  0
LINE
  5
AAAD
  8
0
 10
3428.450568736519017
 20
171.6985568520512118
 30
0.0
 11
3428.4627476777659467
 21
171.7106561860545071
 31
0.0
  0
LINE
  5
AAAE
  8
0
 10
3428.4250908123308363
 20
171.712262101167596
 30
0.0
 11
3428.4505487769301908
 21
171.712262101167596
 31
0.0
  0
LINE
  5
AAAF
  8
0
 10
3428.4505487769301908
 20
171.712262101167596
 30
0.0
 11
3428.4558399867210028
 21
171.7175187251328055
 31
0.0
  0
LINE
  5
AAB0
  8
0
 10
3428.4250908123308363
 20
171.712262101167596
 30
0.0
 11
3428.4199100942300902
 21
171.7174089555676062
 31
0.0
  0
ARC
  5
AAB1
  8
0
 10
3428.4242446312800894
 20
171.6970913709822923
 30
0.0
 40
0.0062787285140456
 50
264.3745914902528966
 51
270.4914655516162156
  0
LINE
  5
AAB2
  8
0
 10
3428.450568736519017
 20
171.7294938488512059
 30
0.0
 11
3428.4251107719192078
 21
171.7294938488512059
 31
0.0
  0
LINE
  5
AAB3
  8
0
 10
3428.4251107719192078
 20
171.7294938488512059
 30
0.0
 11
3428.4251107719192078
 21
171.7431990979675902
 31
0.0
  0
LINE
  5
AAB4
  8
0
 10
3428.4130223628399108
 20
171.7415032423633079
 30
0.0
 11
3428.4251107719192078
 21
171.7294938488512059
 31
0.0
  0
ARC
  5
AAB5
  8
0
 10
3428.4141348339107935
 20
171.7300279694804885
 30
0.0
 40
0.0109889262444431
 50
317.7534501526844792
 51
357.2140207575533282
  0
LINE
  5
AAB6
  8
0
 10
3428.4046712436111193
 20
171.7372173335675996
 30
0.0
 11
3428.4176449115188916
 21
171.7243284677512065
 31
0.0
  0
ARC
  5
AAB7
  8
0
 10
3428.4220247134280726
 20
171.7291464866611079
 30
0.0
 40
0.0065112188551108
 50
227.7277127222816091
 51
272.15435340119069
  0
ARC
  5
AAB8
  8
0
 10
3428.4244869744020434
 20
171.7246409625988122
 30
0.0
 40
0.0029869126874674
 50
222.0634744218814092
 51
253.3102153895916899
  0
LINE
  5
AAB9
  8
0
 10
3428.4242984876191258
 20
171.7217498702511875
 30
0.0
 11
3428.4517831028188084
 21
171.7217477664511875
 31
0.0
  0
ARC
  5
AABA
  8
0
 10
3428.4517399992910214
 20
171.723410438248095
 30
0.0
 40
0.0016632304165147
 50
271.4850177778379816
 51
309.2880086530150834
  0
ARC
  5
AABB
  8
0
 10
3428.4308403725858625
 20
171.7489556983861121
 30
0.0
 40
0.0346686044023185
 50
309.2880086530150834
 51
310.617896096337688
  0
LINE
  5
AABC
  8
0
 10
3428.450568736519017
 20
171.7431990979675902
 30
0.0
 11
3428.450568736519017
 21
171.7294938488512059
 31
0.0
  0
ARC
  5
AABD
  8
0
 10
3428.4602562278819278
 20
171.7294938488512059
 30
0.0
 40
0.0096874913631844
 50
179.9999999999917861
 51
225.0325290895027877
  0
ARC
  5
AABE
  8
0
 10
3428.4536016152928823
 20
171.7292927676433862
 30
0.0
 40
0.0066556556674334
 50
268.3504698612555899
 51
311.7366849639219026
  0
LINE
  5
AABF
  8
0
 10
3428.4580323403188231
 20
171.7243262368511978
 30
0.0
 11
3428.4710082681990571
 21
171.7372173335675996
 31
0.0
  0
LINE
  5
AAC0
  8
0
 10
3428.450568736519017
 20
171.7294938488512059
 30
0.0
 11
3428.4626371859681058
 21
171.7414834132821113
 31
0.0
  0
LINE
  5
AAC1
  8
0
 10
3428.4250908123308363
 20
171.7431990979675902
 30
0.0
 11
3428.4505487769301908
 21
171.7431990979675902
 31
0.0
  0
LINE
  5
AAC2
  8
0
 10
3428.4505487769301908
 20
171.7431990979675902
 30
0.0
 11
3428.455729494929983
 21
171.7483459523676004
 31
0.0
  0
LINE
  5
AAC3
  8
0
 10
3428.4250908123308363
 20
171.7431990979675902
 30
0.0
 11
3428.4199100942300902
 21
171.7483459523676004
 31
0.0
  0
LINE
  5
AAC4
  8
0
 10
3428.4597209382250185
 20
171.7260243118676044
 30
0.0
 11
3428.4720226318690948
 21
171.7140242967900008
 31
0.0
  0
LINE
  5
AAC5
  8
0
 10
3428.450568736519017
 20
171.7604308455512125
 30
0.0
 11
3428.4251107719192078
 21
171.7604308455512125
 31
0.0
  0
LINE
  5
AAC6
  8
0
 10
3428.4251107719192078
 20
171.7604308455512125
 30
0.0
 11
3428.4251107719192078
 21
171.7741360946675968
 31
0.0
  0
LINE
  5
AAC7
  8
0
 10
3428.4130223628399108
 20
171.7724402390632861
 30
0.0
 11
3428.4251107719192078
 21
171.7604308455512125
 31
0.0
  0
ARC
  5
AAC8
  8
0
 10
3428.4141348339107935
 20
171.7609649661804951
 30
0.0
 40
0.0109889262444431
 50
317.7534501526844792
 51
357.2140207575533282
  0
LINE
  5
AAC9
  8
0
 10
3428.4046712436111193
 20
171.7681543302676062
 30
0.0
 11
3428.4176449115188916
 21
171.7552654644512131
 31
0.0
  0
ARC
  5
AACA
  8
0
 10
3428.4220247134280726
 20
171.7600834833610008
 30
0.0
 40
0.0065112188551108
 50
227.7277127222816091
 51
272.15435340119069
  0
ARC
  5
AACB
  8
0
 10
3428.4244869744020434
 20
171.7555779592987903
 30
0.0
 40
0.0029869126874674
 50
222.0634744218814092
 51
253.3102153895916899
  0
LINE
  5
AACC
  8
0
 10
3428.4242984876191258
 20
171.7526868669511941
 30
0.0
 11
3428.4517831028188084
 21
171.7526847631511941
 31
0.0
  0
ARC
  5
AACD
  8
0
 10
3428.4517399992910214
 20
171.7543474349481016
 30
0.0
 40
0.0016632304165147
 50
271.4850177778379816
 51
309.2880086530150834
  0
ARC
  5
AACE
  8
0
 10
3428.4308403725858625
 20
171.7798926950860903
 30
0.0
 40
0.0346686044023185
 50
309.2880086530150834
 51
310.617896096337688
  0
LINE
  5
AACF
  8
0
 10
3428.450568736519017
 20
171.7741360946675968
 30
0.0
 11
3428.450568736519017
 21
171.7604308455512125
 31
0.0
  0
ARC
  5
AAD0
  8
0
 10
3428.4602562278819278
 20
171.7604308455512125
 30
0.0
 40
0.0096874913631844
 50
179.9999999999917861
 51
225.0325290895027877
  0
ARC
  5
AAD1
  8
0
 10
3428.4536016152928823
 20
171.7602297643435065
 30
0.0
 40
0.0066556556674334
 50
268.3504698612555899
 51
311.7366849639219026
  0
LINE
  5
AAD2
  8
0
 10
3428.4580323403188231
 20
171.7552632335512044
 30
0.0
 11
3428.4710082681990571
 21
171.7681543302676062
 31
0.0
  0
LINE
  5
AAD3
  8
0
 10
3428.450568736519017
 20
171.7604308455512125
 30
0.0
 11
3428.4627476777732227
 21
171.7725301795614996
 31
0.0
  0
LINE
  5
AAD4
  8
0
 10
3428.4250908123308363
 20
171.7741360946675968
 30
0.0
 11
3428.4505487769301908
 21
171.7741360946675968
 31
0.0
  0
LINE
  5
AAD5
  8
0
 10
3428.4505487769301908
 20
171.7741360946675968
 30
0.0
 11
3428.4558399867569278
 21
171.7793927186669123
 31
0.0
  0
LINE
  5
AAD6
  8
0
 10
3428.4250908123308363
 20
171.7741360946675968
 30
0.0
 11
3428.4199100942300902
 21
171.779282949067607
 31
0.0
  0
LINE
  5
AAD7
  8
0
 10
3428.4597313582880815
 20
171.7569511440547956
 30
0.0
 11
3428.4720226318690948
 21
171.744961312067602
 31
0.0
  0
LINE
  5
AAD8
  8
0
 10
3428.450568736519017
 20
171.823194838851208
 30
0.0
 11
3428.4251107719192078
 21
171.823194838851208
 31
0.0
  0
LINE
  5
AAD9
  8
0
 10
3428.4251107719192078
 20
171.823194838851208
 30
0.0
 11
3428.4251107719192078
 21
171.8369000879675923
 31
0.0
  0
LINE
  5
AADA
  8
0
 10
3428.413580799349802
 20
171.8346494460597
 30
0.0
 11
3428.4251107719192078
 21
171.823194838851208
 31
0.0
  0
ARC
  5
AADB
  8
0
 10
3428.4141348339107935
 20
171.8237289594804906
 30
0.0
 40
0.0109889262444431
 50
317.7534501526844792
 51
357.2140207575533282
  0
LINE
  5
AADC
  8
0
 10
3428.4055384005091582
 20
171.8300568348215052
 30
0.0
 11
3428.4176449115188916
 21
171.8180294577512086
 31
0.0
  0
ARC
  5
AADD
  8
0
 10
3428.4220247134280726
 20
171.8228474766609963
 30
0.0
 40
0.0065112188551108
 50
227.7277127222816091
 51
272.15435340119069
  0
ARC
  5
AADE
  8
0
 10
3428.4244869744020434
 20
171.8183419525987858
 30
0.0
 40
0.0029869126874674
 50
222.0634744218814092
 51
253.3102153895916899
  0
LINE
  5
AADF
  8
0
 10
3428.4242984876191258
 20
171.8154508602511896
 30
0.0
 11
3428.4517831028188084
 21
171.8154487564511896
 31
0.0
  0
ARC
  5
AAE0
  8
0
 10
3428.4517399992910214
 20
171.8171114282480971
 30
0.0
 40
0.0016632304165147
 50
271.4850177778379816
 51
309.2880086530150834
  0
ARC
  5
AAE1
  8
0
 10
3428.4308403725858625
 20
171.8426566883861142
 30
0.0
 40
0.0346686044023185
 50
309.2880086530150834
 51
310.617896096337688
  0
LINE
  5
AAE2
  8
0
 10
3428.450568736519017
 20
171.8369000879675923
 30
0.0
 11
3428.450568736519017
 21
171.823194838851208
 31
0.0
  0
ARC
  5
AAE3
  8
0
 10
3428.4602562278819278
 20
171.823194838851208
 30
0.0
 40
0.0096874913631844
 50
179.9999999999917861
 51
225.0325290895027877
  0
ARC
  5
AAE4
  8
0
 10
3428.4536016152928823
 20
171.8229937576433883
 30
0.0
 40
0.0066556556674334
 50
268.3504698612555899
 51
311.7366849639219026
  0
LINE
  5
AAE5
  8
0
 10
3428.4580323403188231
 20
171.8180272268511999
 30
0.0
 11
3428.4702407298091202
 21
171.830155803021313
 31
0.0
  0
LINE
  5
AAE6
  8
0
 10
3428.450568736519017
 20
171.823194838851208
 30
0.0
 11
3428.4622974266239908
 21
171.8348468647646996
 31
0.0
  0
LINE
  5
AAE7
  8
0
 10
3428.4250908123308363
 20
171.8369000879675923
 30
0.0
 11
3428.4505487769301908
 21
171.8369000879675923
 31
0.0
  0
LINE
  5
AAE8
  8
0
 10
3428.4505487769301908
 20
171.8369000879675923
 30
0.0
 11
3428.4553912616720481
 21
171.8417109199610024
 31
0.0
  0
LINE
  5
AAE9
  8
0
 10
3428.4250908123308363
 20
171.8369000879675923
 30
0.0
 11
3428.4204685308059197
 21
171.8414921560062112
 31
0.0
  0
LINE
  5
AAEA
  8
0
 10
3428.4597209382250185
 20
171.8197253018676065
 30
0.0
 11
3428.4720226318690948
 21
171.8068352887511878
 31
0.0
  0
LINE
  5
AAEB
  8
0
 10
3428.422967216842153
 20
171.843974509433906
 30
0.0
 11
3428.4115248188691112
 21
171.832606904451211
 31
0.0
  0
ARC
  5
AAEC
  8
0
 10
3428.407381374158831
 20
171.8367776108945861
 30
0.0
 40
0.0058790242643684
 50
265.3058035273493829
 51
314.8121303491270169
  0
ARC
  5
AAED
  8
0
 10
3428.4046231315451223
 20
171.8330108958350877
 30
0.0
 40
0.0030926030702117
 50
287.2147660756810978
 51
317.4181093265912068
  0
ARC
  5
AAEE
  8
0
 10
3428.414987491365082
 20
171.8382952288974934
 30
0.0
 40
0.0109463449005199
 50
183.2842795077818892
 51
222.3700645253991013
  0
LINE
  5
AAEF
  8
0
 10
3428.4283033098399756
 20
171.845511968015586
 30
0.0
 11
3428.4519813708689071
 21
171.8454968053511891
 31
0.0
  0
ARC
  5
AAF0
  8
0
 10
3428.4519826098630801
 20
171.8474316229552983
 30
0.0
 40
0.0019348180007574
 50
269.9633096410918824
 51
327.3157952676401123
  0
ARC
  5
AAF1
  8
0
 10
3428.4618383255960907
 20
171.8538464820437071
 30
0.0
 40
0.0111056086777604
 50
194.8745381963740897
 51
222.198682974371394
  0
ARC
  5
AAF2
  8
0
 10
3428.4537284246989657
 20
171.8532431708667048
 30
0.0
 40
0.0068573700046247
 50
269.0193963332400244
 51
311.0677576935182742
  0
LINE
  5
AAF3
  8
0
 10
3428.4582333813691548
 20
171.8480731719511994
 30
0.0
 11
3428.4635509817057937
 21
171.8533560030074909
 31
0.0
  0
LINE
  5
AAF4
  8
0
 10
3428.4599436817011338
 20
171.8497722820193019
 30
0.0
 11
3428.4720226318690948
 21
171.8377722855512104
 31
0.0
  0
LINE
  5
AAF5
  8
0
 10
3428.4691938023170223
 20
171.8542889535272025
 30
0.0
 11
3428.4720226318690948
 21
171.8514785697512082
 31
0.0
  0
LINE
  5
AAF6
  8
0
 10
3428.4720226318690948
 20
171.8514785697512082
 30
0.0
 11
3428.4720226318690948
 21
171.8377722855512104
 31
0.0
  0
ARC
  5
AAF7
  8
0
 10
3428.462335140506184
 20
171.8377722855512104
 30
0.0
 40
0.0096874913631266
 50
314.9674709102438896
 51
359.9999999999984084
  0
ARC
  5
AAF8
  8
0
 10
3428.4689655379161195
 20
171.8375200961853864
 30
0.0
 40
0.0066053156455538
 50
228.1091335026615923
 51
271.8722521337073772
  0
LINE
  5
AAF9
  8
0
 10
3428.4645550768691464
 20
171.8326029803511972
 30
0.0
 11
3428.4515821505501663
 21
171.8454968053511891
 31
0.0
  0
ARC
  5
AAFA
  8
0
 10
3428.4718775238061426
 20
171.8335470710131005
 30
0.0
 40
0.0037656066149491
 50
224.274642193830914
 51
244.2357403680996129
  0
ARC
  5
AAFB
  8
0
 10
3428.4709775762707977
 20
171.83200882067311
 30
0.0
 40
0.0019941457134707
 50
248.3149182257430994
 51
276.7032675340237233
  0
LINE
  5
AAFC
  8
0
 10
3428.4712103476690572
 20
171.830028306951192
 30
0.0
 11
3428.4983138822490218
 21
171.830028306951192
 31
0.0
  0
LINE
  5
AAFD
  8
0
 10
3428.4974805965689484
 20
171.8377722855512104
 30
0.0
 11
3428.4720226318690948
 21
171.8377722855512104
 31
0.0
  0
LINE
  5
AAFE
  8
0
 10
3428.4720226318690948
 20
171.8514785697512082
 30
0.0
 11
3428.4974805965689484
 21
171.8514785697512082
 31
0.0
  0
LINE
  5
AAFF
  8
0
 10
3428.4720226318690948
 20
171.820541572951214
 30
0.0
 11
3428.4974805965689484
 21
171.820541572951214
 31
0.0
  0
LINE
  5
AB00
  8
0
 10
3428.4974805965689484
 20
171.820541572951214
 30
0.0
 11
3428.5026718152939793
 21
171.8256988594388019
 31
0.0
  0
LINE
  5
AB01
  8
0
 10
3428.4720226318690948
 20
171.820541572951214
 30
0.0
 11
3428.4662929353030449
 21
171.8262338175362913
 31
0.0
  0
LINE
  5
AB02
  8
0
 10
3428.4720226318690948
 20
171.820541572951214
 30
0.0
 11
3428.4720226318690948
 21
171.8068352887511878
 31
0.0
  0
ARC
  5
AB03
  8
0
 10
3428.4610227963798934
 20
171.8073793160978937
 30
0.0
 40
0.0110132804625037
 50
317.7988847619261037
 51
357.1685855569007231
  0
LINE
  5
AB04
  8
0
 10
3428.4720226318690948
 20
171.8068352887511878
 30
0.0
 11
3428.4974805965689484
 21
171.8068352887511878
 31
0.0
  0
LINE
  5
AB05
  8
0
 10
3428.4974805965689484
 20
171.8068352887511026
 30
0.0
 11
3428.4974805965689484
 21
171.820541572951214
 31
0.0
  0
LINE
  5
AB06
  8
0
 10
3428.4534100272198884
 20
171.8163408600512128
 30
0.0
 11
3428.4691813411691328
 21
171.7999813100512085
 31
0.0
  0
ARC
  5
AB07
  8
0
 10
3428.4712773841620219
 20
171.802001986176009
 30
0.0
 40
0.0029114477893966
 50
223.9511742211080048
 51
268.680640055520314
  0
LINE
  5
AB08
  8
0
 10
3428.4712103476690572
 20
171.7990913102512138
 30
0.0
 11
3428.4983121393438523
 21
171.7990913084900058
 31
0.0
  0
LINE
  5
AB09
  8
0
 10
3428.5441658376521445
 20
171.7741360778512103
 30
0.0
 11
3428.5187334509691937
 21
171.7741360778512103
 31
0.0
  0
LINE
  5
AB0A
  8
0
 10
3428.5187334509691937
 20
171.7741360778512103
 30
0.0
 11
3428.5135527329011893
 21
171.7792829322193029
 31
0.0
  0
LINE
  5
AB0B
  8
0
 10
3428.5179213129390519
 20
171.7836230365853112
 30
0.0
 11
3428.504943190458107
 21
171.7707296764112073
 31
0.0
  0
ARC
  5
AB0C
  8
0
 10
3428.5008067719841165
 20
171.774893288135786
 30
0.0
 40
0.0058690391366968
 50
265.2609704370119061
 51
314.812283466051781
  0
ARC
  5
AB0D
  8
0
 10
3428.5084619395502159
 20
171.7764346532995887
 30
0.0
 40
0.0109944339184321
 50
182.7962735236584138
 51
222.2362561575613995
  0
LINE
  5
AB0E
  8
0
 10
3428.4974805965689484
 20
171.7758982919511936
 30
0.0
 11
3428.4974805965689484
 21
171.7896045761511914
 31
0.0
  0
LINE
  5
AB0F
  8
0
 10
3428.4974805965689484
 20
171.7896045761511914
 30
0.0
 11
3428.4720226318690948
 21
171.7896045761511914
 31
0.0
  0
LINE
  5
AB10
  8
0
 10
3428.4720226318690948
 20
171.7896045761511914
 30
0.0
 11
3428.4668758881261965
 21
171.7947851827732109
 31
0.0
  0
LINE
  5
AB11
  8
0
 10
3428.4974805965689484
 20
171.7896045761511914
 30
0.0
 11
3428.502672515372069
 21
171.7947594339622981
 31
0.0
  0
LINE
  5
AB12
  8
0
 10
3428.4712103476690572
 20
171.7990913102512138
 30
0.0
 11
3428.4582323618551527
 21
171.7861981652712871
 31
0.0
  0
LINE
  5
AB13
  8
0
 10
3428.4599436817070455
 20
171.7878982885129915
 30
0.0
 11
3428.4720226318690948
 21
171.7758982919511936
 31
0.0
  0
LINE
  5
AB14
  8
0
 10
3428.4720226318690948
 20
171.7758982919511936
 30
0.0
 11
3428.4720226318690948
 21
171.7896045761513051
 31
0.0
  0
LINE
  5
AB15
  8
0
 10
3428.4720226318690948
 20
171.7758982919511936
 30
0.0
 11
3428.4974805965689484
 21
171.7758982919511936
 31
0.0
  0
LINE
  5
AB16
  8
0
 10
3428.4974805965689484
 20
171.7758982919511936
 30
0.0
 11
3428.5095720759118194
 21
171.7879049722463094
 31
0.0
  0
ARC
  5
AB17
  8
0
 10
3428.4610228016608744
 20
171.7764423171082058
 30
0.0
 40
0.0110132750787622
 50
317.7988747417688273
 51
357.1685955770516898
  0
ARC
  5
AB18
  8
0
 10
3428.4711474957471182
 20
171.7707602504434874
 30
0.0
 40
0.0026096368086733
 50
221.1124290414375935
 51
266.9417429900993852
  0
LINE
  5
AB19
  8
0
 10
3428.4710082681990571
 20
171.7681543302676062
 30
0.0
 11
3428.4986949628691946
 21
171.7681522096511912
 31
0.0
  0
ARC
  5
AB1A
  8
0
 10
3428.4983709591338084
 20
171.7706796123603965
 30
0.0
 40
0.0025456480051292
 50
277.2493778896417211
 51
320.0297240302189721
  0
LINE
  5
AB1B
  8
0
 10
3428.4515842365772187
 20
171.783620738582897
 30
0.0
 11
3428.4645578445311003
 21
171.7707262335758003
 31
0.0
  0
ARC
  5
AB1C
  8
0
 10
3428.4689936634199512
 20
171.7757242141753125
 30
0.0
 40
0.0066825368905556
 50
228.4102324595029074
 51
271.6093524311215788
  0
LINE
  5
AB1D
  8
0
 10
3428.5179213129390519
 20
171.6289380527854007
 30
0.0
 11
3428.504943190458107
 21
171.6160446926112115
 31
0.0
  0
ARC
  5
AB1E
  8
0
 10
3428.5008067719841165
 20
171.6202083043359039
 30
0.0
 40
0.0058690391366968
 50
265.2609704370119061
 51
314.812283466051781
  0
ARC
  5
AB1F
  8
0
 10
3428.5084619395502159
 20
171.621749669499593
 30
0.0
 40
0.0109944339184321
 50
182.7962735236584138
 51
222.2362561575613995
  0
LINE
  5
AB20
  8
0
 10
3428.4974805965689484
 20
171.6212133081511979
 30
0.0
 11
3428.4974805965689484
 21
171.6349195923511957
 31
0.0
  0
LINE
  5
AB21
  8
0
 10
3428.4974805965689484
 20
171.6349195923511957
 30
0.0
 11
3428.4720226318690948
 21
171.6349195923511957
 31
0.0
  0
LINE
  5
AB22
  8
0
 10
3428.4720226318690948
 20
171.6349195923511957
 30
0.0
 11
3428.4668758881261965
 21
171.6401001989731867
 31
0.0
  0
LINE
  5
AB23
  8
0
 10
3428.4974805965689484
 20
171.6349195923511957
 30
0.0
 11
3428.502672515372069
 21
171.6400744501623024
 31
0.0
  0
LINE
  5
AB24
  8
0
 10
3428.4599436817070455
 20
171.6332133047129958
 30
0.0
 11
3428.4720226318690948
 21
171.6212133081511979
 31
0.0
  0
LINE
  5
AB25
  8
0
 10
3428.4720226318690948
 20
171.6212133081511979
 30
0.0
 11
3428.4720226318690948
 21
171.6349195923513093
 31
0.0
  0
LINE
  5
AB26
  8
0
 10
3428.4720226318690948
 20
171.6212133081511979
 30
0.0
 11
3428.4974805965689484
 21
171.6212133081511979
 31
0.0
  0
LINE
  5
AB27
  8
0
 10
3428.4974805965689484
 20
171.6212133081511979
 30
0.0
 11
3428.5095720759118194
 21
171.6332199884463989
 31
0.0
  0
ARC
  5
AB28
  8
0
 10
3428.4610228016608744
 20
171.62175733330821
 30
0.0
 40
0.0110132750787622
 50
317.7988747417688273
 51
357.1685955770516898
  0
ARC
  5
AB29
  8
0
 10
3428.4711474957471182
 20
171.6160752666434917
 30
0.0
 40
0.0026096368086733
 50
221.1124290414375935
 51
266.9417429900993852
  0
LINE
  5
AB2A
  8
0
 10
3428.4710082681990571
 20
171.6134693464676104
 30
0.0
 11
3428.4986921898689616
 21
171.6134693296511955
 31
0.0
  0
ARC
  5
AB2B
  8
0
 10
3428.4983709591338084
 20
171.615994628560486
 30
0.0
 40
0.0025456480051292
 50
277.2493778896417211
 51
320.0297240302189721
  0
LINE
  5
AB2C
  8
0
 10
3428.451582150590184
 20
171.6289378280511926
 30
0.0
 11
3428.4645578445311003
 21
171.6160412497758045
 31
0.0
  0
ARC
  5
AB2D
  8
0
 10
3428.4689936634199512
 20
171.6210392303752883
 30
0.0
 40
0.0066825368905556
 50
228.4102324595029074
 51
271.6093524311215788
  0
LINE
  5
AB2E
  8
0
 10
3428.5159034053281175
 20
171.6607658578735993
 30
0.0
 11
3428.50031317273897
 21
171.6762333211900113
 31
0.0
  0
LINE
  5
AB2F
  8
0
 10
3428.5003131709640911
 20
171.676233322951191
 30
0.0
 11
3428.4691813411691328
 21
171.676233322951191
 31
0.0
  0
LINE
  5
AB30
  8
0
 10
3428.4667265949901775
 20
171.7020266553386136
 30
0.0
 11
3428.4720226318690948
 21
171.6967935859512124
 31
0.0
  0
LINE
  5
AB31
  8
0
 10
3428.4720226318690948
 20
171.6967935859512124
 30
0.0
 11
3428.4974805965689484
 21
171.6967935859512124
 31
0.0
  0
LINE
  5
AB32
  8
0
 10
3428.4974805965689484
 20
171.6967935859512124
 30
0.0
 11
3428.502682023127818
 21
171.7019657531724874
 31
0.0
  0
LINE
  5
AB33
  8
0
 10
3428.4974805965689484
 20
171.6967935859512124
 30
0.0
 11
3428.4974718838129775
 21
171.6830873017511863
 31
0.0
  0
LINE
  5
AB34
  8
0
 10
3428.4974718838129775
 20
171.6830873017511863
 30
0.0
 11
3428.4720226318690948
 21
171.6830873017511863
 31
0.0
  0
LINE
  5
AB35
  8
0
 10
3428.4720226318690948
 20
171.6830873017511863
 30
0.0
 11
3428.4720226318690948
 21
171.6967935859512124
 31
0.0
  0
ARC
  5
AB36
  8
0
 10
3428.4608942774270872
 20
171.683684606029999
 30
0.0
 40
0.0111443727941441
 50
318.0398215155469757
 51
356.9276493946890128
  0
LINE
  5
AB37
  8
0
 10
3428.4691813411691328
 20
171.676233322951191
 30
0.0
 11
3428.4534100272189789
 21
171.6607658764511939
 31
0.0
  0
LINE
  5
AB38
  8
0
 10
3428.4534100272189789
 20
171.6607658764511939
 30
0.0
 11
3428.4691813411691328
 21
171.6452963261511968
 31
0.0
  0
ARC
  5
AB39
  8
0
 10
3428.4714268435641316
 20
171.6475856314351063
 30
0.0
 40
0.0032067428471043
 50
225.5534176560639139
 51
262.4994889403330944
  0
LINE
  5
AB3A
  8
0
 10
3428.4710082512719964
 20
171.6444063264511897
 30
0.0
 11
3428.4983355846848099
 21
171.64440632469001
 31
0.0
  0
LINE
  5
AB3B
  8
0
 10
3428.5159034053281175
 20
171.6607658578735993
 30
0.0
 11
3428.5003435897051531
 21
171.6452963244900047
 31
0.0
  0
LINE
  5
AB3C
  8
0
 10
3428.5003114298338005
 20
171.6452963244900047
 30
0.0
 11
3428.4688732110748788
 21
171.6453022885822861
 31
0.0
  0
ARC
  5
AB3D
  8
0
 10
3428.4695466128969201
 20
171.6540029084102059
 30
0.0
 40
0.0087266405565782
 50
217.6494717464782127
 51
265.574301895440783
  0
LINE
  5
AB3E
  8
0
 10
3428.4626371859681058
 20
171.6486724229820879
 30
0.0
 11
3428.4515909955539428
 21
171.6598748247511992
 31
0.0
  0
LINE
  5
AB3F
  8
0
 10
3428.4515820617748432
 20
171.6908118215511934
 30
0.0
 11
3428.4645567714687786
 21
171.6779219206511868
 31
0.0
  0
ARC
  5
AB40
  8
0
 10
3428.4690019260788176
 20
171.682918921282095
 30
0.0
 40
0.0066880052942745
 50
228.344842342362
 51
271.5372237809825151
  0
LINE
  5
AB41
  8
0
 10
3428.4598114667578557
 20
171.6951567353092116
 30
0.0
 11
3428.4720226318690948
 21
171.6830873017511863
 31
0.0
  0
LINE
  5
AB42
  8
0
 10
3428.4515541096261586
 20
171.7217477839793958
 30
0.0
 11
3428.4645567714687786
 21
171.7088589174512094
 31
0.0
  0
ARC
  5
AB43
  8
0
 10
3428.4687056041880169
 20
171.7130443800564876
 30
0.0
 40
0.0058932936585921
 50
225.251817859567808
 51
274.6302482639327991
  0
ARC
  5
AB44
  8
0
 10
3428.4710414143478374
 20
171.7086684508736028
 30
0.0
 40
0.0023883611729234
 50
218.8484953384005962
 51
269.2044061887793873
  0
LINE
  5
AB45
  8
0
 10
3428.4710082512719964
 20
171.7062803199511904
 30
0.0
 11
3428.4983390704969679
 21
171.7062803181900108
 31
0.0
  0
LINE
  5
AB46
  8
0
 10
3428.4974805965689484
 20
171.7140242967900008
 30
0.0
 11
3428.4720226318690948
 21
171.7140242967900008
 31
0.0
  0
ARC
  5
AB47
  8
0
 10
3428.4608942767190456
 20
171.714621603277493
 30
0.0
 40
0.0111443736208323
 50
318.0398222429233783
 51
356.9276382508418237
  0
LINE
  5
AB48
  8
0
 10
3428.4720226318690948
 20
171.7140242967900008
 30
0.0
 11
3428.4720226318690948
 21
171.7277305826511906
 31
0.0
  0
LINE
  5
AB49
  8
0
 10
3428.4720226318690948
 20
171.7277305826511906
 30
0.0
 11
3428.4667755031859997
 21
171.7330122405938937
 31
0.0
  0
LINE
  5
AB4A
  8
0
 10
3428.4720226318690948
 20
171.7277305826511906
 30
0.0
 11
3428.4974805965689484
 21
171.7277305826511906
 31
0.0
  0
LINE
  5
AB4B
  8
0
 10
3428.4974805965689484
 20
171.7277305826511906
 30
0.0
 11
3428.5026613145892043
 21
171.7328774370710107
 31
0.0
  0
LINE
  5
AB4C
  8
0
 10
3428.4974805965689484
 20
171.7277305826511906
 30
0.0
 11
3428.4974805965689484
 21
171.7140242967900008
 31
0.0
  0
LINE
  5
AB4D
  8
0
 10
3428.4516162106260708
 20
171.7526847759258999
 30
0.0
 11
3428.4645567714687786
 21
171.7397959141511876
 31
0.0
  0
ARC
  5
AB4E
  8
0
 10
3428.4686940815008711
 20
171.7439498195251986
 30
0.0
 40
0.0058627863814307
 50
225.1146806301456991
 51
274.7673854933963185
  0
ARC
  5
AB4F
  8
0
 10
3428.4710413510911167
 20
171.7396053637438058
 30
0.0
 40
0.002388259324303
 50
218.8478809821525886
 51
269.2062961186269945
  0
LINE
  5
AB50
  8
0
 10
3428.4710082681990571
 20
171.7372173335675996
 30
0.0
 11
3428.4986936729687841
 21
171.7372194129611103
 31
0.0
  0
ARC
  5
AB51
  8
0
 10
3428.4983011722838455
 20
171.7398704040307962
 30
0.0
 40
0.0026817469800314
 50
278.384015788982083
 51
318.8950807457990777
  0
LINE
  5
AB52
  8
0
 10
3428.5003218872689104
 20
171.7381073164511918
 30
0.0
 11
3428.5158921602142073
 21
171.7535758147969887
 31
0.0
  0
LINE
  5
AB53
  8
0
 10
3428.5095595467691965
 20
171.7569612917511961
 30
0.0
 11
3428.4974805965689484
 21
171.744961295251187
 31
0.0
  0
LINE
  5
AB54
  8
0
 10
3428.4974805965689484
 20
171.744961295251187
 30
0.0
 11
3428.4720226318690948
 21
171.744961312067602
 31
0.0
  0
ARC
  5
AB55
  8
0
 10
3428.4612932088498383
 20
171.7453932229759062
 30
0.0
 40
0.0107381127462984
 50
317.2727565926550142
 51
357.6948137662648151
  0
LINE
  5
AB56
  8
0
 10
3428.466762580689192
 20
171.7639363992790038
 30
0.0
 11
3428.4720226318690948
 21
171.7586675794512132
 31
0.0
  0
LINE
  5
AB57
  8
0
 10
3428.4720226318690948
 20
171.7586675794512132
 30
0.0
 11
3428.4720226318690948
 21
171.744961312067602
 31
0.0
  0
LINE
  5
AB58
  8
0
 10
3428.4720226318690948
 20
171.7586675794512132
 30
0.0
 11
3428.4974805965689484
 21
171.7586675794512132
 31
0.0
  0
LINE
  5
AB59
  8
0
 10
3428.4974805965689484
 20
171.7586675794512132
 30
0.0
 11
3428.5026613145691954
 21
171.763814433851195
 31
0.0
  0
LINE
  5
AB5A
  8
0
 10
3428.4982334901378636
 20
171.7681543134511912
 30
0.0
 11
3428.5112698471689328
 21
171.755269647551188
 31
0.0
  0
ARC
  5
AB5B
  8
0
 10
3428.5154360022252149
 20
171.7594848507382892
 30
0.0
 40
0.005926616730106
 50
225.3352939579689007
 51
274.4142894252041742
  0
LINE
  5
AB5C
  8
0
 10
3428.4974805965689484
 20
171.7586675794512132
 30
0.0
 11
3428.4974805967858629
 21
171.744961295251187
 31
0.0
  0
ARC
  5
AB5D
  8
0
 10
3428.5071680890450807
 20
171.7449612954050053
 30
0.0
 40
0.0096874922584158
 50
180.0000009095739131
 51
225.032525075733588
  0
LINE
  5
AB5E
  8
0
 10
3428.5066545007689456
 20
171.7724297901511932
 30
0.0
 11
3428.5187334509691937
 21
171.7604297936512125
 31
0.0
  0
LINE
  5
AB5F
  8
0
 10
3428.5187334509691937
 20
171.7604297936512125
 30
0.0
 11
3428.5187334509691937
 21
171.7741360778512103
 31
0.0
  0
LINE
  5
AB60
  8
0
 10
3428.5441658376521445
 20
171.7604297936512125
 30
0.0
 11
3428.5187334509691937
 21
171.7604297936512125
 31
0.0
  0
ARC
  5
AB61
  8
0
 10
3428.5076050359798501
 20
171.7610271230298906
 30
0.0
 40
0.0111444346002329
 50
318.0399336894760722
 51
356.9275372208556973
  0
LINE
  5
AB62
  8
0
 10
3428.5158921601719157
 20
171.7535758147548108
 30
0.0
 11
3428.5479194443751112
 21
171.7535758147963065
 31
0.0
  0
LINE
  5
AB63
  8
0
 10
3428.4982927623477735
 20
171.737217316751213
 30
0.0
 11
3428.5112722291842147
 21
171.7243302840143997
 31
0.0
  0
ARC
  5
AB64
  8
0
 10
3428.5164102494431972
 20
171.7312088677124962
 30
0.0
 40
0.0085856954218532
 50
233.2417751763499041
 51
266.5404820187461041
  0
LINE
  5
AB65
  8
0
 10
3428.5158921602687769
 20
171.7226388181512107
 30
0.0
 11
3428.5470071283521065
 21
171.7226388181512107
 31
0.0
  0
ARC
  5
AB66
  8
0
 10
3428.5180856871911601
 20
171.7247158279282075
 30
0.0
 40
0.003020849213785
 50
223.4371320711628073
 51
259.1739373030309252
  0
LINE
  5
AB67
  8
0
 10
3428.5175182867687909
 20
171.7217487440512116
 30
0.0
 11
3428.5453860568131859
 21
171.7217497151848988
 31
0.0
  0
LINE
  5
AB68
  8
0
 10
3428.5003218872680009
 20
171.7381073164528118
 30
0.0
 11
3428.5158921602687769
 21
171.7226388181512107
 31
0.0
  0
LINE
  5
AB69
  8
0
 10
3428.5135527329011893
 20
171.6245979484193072
 30
0.0
 11
3428.5175888163689706
 21
171.6205882466888113
 31
0.0
  0
ARC
  5
AB6A
  8
0
 10
3428.5314624332690983
 20
172.0319536152460955
 30
0.0
 40
0.4115992513284816
 50
268.0683874220007965
 51
269.9982197408066895
  0
LINE
  5
AB6B
  8
0
 10
3428.5175878756717793
 20
171.6205898099451019
 30
0.0
 11
3428.5175863313229456
 21
171.6068835258944887
 31
0.0
  0
ARC
  5
AB6C
  8
0
 10
3428.5138018730908698
 20
171.6072426311631887
 30
0.0
 40
0.0038014577068675
 50
286.7962650039634127
 51
354.5794633307913841
  0
ARC
  5
AB6D
  8
0
 10
3428.5120478770809314
 20
171.6111515596440995
 30
0.0
 40
0.0080692150117807
 50
229.1498631322673987
 51
290.7017945017635157
  0
LINE
  5
AB6E
  8
0
 10
3428.5067699426172112
 20
171.6050478199142901
 30
0.0
 11
3428.4982948993938408
 21
171.6134693296511955
 31
0.0
  0
LINE
  5
AB6F
  8
0
 10
3428.506655266953203
 20
171.6177455872459063
 30
0.0
 11
3428.5175863313229456
 21
171.6068835258944887
 31
0.0
  0
LINE
  5
AB70
  8
0
 10
3428.4712103644719718
 20
171.6134693463448002
 30
0.0
 11
3428.4671394532688282
 21
171.6094252686511936
 31
0.0
  0
ARC
  5
AB71
  8
0
 10
3428.464150637927105
 20
171.6128139739089136
 30
0.0
 40
0.0045184444753373
 50
257.6358835783698851
 51
311.4120778296828007
  0
ARC
  5
AB72
  8
0
 10
3428.4639388179562047
 20
171.6139549670874089
 30
0.0
 40
0.0056058077146139
 50
186.7395596402417084
 51
262.2527099529996235
  0
LINE
  5
AB73
  8
0
 10
3428.4583717471691671
 20
171.6132970894512084
 30
0.0
 11
3428.4583717471691671
 21
171.6221896291388873
 31
0.0
  0
LINE
  5
AB74
  8
0
 10
3428.4628462819819106
 20
171.6177423765510071
 30
0.0
 11
3428.4583717471691671
 21
171.6132970894512084
 31
0.0
  0
ARC
  5
AB75
  8
0
 10
3428.4241697087381908
 20
171.6305341670075109
 30
0.0
 40
0.0016004764266714
 50
250.9528859036927884
 51
274.6151703546461249
  0
LINE
  5
AB76
  8
0
 10
3428.4245003859077769
 20
171.6289388644968881
 30
0.0
 11
3428.4168376011689361
 21
171.6213259825512125
 31
0.0
  0
ARC
  5
AB77
  8
0
 10
3428.4147548668470336
 20
171.6236093161242025
 30
0.0
 40
0.0030905330383034
 50
259.0038309024239993
 51
312.369391959324787
  0
ARC
  5
AB78
  8
0
 10
3428.4157088819929413
 20
171.6270347109079069
 30
0.0
 40
0.0066410474712204
 50
186.8972712633442939
 51
256.5603969664265946
  0
LINE
  5
AB79
  8
0
 10
3428.4091158953688137
 20
171.6262371904512065
 30
0.0
 11
3428.4091396854760205
 21
171.6399671092729875
 31
0.0
  0
LINE
  5
AB7A
  8
0
 10
3428.4091396854760205
 20
171.6399671092729875
 30
0.0
 11
3428.397108107648819
 21
171.644404074107797
 31
0.0
  0
LINE
  5
AB7B
  8
0
 10
3428.4160379176601054
 20
171.6331139672298889
 30
0.0
 11
3428.4091158953688137
 21
171.6262371904512065
 31
0.0
  0
LINE
  5
AB7C
  8
0
 10
3428.4038579174680308
 20
171.8068363407512038
 30
0.0
 11
3428.3783999528691311
 21
171.8068363407512038
 31
0.0
  0
LINE
  5
AB7D
  8
0
 10
3428.3783999528691311
 20
171.8068363407512038
 30
0.0
 11
3428.3783999528691311
 21
171.8205415898675881
 31
0.0
  0
LINE
  5
AB7E
  8
0
 10
3428.3654295163241841
 20
171.8197219963809061
 30
0.0
 11
3428.3783999528691311
 21
171.8068363407512038
 31
0.0
  0
ARC
  5
AB7F
  8
0
 10
3428.3674240148611716
 20
171.8073704613804864
 30
0.0
 40
0.0109889262444431
 50
317.7534501526844792
 51
357.2140207575533282
  0
LINE
  5
AB80
  8
0
 10
3428.3573815160989398
 20
171.8151349499075877
 30
0.0
 11
3428.3709340924688149
 21
171.8016709596512044
 31
0.0
  0
ARC
  5
AB81
  8
0
 10
3428.3753138943779959
 20
171.8064889785611058
 30
0.0
 40
0.0065112188551108
 50
227.7277127222816091
 51
272.15435340119069
  0
ARC
  5
AB82
  8
0
 10
3428.3777761553528762
 20
171.80198345449881
 30
0.0
 40
0.0029869126874674
 50
222.0634744218814092
 51
253.3102153895916899
  0
ARC
  5
AB83
  8
0
 10
3428.3774156304739336
 20
171.80273476311379
 30
0.0
 40
0.0036464615559363
 50
262.1618691338230178
 51
272.7041879078910256
  0
LINE
  5
AB84
  8
0
 10
3428.3775876685690491
 20
171.7990923621512138
 30
0.0
 11
3428.4050722837691865
 21
171.7990902583512138
 31
0.0
  0
ARC
  5
AB85
  8
0
 10
3428.4050291802409447
 20
171.8007529301480929
 30
0.0
 40
0.0016632304165147
 50
271.4850177778379816
 51
309.2880086530150834
  0
ARC
  5
AB86
  8
0
 10
3428.3841295535357858
 20
171.82629819028611
 30
0.0
 40
0.0346686044023185
 50
309.2880086530150834
 51
310.617896096337688
  0
LINE
  5
AB87
  8
0
 10
3428.4038579174680308
 20
171.8205415898675881
 30
0.0
 11
3428.4038579174680308
 21
171.8068363407512038
 31
0.0
  0
ARC
  5
AB88
  8
0
 10
3428.4135454088318511
 20
171.8068363407512038
 30
0.0
 40
0.0096874913631844
 50
179.9999999999917861
 51
225.0325290895027877
  0
LINE
  5
AB89
  8
0
 10
3428.4038579174680308
 20
171.8068363407512038
 30
0.0
 11
3428.4163847953941513
 21
171.8192813371557008
 31
0.0
  0
LINE
  5
AB8A
  8
0
 10
3428.3783799932812144
 20
171.8205415898675881
 30
0.0
 11
3428.4038379578801141
 21
171.8205415898675881
 31
0.0
  0
LINE
  5
AB8B
  8
0
 10
3428.4038379578801141
 20
171.8205415898675881
 30
0.0
 11
3428.4094771043478431
 21
171.826143876232095
 31
0.0
  0
LINE
  5
AB8C
  8
0
 10
3428.3783799932812144
 20
171.8205415898675881
 30
0.0
 11
3428.3741936623459878
 21
171.8247005569018029
 31
0.0
  0
LINE
  5
AB8D
  8
0
 10
3428.4038579174680308
 20
171.7758993439512096
 30
0.0
 11
3428.3783999528691311
 21
171.7758993439512096
 31
0.0
  0
LINE
  5
AB8E
  8
0
 10
3428.3783999528691311
 20
171.7758993439512096
 30
0.0
 11
3428.3783999528691311
 21
171.7896045930675939
 31
0.0
  0
LINE
  5
AB8F
  8
0
 10
3428.3664220478681273
 20
171.787798955693404
 30
0.0
 11
3428.3783999528691311
 21
171.7758993439512096
 31
0.0
  0
ARC
  5
AB90
  8
0
 10
3428.3674240148611716
 20
171.7764334645804922
 30
0.0
 40
0.0109889262444431
 50
317.7534501526844792
 51
357.2140207575533282
  0
LINE
  5
AB91
  8
0
 10
3428.3579604245610426
 20
171.7836228286676032
 30
0.0
 11
3428.3709340924688149
 21
171.7707339628512102
 31
0.0
  0
ARC
  5
AB92
  8
0
 10
3428.3753138943779959
 20
171.7755519817609979
 30
0.0
 40
0.0065112188551108
 50
227.7277127222816091
 51
272.15435340119069
  0
ARC
  5
AB93
  8
0
 10
3428.3777761553528762
 20
171.7710464576987874
 30
0.0
 40
0.0029869126874674
 50
222.0634744218814092
 51
253.3102153895916899
  0
ARC
  5
AB94
  8
0
 10
3428.3774156304739336
 20
171.7717977663137958
 30
0.0
 40
0.0036464615559363
 50
262.1618691338230178
 51
272.7041879078910256
  0
LINE
  5
AB95
  8
0
 10
3428.3775876685690491
 20
171.7681553653511912
 30
0.0
 11
3428.4050722837691865
 21
171.7681532615511912
 31
0.0
  0
ARC
  5
AB96
  8
0
 10
3428.4050291802409447
 20
171.7698159333480987
 30
0.0
 40
0.0016632304165147
 50
271.4850177778379816
 51
309.2880086530150834
  0
ARC
  5
AB97
  8
0
 10
3428.3841295535357858
 20
171.7953611934860874
 30
0.0
 40
0.0346686044023185
 50
309.2880086530150834
 51
310.617896096337688
  0
LINE
  5
AB98
  8
0
 10
3428.4038579174680308
 20
171.7896045930675939
 30
0.0
 11
3428.4038579174680308
 21
171.7758993439512096
 31
0.0
  0
ARC
  5
AB99
  8
0
 10
3428.4135454088318511
 20
171.7758993439512096
 30
0.0
 40
0.0096874913631844
 50
179.9999999999917861
 51
225.0325290895027877
  0
ARC
  5
AB9A
  8
0
 10
3428.4068907962428057
 20
171.7756982627435036
 30
0.0
 40
0.0066556556674334
 50
268.3504698612555899
 51
311.7366849639219026
  0
LINE
  5
AB9B
  8
0
 10
3428.4113215212692012
 20
171.7707317319512015
 30
0.0
 11
3428.4242974491489804
 21
171.7836228286676032
 31
0.0
  0
LINE
  5
AB9C
  8
0
 10
3428.4038579174680308
 20
171.7758993439512096
 30
0.0
 11
3428.4159263669180291
 21
171.7878889083820866
 31
0.0
  0
LINE
  5
AB9D
  8
0
 10
3428.3783799932812144
 20
171.7896045930675939
 30
0.0
 11
3428.4038379578801141
 21
171.7896045930675939
 31
0.0
  0
LINE
  5
AB9E
  8
0
 10
3428.4038379578801141
 20
171.7896045930675939
 30
0.0
 11
3428.4090186758808159
 21
171.7947514474676041
 31
0.0
  0
LINE
  5
AB9F
  8
0
 10
3428.3783799932812144
 20
171.7896045930675939
 30
0.0
 11
3428.3731992751800135
 21
171.7947514474676041
 31
0.0
  0
LINE
  5
ABA0
  8
0
 10
3428.4038579174680308
 20
171.744962347251203
 30
0.0
 11
3428.3783999528691311
 21
171.744962347251203
 31
0.0
  0
LINE
  5
ABA1
  8
0
 10
3428.3783999528691311
 20
171.744962347251203
 30
0.0
 11
3428.3783999528691311
 21
171.7586675963675873
 31
0.0
  0
LINE
  5
ABA2
  8
0
 10
3428.3663115437911983
 20
171.756971740763305
 30
0.0
 11
3428.3783999528691311
 21
171.744962347251203
 31
0.0
  0
ARC
  5
ABA3
  8
0
 10
3428.3674240148611716
 20
171.745496467880514
 30
0.0
 40
0.0109889262444431
 50
317.7534501526844792
 51
357.2140207575533282
  0
LINE
  5
ABA4
  8
0
 10
3428.3579614695900091
 20
171.752684793768708
 30
0.0
 11
3428.3709340924688149
 21
171.7397969661512036
 31
0.0
  0
ARC
  5
ABA5
  8
0
 10
3428.3753138943779959
 20
171.744614985061105
 30
0.0
 40
0.0065112188551108
 50
227.7277127222816091
 51
272.15435340119069
  0
ARC
  5
ABA6
  8
0
 10
3428.3777761553528762
 20
171.7401094609988093
 30
0.0
 40
0.0029869126874674
 50
222.0634744218814092
 51
253.3102153895916899
  0
ARC
  5
ABA7
  8
0
 10
3428.3774156304739336
 20
171.7408607696137892
 30
0.0
 40
0.0036464615559363
 50
262.1618691338230178
 51
272.7041879078910256
  0
LINE
  5
ABA8
  8
0
 10
3428.3775876685690491
 20
171.737218368651213
 30
0.0
 11
3428.4050722837691865
 21
171.7372162648512131
 31
0.0
  0
ARC
  5
ABA9
  8
0
 10
3428.4050291802409447
 20
171.7388789366480921
 30
0.0
 40
0.0016632304165147
 50
271.4850177778379816
 51
309.2880086530150834
  0
ARC
  5
ABAA
  8
0
 10
3428.3841295535357858
 20
171.7644241967861092
 30
0.0
 40
0.0346686044023185
 50
309.2880086530150834
 51
310.617896096337688
  0
LINE
  5
ABAB
  8
0
 10
3428.4038579174680308
 20
171.7586675963675873
 30
0.0
 11
3428.4038579174680308
 21
171.744962347251203
 31
0.0
  0
ARC
  5
ABAC
  8
0
 10
3428.4135454088318511
 20
171.744962347251203
 30
0.0
 40
0.0096874913631844
 50
179.9999999999917861
 51
225.0325290895027877
  0
ARC
  5
ABAD
  8
0
 10
3428.4068907962428057
 20
171.744761266043497
 30
0.0
 40
0.0066556556674334
 50
268.3504698612555899
 51
311.7366849639219026
  0
LINE
  5
ABAE
  8
0
 10
3428.4113215212692012
 20
171.7397947352511949
 30
0.0
 11
3428.4242974491489804
 21
171.7526858319675966
 31
0.0
  0
LINE
  5
ABAF
  8
0
 10
3428.4038579174680308
 20
171.744962347251203
 30
0.0
 11
3428.4159263669180291
 21
171.7569519116819947
 31
0.0
  0
LINE
  5
ABB0
  8
0
 10
3428.3783799932812144
 20
171.7586675963675873
 30
0.0
 11
3428.4038379578801141
 21
171.7586675963675873
 31
0.0
  0
LINE
  5
ABB1
  8
0
 10
3428.4038379578801141
 20
171.7586675963675873
 30
0.0
 11
3428.4090186758808159
 21
171.7638144507675975
 31
0.0
  0
LINE
  5
ABB2
  8
0
 10
3428.3783799932812144
 20
171.7586675963675873
 30
0.0
 11
3428.3731992751800135
 21
171.7638144507675975
 31
0.0
  0
LINE
  5
ABB3
  8
0
 10
3428.4038579174680308
 20
171.7140253504512089
 30
0.0
 11
3428.3783999528691311
 21
171.7140253504512089
 31
0.0
  0
LINE
  5
ABB4
  8
0
 10
3428.3783999528691311
 20
171.7140253504512089
 30
0.0
 11
3428.3783999528691311
 21
171.7277305995675931
 31
0.0
  0
LINE
  5
ABB5
  8
0
 10
3428.3663115437911983
 20
171.7260347439633108
 30
0.0
 11
3428.3783999528691311
 21
171.7140253504512089
 31
0.0
  0
ARC
  5
ABB6
  8
0
 10
3428.3674240148611716
 20
171.7145594710804914
 30
0.0
 40
0.0109889262444431
 50
317.7534501526844792
 51
357.2140207575533282
  0
LINE
  5
ABB7
  8
0
 10
3428.3579604245610426
 20
171.7217488351676025
 30
0.0
 11
3428.3709340924688149
 21
171.7088599693512094
 31
0.0
  0
ARC
  5
ABB8
  8
0
 10
3428.3753138943779959
 20
171.7136779882611108
 30
0.0
 40
0.0065112188551108
 50
227.7277127222816091
 51
272.15435340119069
  0
ARC
  5
ABB9
  8
0
 10
3428.3777761553528762
 20
171.7091724641987867
 30
0.0
 40
0.0029869126874674
 50
222.0634744218814092
 51
253.3102153895916899
  0
ARC
  5
ABBA
  8
0
 10
3428.3774156304739336
 20
171.709923772813795
 30
0.0
 40
0.0036464615559363
 50
262.1618691338230178
 51
272.7041879078910256
  0
LINE
  5
ABBB
  8
0
 10
3428.3775876685690491
 20
171.7062813718511904
 30
0.0
 11
3428.4050722837691865
 21
171.7062792680511905
 31
0.0
  0
ARC
  5
ABBC
  8
0
 10
3428.4050291802409447
 20
171.7079419398480979
 30
0.0
 40
0.0016632304165147
 50
271.4850177778379816
 51
309.2880086530150834
  0
ARC
  5
ABBD
  8
0
 10
3428.3841295535357858
 20
171.7334871999860866
 30
0.0
 40
0.0346686044023185
 50
309.2880086530150834
 51
310.617896096337688
  0
LINE
  5
ABBE
  8
0
 10
3428.4038579174680308
 20
171.7277305995675931
 30
0.0
 11
3428.4038579174680308
 21
171.7140253504512089
 31
0.0
  0
ARC
  5
ABBF
  8
0
 10
3428.4135454088318511
 20
171.7140253504512089
 30
0.0
 40
0.0096874913631844
 50
179.9999999999917861
 51
225.0325290895027877
  0
ARC
  5
ABC0
  8
0
 10
3428.4068907962428057
 20
171.7138242692435028
 30
0.0
 40
0.0066556556674334
 50
268.3504698612555899
 51
311.7366849639219026
  0
LINE
  5
ABC1
  8
0
 10
3428.4113215212692012
 20
171.7088577384512007
 30
0.0
 11
3428.4242974491489804
 21
171.7217488351676025
 31
0.0
  0
LINE
  5
ABC2
  8
0
 10
3428.4038579174680308
 20
171.7140253504512089
 30
0.0
 11
3428.4159263669180291
 21
171.7260149148820858
 31
0.0
  0
LINE
  5
ABC3
  8
0
 10
3428.3783799932812144
 20
171.7277305995675931
 30
0.0
 11
3428.4038379578801141
 21
171.7277305995675931
 31
0.0
  0
LINE
  5
ABC4
  8
0
 10
3428.4038379578801141
 20
171.7277305995675931
 30
0.0
 11
3428.4090186758808159
 21
171.7328774539676033
 31
0.0
  0
LINE
  5
ABC5
  8
0
 10
3428.3783799932812144
 20
171.7277305995675931
 30
0.0
 11
3428.3731992751800135
 21
171.7328774539676033
 31
0.0
  0
LINE
  5
ABC6
  8
0
 10
3428.4038579174680308
 20
171.6830883536511863
 30
0.0
 11
3428.3783999528691311
 21
171.6830883536511863
 31
0.0
  0
LINE
  5
ABC7
  8
0
 10
3428.3783999528691311
 20
171.6830883536511863
 30
0.0
 11
3428.3783999528691311
 21
171.6967936027675989
 31
0.0
  0
LINE
  5
ABC8
  8
0
 10
3428.3663115437911983
 20
171.6950977471632882
 30
0.0
 11
3428.3783999528691311
 21
171.6830883536511863
 31
0.0
  0
ARC
  5
ABC9
  8
0
 10
3428.3674240148611716
 20
171.6836224742804973
 30
0.0
 40
0.0109889262444431
 50
317.7534501526844792
 51
357.2140207575533282
  0
LINE
  5
ABCA
  8
0
 10
3428.3579604245610426
 20
171.6908118383676083
 30
0.0
 11
3428.3709340924688149
 21
171.6779229725511868
 31
0.0
  0
ARC
  5
ABCB
  8
0
 10
3428.3753138943779959
 20
171.682740991461003
 30
0.0
 40
0.0065112188551108
 50
227.7277127222816091
 51
272.15435340119069
  0
ARC
  5
ABCC
  8
0
 10
3428.3777761553528762
 20
171.6782354673987925
 30
0.0
 40
0.0029869126874674
 50
222.0634744218814092
 51
253.3102153895916899
  0
ARC
  5
ABCD
  8
0
 10
3428.3774156304739336
 20
171.6789867760138009
 30
0.0
 40
0.0036464615559363
 50
262.1618691338230178
 51
272.7041879078910256
  0
LINE
  5
ABCE
  8
0
 10
3428.3775876685690491
 20
171.6753443750511963
 30
0.0
 11
3428.4050722837691865
 21
171.6753422712511963
 31
0.0
  0
ARC
  5
ABCF
  8
0
 10
3428.4050291802409447
 20
171.6770049430481038
 30
0.0
 40
0.0016632304165147
 50
271.4850177778379816
 51
309.2880086530150834
  0
ARC
  5
ABD0
  8
0
 10
3428.3841295535357858
 20
171.7025502031860924
 30
0.0
 40
0.0346686044023185
 50
309.2880086530150834
 51
310.617896096337688
  0
LINE
  5
ABD1
  8
0
 10
3428.4038579174680308
 20
171.6967936027675989
 30
0.0
 11
3428.4038579174680308
 21
171.6830883536511863
 31
0.0
  0
ARC
  5
ABD2
  8
0
 10
3428.4135454088318511
 20
171.6830883536511863
 30
0.0
 40
0.0096874913631844
 50
179.9999999999917861
 51
225.0325290895027877
  0
ARC
  5
ABD3
  8
0
 10
3428.4068907962428057
 20
171.682887272443395
 30
0.0
 40
0.0066556556674334
 50
268.3504698612555899
 51
311.7366849639219026
  0
LINE
  5
ABD4
  8
0
 10
3428.4113215212692012
 20
171.6779207416512065
 30
0.0
 11
3428.4242974491489804
 21
171.6908118383676083
 31
0.0
  0
LINE
  5
ABD5
  8
0
 10
3428.4038579174680308
 20
171.6830883536511863
 30
0.0
 11
3428.4159263669180291
 21
171.6950779180820064
 31
0.0
  0
LINE
  5
ABD6
  8
0
 10
3428.3783799932812144
 20
171.6967936027675989
 30
0.0
 11
3428.4038379578801141
 21
171.6967936027675989
 31
0.0
  0
LINE
  5
ABD7
  8
0
 10
3428.4038379578801141
 20
171.6967936027675989
 30
0.0
 11
3428.4090186758808159
 21
171.7019404571676091
 31
0.0
  0
LINE
  5
ABD8
  8
0
 10
3428.3783799932812144
 20
171.6967936027675989
 30
0.0
 11
3428.3731992751800135
 21
171.7019404571676091
 31
0.0
  0
LINE
  5
ABD9
  8
0
 10
3428.4038579174680308
 20
171.6521513569512081
 30
0.0
 11
3428.3783999528691311
 21
171.6521513569512081
 31
0.0
  0
LINE
  5
ABDA
  8
0
 10
3428.3783999528691311
 20
171.6521513569512081
 30
0.0
 11
3428.3783999528691311
 21
171.6658566060675923
 31
0.0
  0
LINE
  5
ABDB
  8
0
 10
3428.3664220547248078
 20
171.6640509618802071
 30
0.0
 11
3428.3783999528691311
 21
171.6521513569512081
 31
0.0
  0
ARC
  5
ABDC
  8
0
 10
3428.3674240148611716
 20
171.6526854775804907
 30
0.0
 40
0.0109889262444431
 50
317.7534501526844792
 51
357.2140207575533282
  0
LINE
  5
ABDD
  8
0
 10
3428.3579604245610426
 20
171.6598748416676017
 30
0.0
 11
3428.3709340924688149
 21
171.6469859758512087
 31
0.0
  0
ARC
  5
ABDE
  8
0
 10
3428.3753138943779959
 20
171.6518039947611101
 30
0.0
 40
0.0065112188551108
 50
227.7277127222816091
 51
272.15435340119069
  0
ARC
  5
ABDF
  8
0
 10
3428.3777761553528762
 20
171.6472984706987859
 30
0.0
 40
0.0029869126874674
 50
222.0634744218814092
 51
253.3102153895916899
  0
ARC
  5
ABE0
  8
0
 10
3428.3774156304739336
 20
171.6480497793137943
 30
0.0
 40
0.0036464615559363
 50
262.1618691338230178
 51
272.7041879078910256
  0
LINE
  5
ABE1
  8
0
 10
3428.3775876685690491
 20
171.6444073783511897
 30
0.0
 11
3428.4050722837691865
 21
171.6444052745511897
 31
0.0
  0
ARC
  5
ABE2
  8
0
 10
3428.4050291802409447
 20
171.6460679463480972
 30
0.0
 40
0.0016632304165147
 50
271.4850177778379816
 51
309.2880086530150834
  0
ARC
  5
ABE3
  8
0
 10
3428.3841295535357858
 20
171.6716132064860858
 30
0.0
 40
0.0346686044023185
 50
309.2880086530150834
 51
310.617896096337688
  0
LINE
  5
ABE4
  8
0
 10
3428.4038579174680308
 20
171.6658566060675923
 30
0.0
 11
3428.4038579174680308
 21
171.6521513569512081
 31
0.0
  0
ARC
  5
ABE5
  8
0
 10
3428.4135454088318511
 20
171.6521513569512081
 30
0.0
 40
0.0096874913631844
 50
179.9999999999917861
 51
225.0325290895027877
  0
ARC
  5
ABE6
  8
0
 10
3428.4068907962428057
 20
171.6519502757433884
 30
0.0
 40
0.0066556556674334
 50
268.3504698612555899
 51
311.7366849639219026
  0
LINE
  5
ABE7
  8
0
 10
3428.4113215212692012
 20
171.6469837449511999
 30
0.0
 11
3428.4242974491489804
 21
171.6598748416676017
 31
0.0
  0
LINE
  5
ABE8
  8
0
 10
3428.4038579174680308
 20
171.6521513569512081
 30
0.0
 11
3428.4159263669180291
 21
171.6641409213821134
 31
0.0
  0
LINE
  5
ABE9
  8
0
 10
3428.3783799932812144
 20
171.6658566060675923
 30
0.0
 11
3428.4038379578801141
 21
171.6658566060675923
 31
0.0
  0
LINE
  5
ABEA
  8
0
 10
3428.4038379578801141
 20
171.6658566060675923
 30
0.0
 11
3428.4090186758808159
 21
171.6710034604676025
 31
0.0
  0
LINE
  5
ABEB
  8
0
 10
3428.3783799932812144
 20
171.6658566060675923
 30
0.0
 11
3428.3733097848598845
 21
171.6708936731336053
 31
0.0
  0
LINE
  5
ABEC
  8
0
 10
3428.3571470984688858
 20
171.6985568520512118
 30
0.0
 11
3428.3316891338690766
 21
171.6985568520512118
 31
0.0
  0
LINE
  5
ABED
  8
0
 10
3428.3316891338690766
 20
171.6985568520512118
 30
0.0
 11
3428.3316891338690766
 21
171.712262101167596
 31
0.0
  0
LINE
  5
ABEE
  8
0
 10
3428.3197112335487873
 20
171.7104564591429892
 30
0.0
 11
3428.3316891338690766
 21
171.6985568520512118
 31
0.0
  0
ARC
  5
ABEF
  8
0
 10
3428.3207131958611171
 20
171.6990909726804944
 30
0.0
 40
0.0109889262444431
 50
317.7534501526844792
 51
357.2140207575533282
  0
LINE
  5
ABF0
  8
0
 10
3428.3112496055609881
 20
171.7062803367676054
 30
0.0
 11
3428.3242232734692152
 21
171.6933914709512123
 31
0.0
  0
ARC
  5
ABF1
  8
0
 10
3428.3286030753779414
 20
171.6982094898610001
 30
0.0
 40
0.0065112188551108
 50
227.7277127222816091
 51
272.15435340119069
  0
ARC
  5
ABF2
  8
0
 10
3428.3310653363519123
 20
171.6937039657987896
 30
0.0
 40
0.0029869126874674
 50
222.0634744218814092
 51
253.3102153895916899
  0
ARC
  5
ABF3
  8
0
 10
3428.3307048114738791
 20
171.694455274413798
 30
0.0
 40
0.0036464615559363
 50
262.1618691338230178
 51
272.7041879078910256
  0
LINE
  5
ABF4
  8
0
 10
3428.3308768495689947
 20
171.6908128734511934
 30
0.0
 11
3428.358361464769132
 21
171.6908107696511934
 31
0.0
  0
ARC
  5
ABF5
  8
0
 10
3428.3583183612417997
 20
171.6924734414481009
 30
0.0
 40
0.0016632304165147
 50
271.4850177778379816
 51
309.2880086530150834
  0
ARC
  5
ABF6
  8
0
 10
3428.3374187345361861
 20
171.7180187015860895
 30
0.0
 40
0.0346686044023185
 50
309.2880086530150834
 51
310.617896096337688
  0
LINE
  5
ABF7
  8
0
 10
3428.3571470984688858
 20
171.712262101167596
 30
0.0
 11
3428.3571470984688858
 21
171.6985568520512118
 31
0.0
  0
ARC
  5
ABF8
  8
0
 10
3428.3668345898317966
 20
171.6985568520512118
 30
0.0
 40
0.0096874913631844
 50
179.9999999999917861
 51
225.0325290895027877
  0
ARC
  5
ABF9
  8
0
 10
3428.3601799772432059
 20
171.6983557708435058
 30
0.0
 40
0.0066556556674334
 50
268.3504698612555899
 51
311.7366849639219026
  0
LINE
  5
ABFA
  8
0
 10
3428.3646107022691467
 20
171.6933892400512036
 30
0.0
 11
3428.3775866301489259
 21
171.7062803367676054
 31
0.0
  0
LINE
  5
ABFB
  8
0
 10
3428.3571470984688858
 20
171.6985568520512118
 30
0.0
 11
3428.3692155479170651
 21
171.7105464164820887
 31
0.0
  0
LINE
  5
ABFC
  8
0
 10
3428.3316691742797957
 20
171.712262101167596
 30
0.0
 11
3428.3571271388809691
 21
171.712262101167596
 31
0.0
  0
LINE
  5
ABFD
  8
0
 10
3428.3571271388809691
 20
171.712262101167596
 30
0.0
 11
3428.3623078568798519
 21
171.7174089555676062
 31
0.0
  0
LINE
  5
ABFE
  8
0
 10
3428.3316691742797957
 20
171.712262101167596
 30
0.0
 11
3428.3265989649721632
 21
171.7172991691161883
 31
0.0
  0
LINE
  5
ABFF
  8
0
 10
3428.3571470984688858
 20
171.7294938488512059
 30
0.0
 11
3428.3316891338690766
 21
171.7294938488512059
 31
0.0
  0
LINE
  5
AC00
  8
0
 10
3428.3316891338690766
 20
171.7294938488512059
 30
0.0
 11
3428.3316891338690766
 21
171.7431990979675902
 31
0.0
  0
LINE
  5
AC01
  8
0
 10
3428.3197112356820071
 20
171.7413934538236902
 30
0.0
 11
3428.3316891338690766
 21
171.7294938488512059
 31
0.0
  0
ARC
  5
AC02
  8
0
 10
3428.3207131958611171
 20
171.7300279694804885
 30
0.0
 40
0.0109889262444431
 50
317.7534501526844792
 51
357.2140207575533282
  0
LINE
  5
AC03
  8
0
 10
3428.3112496055609881
 20
171.7372173335675996
 30
0.0
 11
3428.3242232734692152
 21
171.7243284677512065
 31
0.0
  0
ARC
  5
AC04
  8
0
 10
3428.3286030753779414
 20
171.7291464866611079
 30
0.0
 40
0.0065112188551108
 50
227.7277127222816091
 51
272.15435340119069
  0
ARC
  5
AC05
  8
0
 10
3428.3310653363519123
 20
171.7246409625988122
 30
0.0
 40
0.0029869126874674
 50
222.0634744218814092
 51
253.3102153895916899
  0
ARC
  5
AC06
  8
0
 10
3428.3307048114738791
 20
171.7253922712137921
 30
0.0
 40
0.0036464615559363
 50
262.1618691338230178
 51
272.7041879078910256
  0
LINE
  5
AC07
  8
0
 10
3428.3308768495689947
 20
171.7217498702511875
 30
0.0
 11
3428.358361464769132
 21
171.7217477664511875
 31
0.0
  0
ARC
  5
AC08
  8
0
 10
3428.3583183612417997
 20
171.723410438248095
 30
0.0
 40
0.0016632304165147
 50
271.4850177778379816
 51
309.2880086530150834
  0
ARC
  5
AC09
  8
0
 10
3428.3374187345361861
 20
171.7489556983861121
 30
0.0
 40
0.0346686044023185
 50
309.2880086530150834
 51
310.617896096337688
  0
LINE
  5
AC0A
  8
0
 10
3428.3571271388809691
 20
171.7431990979675902
 30
0.0
 11
3428.3571470984688858
 21
171.7294938488512059
 31
0.0
  0
ARC
  5
AC0B
  8
0
 10
3428.3668345898317966
 20
171.7294938488512059
 30
0.0
 40
0.0096874913631844
 50
179.9999999999917861
 51
225.0325290895027877
  0
ARC
  5
AC0C
  8
0
 10
3428.3601799772432059
 20
171.7292927676433862
 30
0.0
 40
0.0066556556674334
 50
268.3504698612555899
 51
311.7366849639219026
  0
LINE
  5
AC0D
  8
0
 10
3428.3646107022691467
 20
171.7243262368511978
 30
0.0
 11
3428.3775866301489259
 21
171.7372173335675996
 31
0.0
  0
LINE
  5
AC0E
  8
0
 10
3428.3571470984688858
 20
171.7294938488512059
 30
0.0
 11
3428.3692155479170651
 21
171.7414834132821113
 31
0.0
  0
LINE
  5
AC0F
  8
0
 10
3428.3316691742797957
 20
171.7431990979675902
 30
0.0
 11
3428.3571271388809691
 21
171.7431990979675902
 31
0.0
  0
LINE
  5
AC10
  8
0
 10
3428.3571271388809691
 20
171.7431990979675902
 30
0.0
 11
3428.3623078568798519
 21
171.7483459523676004
 31
0.0
  0
LINE
  5
AC11
  8
0
 10
3428.3316691742797957
 20
171.7431990979675902
 30
0.0
 11
3428.3265989658420949
 21
171.7482361650507983
 31
0.0
  0
LINE
  5
AC12
  8
0
 10
3428.3571470984688858
 20
171.7604308455512125
 30
0.0
 11
3428.3316891338690766
 21
171.7604308455512125
 31
0.0
  0
LINE
  5
AC13
  8
0
 10
3428.3316891338690766
 20
171.7604308455512125
 30
0.0
 11
3428.3316891338690766
 21
171.7741360946675968
 31
0.0
  0
LINE
  5
AC14
  8
0
 10
3428.3197112335487873
 20
171.7723304526429899
 30
0.0
 11
3428.3316891338690766
 21
171.7604308455512125
 31
0.0
  0
ARC
  5
AC15
  8
0
 10
3428.3207131958611171
 20
171.7609649661804951
 30
0.0
 40
0.0109889262444431
 50
317.7534501526844792
 51
357.2140207575533282
  0
LINE
  5
AC16
  8
0
 10
3428.3112496055609881
 20
171.7681543302676062
 30
0.0
 11
3428.3242232734692152
 21
171.7552654644512131
 31
0.0
  0
ARC
  5
AC17
  8
0
 10
3428.3286030753779414
 20
171.7600834833610008
 30
0.0
 40
0.0065112188551108
 50
227.7277127222816091
 51
272.15435340119069
  0
ARC
  5
AC18
  8
0
 10
3428.3310653363519123
 20
171.7555779592987903
 30
0.0
 40
0.0029869126874674
 50
222.0634744218814092
 51
253.3102153895916899
  0
ARC
  5
AC19
  8
0
 10
3428.3307048114738791
 20
171.7563292679137987
 30
0.0
 40
0.0036464615559363
 50
262.1618691338230178
 51
272.7041879078910256
  0
LINE
  5
AC1A
  8
0
 10
3428.3308768495689947
 20
171.7526868669511941
 30
0.0
 11
3428.358361464769132
 21
171.7526847631511941
 31
0.0
  0
ARC
  5
AC1B
  8
0
 10
3428.3583183612417997
 20
171.7543474349481016
 30
0.0
 40
0.0016632304165147
 50
271.4850177778379816
 51
309.2880086530150834
  0
ARC
  5
AC1C
  8
0
 10
3428.3374187345361861
 20
171.7798926950860903
 30
0.0
 40
0.0346686044023185
 50
309.2880086530150834
 51
310.617896096337688
  0
LINE
  5
AC1D
  8
0
 10
3428.3571470984688858
 20
171.7741360946675968
 30
0.0
 11
3428.3571470984688858
 21
171.7604308455512125
 31
0.0
  0
ARC
  5
AC1E
  8
0
 10
3428.3668345898317966
 20
171.7604308455512125
 30
0.0
 40
0.0096874913631844
 50
179.9999999999917861
 51
225.0325290895027877
  0
ARC
  5
AC1F
  8
0
 10
3428.3601799772432059
 20
171.7602297643435065
 30
0.0
 40
0.0066556556674334
 50
268.3504698612555899
 51
311.7366849639219026
  0
LINE
  5
AC20
  8
0
 10
3428.3646107022691467
 20
171.7552632335512044
 30
0.0
 11
3428.3775866301489259
 21
171.7681543302676062
 31
0.0
  0
LINE
  5
AC21
  8
0
 10
3428.3571470984688858
 20
171.7604308455512125
 30
0.0
 11
3428.3692155479170651
 21
171.7724204099820042
 31
0.0
  0
LINE
  5
AC22
  8
0
 10
3428.3316691742797957
 20
171.7741360946675968
 30
0.0
 11
3428.3571271388809691
 21
171.7741360946675968
 31
0.0
  0
LINE
  5
AC23
  8
0
 10
3428.3571271388809691
 20
171.7741360946675968
 30
0.0
 11
3428.3623078568798519
 21
171.779282949067607
 31
0.0
  0
LINE
  5
AC24
  8
0
 10
3428.3316691742797957
 20
171.7741360946675968
 30
0.0
 11
3428.3265989649721632
 21
171.7791731626161891
 31
0.0
  0
LINE
  5
AC25
  8
0
 10
3428.4066992081679928
 20
171.7999823619512085
 30
0.0
 11
3428.4224705221690783
 21
171.7845128116512115
 31
0.0
  0
ARC
  5
AC26
  8
0
 10
3428.424715959094101
 20
171.786802050196286
 30
0.0
 40
0.0032066493576167
 50
225.5534177485313876
 51
262.5007530480929177
  0
LINE
  5
AC27
  8
0
 10
3428.4242974491489804
 20
171.7836228286676032
 30
0.0
 11
3428.4519841438691401
 21
171.7836207079512008
 31
0.0
  0
ARC
  5
AC28
  8
0
 10
3428.4515441741000359
 20
171.7863526362606876
 30
0.0
 40
0.0027671295028728
 50
279.1487772635741749
 51
318.3264490861237732
  0
LINE
  5
AC29
  8
0
 10
3428.4536110681701757
 20
171.7845128116512115
 30
0.0
 11
3428.4691813418498896
 21
171.7999813107277873
 31
0.0
  0
ARC
  5
AC2A
  8
0
 10
3428.4540795050761517
 20
171.7906165991931005
 30
0.0
 40
0.0060637263915702
 50
275.1588994640387114
 51
313.2252868011703981
  0
ARC
  5
AC2B
  8
0
 10
3428.4528930130090885
 20
171.8037583899995866
 30
0.0
 40
0.0192589690580608
 50
272.1367222646949813
 51
275.1588994640387114
  0
LINE
  5
AC2C
  8
0
 10
3428.4536110681701757
 20
171.7845128116512115
 30
0.0
 11
3428.4224705221690783
 21
171.7845128116512115
 31
0.0
  0
ARC
  5
AC2D
  8
0
 10
3428.4224696771761955
 20
171.7924585762997083
 30
0.0
 40
0.0079457646934681
 50
259.6621941581487931
 51
270.0060931229638754
  0
ARC
  5
AC2E
  8
0
 10
3428.4222596448330478
 20
171.7913071621597112
 30
0.0
 40
0.0067753510455419
 50
232.5884627580090012
 51
259.6621941581487931
  0
LINE
  5
AC2F
  8
0
 10
3428.4181433765629663
 20
171.7859255529843097
 30
0.0
 11
3428.404870938626118
 21
171.7990913102512138
 31
0.0
  0
LINE
  5
AC30
  8
0
 10
3428.4066992082171055
 20
171.7999823619022095
 30
0.0
 11
3428.422269481218791
 21
171.8163408600505022
 31
0.0
  0
ARC
  5
AC31
  8
0
 10
3428.4240615519279345
 20
171.8176456915198003
 30
0.0
 40
0.0022075830265719
 50
258.704742054761482
 51
276.1613149870984785
  0
LINE
  5
AC32
  8
0
 10
3428.4055384005341693
 20
171.8300568348292927
 30
0.0
 11
3428.3853666337081449
 21
171.8300477575326113
 31
0.0
  0
LINE
  5
AC33
  8
0
 10
3428.3624288664141204
 20
171.8101205914850027
 30
0.0
 11
3428.3573481394691953
 21
171.8050730745511885
 31
0.0
  0
LINE
  5
AC34
  8
0
 10
3428.3573481394691953
 20
171.8050730745511885
 30
0.0
 11
3428.342679746524027
 21
171.8050730745511885
 31
0.0
  0
LINE
  5
AC35
  8
0
 10
3428.3777887095689039
 20
171.7990913102512138
 30
0.0
 11
3428.3648107237549993
 21
171.7861981652706049
 31
0.0
  0
ARC
  5
AC36
  8
0
 10
3428.3606743111731703
 20
171.7903617967112098
 30
0.0
 40
0.0058690489707037
 50
265.2610147470987272
 51
314.8121070044052203
  0
ARC
  5
AC37
  8
0
 10
3428.3582676041660307
 20
171.7860897595523966
 30
0.0
 40
0.0024859967560026
 50
262.9025592784756782
 51
320.6295241576938224
  0
LINE
  5
AC38
  8
0
 10
3428.3579604414881032
 20
171.7836228118511883
 30
0.0
 11
3428.3306785815689182
 21
171.7836228118511883
 31
0.0
  0
ARC
  5
AC39
  8
0
 10
3428.3309651573858901
 20
171.7860855313398929
 30
0.0
 40
0.002479022037308
 50
219.3763382010153862
 51
263.4399983352479921
  0
ARC
  5
AC3A
  8
0
 10
3428.3289342809389382
 20
171.7916459746622877
 30
0.0
 40
0.0071340835741293
 50
215.9292410019247086
 51
270.9204495233857983
  0
ARC
  5
AC3B
  8
0
 10
3428.3208903378617833
 20
171.7919108183268122
 30
0.0
 40
0.0110132820087798
 50
317.7988876398006823
 51
357.1685826789739053
  0
LINE
  5
AC3C
  8
0
 10
3428.3318901748689314
 20
171.7913667903511907
 30
0.0
 11
3428.3294340947031742
 21
171.7937551615115126
 31
0.0
  0
LINE
  5
AC3D
  8
0
 10
3428.3318901748689314
 20
171.7913667903511907
 30
0.0
 11
3428.3573481394691953
 21
171.7913667903511907
 31
0.0
  0
LINE
  5
AC3E
  8
0
 10
3428.3573481394691953
 20
171.7913667903511907
 30
0.0
 11
3428.3693270986350399
 21
171.8032674494056948
 31
0.0
  0
LINE
  5
AC3F
  8
0
 10
3428.3573481394691953
 20
171.8050730745511885
 30
0.0
 11
3428.3573481394691953
 21
171.7913667903511907
 31
0.0
  0
ARC
  5
AC40
  8
0
 10
3428.36703563059109
 20
171.7913667903511907
 30
0.0
 40
0.0096874911219222
 50
180.0000000000212026
 51
225.0325296810846112
  0
LINE
  5
AC41
  8
0
 10
3428.3310778905688494
 20
171.7836228118511883
 30
0.0
 11
3428.3181031808690022
 21
171.7707329109512102
 31
0.0
  0
ARC
  5
AC42
  8
0
 10
3428.3139597361800952
 20
171.774903617337003
 30
0.0
 40
0.00587902420868
 50
265.3058032771106127
 51
314.8121305993573174
  0
ARC
  5
AC43
  8
0
 10
3428.3211592308321087
 20
171.7761340292435079
 30
0.0
 40
0.0104525590774313
 50
199.3021552136937942
 51
222.7090404465461972
  0
ARC
  5
AC44
  8
0
 10
3428.3115071602010175
 20
171.7707455900583966
 30
0.0
 40
0.002604027975213
 50
264.3238090769311839
 51
319.2072290299216206
  0
LINE
  5
AC45
  8
0
 10
3428.3112496055609881
 20
171.7681543302676062
 30
0.0
 11
3428.3084014361529626
 21
171.7681470308409075
 31
0.0
  0
LINE
  5
AC46
  8
0
 10
3428.3310789338188442
 20
171.7526868514827072
 30
0.0
 11
3428.3181048754690892
 21
171.7397975929511915
 31
0.0
  0
ARC
  5
AC47
  8
0
 10
3428.3139577888450731
 20
171.7439719637038991
 30
0.0
 40
0.0058841905682849
 50
265.3289591608900082
 51
314.8121410980647852
  0
ARC
  5
AC48
  8
0
 10
3428.3115622234900002
 20
171.7396706444424979
 30
0.0
 40
0.0024731631864914
 50
262.7385482057861736
 51
320.7935307962366096
  0
LINE
  5
AC49
  8
0
 10
3428.3112496224880488
 20
171.737217316751213
 30
0.0
 11
3428.2964391963059825
 21
171.737217316751213
 31
0.0
  0
ARC
  5
AC4A
  8
0
 10
3428.3214532492379476
 20
171.7454290846621063
 30
0.0
 40
0.0108260399988977
 50
182.4765016844465038
 51
222.5560274053106866
  0
LINE
  5
AC4B
  8
0
 10
3428.3106373204691408
 20
171.744961295251187
 30
0.0
 11
3428.2982051020380823
 21
171.7449643022181931
 31
0.0
  0
LINE
  5
AC4C
  8
0
 10
3428.3106373204691408
 20
171.744961295251187
 30
0.0
 11
3428.3226162795849632
 21
171.7568619542556974
 31
0.0
  0
LINE
  5
AC4D
  8
0
 10
3428.3106373204691408
 20
171.7586675794512132
 30
0.0
 11
3428.3106373204691408
 21
171.744961295251187
 31
0.0
  0
LINE
  5
AC4E
  8
0
 10
3428.3032918469120887
 20
171.7586763051467074
 30
0.0
 11
3428.3106373204691408
 21
171.7586675794512132
 31
0.0
  0
LINE
  5
AC4F
  8
0
 10
3428.3106373204691408
 20
171.7586675794512132
 30
0.0
 11
3428.3157180473640437
 21
171.7637150963350052
 31
0.0
  0
ARC
  5
AC50
  8
0
 10
3428.380050889281847
 20
171.7572554870428974
 30
0.0
 40
0.0849626125488673
 50
193.6422308476377907
 51
200.3347651512889911
  0
LINE
  5
AC51
  8
0
 10
3428.3003832951690129
 20
171.7277305826511906
 30
0.0
 11
3428.3106373204691408
 21
171.7277305826511906
 31
0.0
  0
LINE
  5
AC52
  8
0
 10
3428.3106373204691408
 20
171.7277305826511906
 30
0.0
 11
3428.3157180474140659
 21
171.7327780995850048
 31
0.0
  0
LINE
  5
AC53
  8
0
 10
3428.3106373204691408
 20
171.7277305826511906
 30
0.0
 11
3428.3106373204691408
 21
171.7140242984511929
 31
0.0
  0
LINE
  5
AC54
  8
0
 10
3428.3106373204691408
 20
171.7140242984511929
 30
0.0
 11
3428.3226162796349854
 21
171.725924957505697
 31
0.0
  0
LINE
  5
AC55
  8
0
 10
3428.3003832952349512
 20
171.7277305826511906
 30
0.0
 11
3428.3003832951690129
 21
171.7140242984511929
 31
0.0
  0
LINE
  5
AC56
  8
0
 10
3428.3003832951690129
 20
171.7140242984511929
 30
0.0
 11
3428.3106373204691408
 21
171.7140242984511929
 31
0.0
  0
ARC
  5
AC57
  8
0
 10
3428.3218019741279932
 20
171.7146366505407968
 30
0.0
 40
0.0111814340051067
 50
183.1393783665976969
 51
221.8931513146060865
  0
ARC
  5
AC58
  8
0
 10
3428.3115568196908498
 20
171.7087472219535869
 30
0.0
 40
0.0024859410778049
 50
262.9012044724581187
 51
320.6298336343940036
  0
LINE
  5
AC59
  8
0
 10
3428.3112496055609881
 20
171.7062803367676054
 30
0.0
 11
3428.3021623612680742
 21
171.7062803996512059
 31
0.0
  0
ARC
  5
AC5A
  8
0
 10
3428.3022140303178276
 20
171.706694751876114
 30
0.0
 40
0.0004176194109905
 50
210.3907316065559883
 51
262.9164973838304036
  0
ARC
  5
AC5B
  8
0
 10
3428.3188015800719768
 20
171.7137021730399056
 30
0.0
 40
0.0184211015842641
 50
178.9980312955098043
 51
203.0709582596803955
  0
ARC
  5
AC5C
  8
0
 10
3428.3135276582120241
 20
171.714576272639988
 30
0.0
 40
0.0074061152977788
 50
269.6205555772044136
 51
296.5560891108344777
  0
ARC
  5
AC5D
  8
0
 10
3428.314311009838093
 20
171.7130089565469859
 30
0.0
 40
0.0056539396488177
 50
296.5560891108360124
 51
321.3838105169186861
  0
LINE
  5
AC5E
  8
0
 10
3428.318728682551864
 20
171.709480330561604
 30
0.0
 11
3428.3310778905688494
 21
171.7217488183511875
 31
0.0
  0
LINE
  5
AC5F
  8
0
 10
3428.315094494144887
 20
171.7024605802128008
 30
0.0
 11
3428.3152050197691096
 21
171.6876251444512036
 31
0.0
  0
LINE
  5
AC60
  8
0
 10
3428.3152050197691096
 20
171.6876251444512036
 30
0.0
 11
3428.3226162795840537
 21
171.6949879607558955
 31
0.0
  0
ARC
  5
AC61
  8
0
 10
3428.326500647101966
 20
171.6877010968609056
 30
0.0
 40
0.0112958826841794
 50
180.385254117256892
 51
225.9507736796074084
  0
ARC
  5
AC62
  8
0
 10
3428.3192115382971679
 20
171.6801659701650919
 30
0.0
 40
0.0008121218369628
 50
225.9507736796130928
 51
318.051724758640205
  0
LINE
  5
AC63
  8
0
 10
3428.3198155527688868
 20
171.6796230996511952
 30
0.0
 11
3428.3310778905688494
 21
171.6908118215511934
 31
0.0
  0
LINE
  5
AC64
  8
0
 10
3428.3276212592340926
 20
171.6873777843732114
 30
0.0
 11
3428.3341794439688783
 21
171.6813250875511869
 31
0.0
  0
LINE
  5
AC65
  8
0
 10
3428.3341794439688783
 20
171.6813250875511869
 30
0.0
 11
3428.3573481394691953
 21
171.6813250875511869
 31
0.0
  0
LINE
  5
AC66
  8
0
 10
3428.3573481394691953
 20
171.6813250875511869
 30
0.0
 11
3428.3624288663640982
 21
171.6863726044350074
 31
0.0
  0
LINE
  5
AC67
  8
0
 10
3428.3573481394691953
 20
171.6813250875511869
 30
0.0
 11
3428.3573481394691953
 21
171.6676188033511892
 31
0.0
  0
LINE
  5
AC68
  8
0
 10
3428.3573481394691953
 20
171.6676188033511892
 30
0.0
 11
3428.3693270985850177
 21
171.6795194623556995
 31
0.0
  0
LINE
  5
AC69
  8
0
 10
3428.3777887095689039
 20
171.6753433231511963
 30
0.0
 11
3428.3648156945691881
 21
171.6624551010511937
 31
0.0
  0
ARC
  5
AC6A
  8
0
 10
3428.360668607946991
 20
171.6666294717695109
 30
0.0
 40
0.005884190542319
 50
265.3289581416423744
 51
314.8121413188953284
  0
ARC
  5
AC6B
  8
0
 10
3428.3582676386508865
 20
171.6623417271310075
 30
0.0
 40
0.0024859413481117
 50
262.901206177441793
 51
320.6298274953045961
  0
ARC
  5
AC6C
  8
0
 10
3428.3685127931498755
 20
171.6682311553410045
 30
0.0
 40
0.0111814340215062
 50
183.1393778495313995
 51
221.893151240198506
  0
LINE
  5
AC6D
  8
0
 10
3428.3573481394691953
 20
171.6676188033511892
 30
0.0
 11
3428.3341794439688783
 21
171.6676188033511892
 31
0.0
  0
LINE
  5
AC6E
  8
0
 10
3428.3341794439688783
 20
171.6676188033511892
 30
0.0
 11
3428.3341794439688783
 21
171.6813250875511869
 31
0.0
  0
ARC
  5
AC6F
  8
0
 10
3428.3429876776990568
 20
171.6679721971406138
 30
0.0
 40
0.0088153201089008
 50
182.2975229166904967
 51
246.716002230110206
  0
LINE
  5
AC70
  8
0
 10
3428.3395030788688018
 20
171.6598748247511992
 30
0.0
 11
3428.3579605604281824
 21
171.6598748247511992
 31
0.0
  0
LINE
  5
AC71
  8
0
 10
3428.3661045655690032
 20
171.6517839346560947
 30
0.0
 11
3428.3661045655690032
 21
171.6453809965512107
 31
0.0
  0
ARC
  5
AC72
  8
0
 10
3428.3727667237722017
 20
171.6453809965512107
 30
0.0
 40
0.0066621582028867
 50
179.9999999999967031
 51
257.2992841378772937
  0
ARC
  5
AC73
  8
0
 10
3428.3714192099910179
 20
171.6408310292437136
 30
0.0
 40
0.0019527012271503
 50
266.5585546009522204
 51
314.1180053581852007
  0
LINE
  5
AC74
  8
0
 10
3428.37277856036917
 20
171.6394291702511907
 30
0.0
 11
3428.3777887095689039
 21
171.6444063264511897
 31
0.0
  0
LINE
  5
AC75
  8
0
 10
3428.3693270986350399
 20
171.6485824656060117
 30
0.0
 11
3428.3661045655690032
 21
171.6453809965512107
 31
0.0
  0
ARC
  5
AC76
  8
0
 10
3428.4242795681138887
 20
171.7288076493848052
 30
0.0
 40
0.0070578044919066
 50
264.712466914373806
 51
270.1535901274929188
  0
ARC
  5
AC77
  8
0
 10
3428.4240783350578567
 20
171.7551777238780062
 30
0.0
 40
0.0025015068015026
 50
259.6558496977654045
 51
275.025140112675615
  0
LINE
  5
AC79
  8
0
 10
3428.5441658376521445
 20
171.8532407839512075
 30
0.0
 11
3428.5441658376521445
 21
171.8588881785157128
 31
0.0
  0
LINE
  5
AC7A
  8
0
 10
3428.5496436835128407
 20
171.8586828240181887
 30
0.0
 11
3428.5441658376521445
 21
171.8532407839512075
 31
0.0
  0
ARC
  5
AC7B
  8
0
 10
3428.555141775660104
 20
171.8537749045804901
 30
0.0
 40
0.0109889262444431
 50
182.7859792424467003
 51
222.2465498473154923
  0
LINE
  5
AC7C
  8
0
 10
3428.561599381222095
 20
171.8579779324822141
 30
0.0
 11
3428.551631698052006
 21
171.8480754028512081
 31
0.0
  0
ARC
  5
AC7D
  8
0
 10
3428.547251896142825
 20
171.8528934217611095
 30
0.0
 40
0.0065112188551108
 50
267.84564659880931
 51
312.2722872777183056
  0
ARC
  5
AC7E
  8
0
 10
3428.5447896351679447
 20
171.8483878976988137
 30
0.0
 40
0.0029869126874674
 50
286.6897846104083101
 51
317.9365255781186193
  0
ARC
  5
AC7F
  8
0
 10
3428.5451501600468873
 20
171.8491392063137937
 30
0.0
 40
0.0036464615559363
 50
272.3907281697437952
 51
277.8381308661769822
  0
LINE
  5
AC80
  8
0
 10
3428.5441458780628636
 20
171.8223048222347984
 30
0.0
 11
3428.5441658376521445
 21
171.8360100713512111
 31
0.0
  0
LINE
  5
AC81
  8
0
 10
3428.5562342871421606
 20
171.8343142157469003
 30
0.0
 11
3428.5441458780628636
 21
171.8223048222347984
 31
0.0
  0
ARC
  5
AC82
  8
0
 10
3428.5551218160721874
 20
171.8228389428641094
 30
0.0
 40
0.0109889262444431
 50
182.7859792424467003
 51
222.2465498473154923
  0
LINE
  5
AC83
  8
0
 10
3428.5645854063718616
 20
171.830028306951192
 30
0.0
 11
3428.5516117384631798
 21
171.817139441134799
 31
0.0
  0
ARC
  5
AC84
  8
0
 10
3428.5472319365539988
 20
171.8219574600445867
 30
0.0
 40
0.0065112188551108
 50
267.84564659880931
 51
312.2722872777183056
  0
ARC
  5
AC85
  8
0
 10
3428.5447696755809375
 20
171.8174519359824046
 30
0.0
 40
0.0029869126874674
 50
286.6897846104083101
 51
317.9365255781186193
  0
ARC
  5
AC86
  8
0
 10
3428.5451302004589706
 20
171.818203244597413
 30
0.0
 40
0.0036464615559363
 50
272.44314290985659
 51
277.8381308661769822
  0
LINE
  5
AC87
  8
0
 10
3428.5441658376521445
 20
171.8360100713512111
 30
0.0
 11
3428.5493465557510717
 21
171.8411569257511928
 31
0.0
  0
LINE
  5
AC88
  8
0
 10
3428.5449790039378968
 20
171.8454959291300952
 30
0.0
 11
3428.5579528316520737
 21
171.832606904451211
 31
0.0
  0
ARC
  5
AC89
  8
0
 10
3428.5620962763409807
 20
171.8367776108370037
 30
0.0
 40
0.0058790242086806
 50
225.1878694006196895
 51
274.6941967228632961
  0
ARC
  5
AC8A
  8
0
 10
3428.5544393770642273
 20
171.83830780609469
 30
0.0
 40
0.0109923673458415
 50
317.7598827874550125
 51
357.2075881227585228
  0
LINE
  5
AC8B
  8
0
 10
3428.5654186920519351
 20
171.8377722855512104
 30
0.0
 11
3428.5654186920519351
 21
171.8514785697512082
 31
0.0
  0
LINE
  5
AC8C
  8
0
 10
3428.5654186920519351
 20
171.8514785697512082
 30
0.0
 11
3428.560237974068059
 21
171.8566254241353874
 31
0.0
  0
LINE
  5
AC8D
  8
0
 10
3428.5654186920519351
 20
171.8377722855512104
 30
0.0
 11
3428.5533397418521417
 21
171.849772282051191
 31
0.0
  0
ARC
  5
AC8E
  8
0
 10
3428.5644662638728732
 20
171.8324697155530885
 30
0.0
 40
0.0024443139929465
 50
219.3978197986122041
 51
272.7938588384308218
  0
LINE
  5
AC8F
  8
0
 10
3428.5441476209698521
 20
171.7913678237734985
 30
0.0
 11
3428.5441675805582236
 21
171.8050730728899964
 31
0.0
  0
LINE
  5
AC90
  8
0
 10
3428.5562360300468754
 20
171.8033772172857141
 30
0.0
 11
3428.5441476209698521
 21
171.7913678237734985
 31
0.0
  0
ARC
  5
AC91
  8
0
 10
3428.5551235589769021
 20
171.7919019444028947
 30
0.0
 40
0.0109889262444431
 50
182.7859792424467003
 51
222.2465498473154923
  0
LINE
  5
AC92
  8
0
 10
3428.5645871492770311
 20
171.7990913084900058
 30
0.0
 11
3428.5516134813688041
 21
171.7862024426736127
 31
0.0
  0
ARC
  5
AC93
  8
0
 10
3428.5472336794609873
 20
171.7910204615834004
 30
0.0
 40
0.0065112188551108
 50
267.84564659880931
 51
312.2722872777183056
  0
ARC
  5
AC94
  8
0
 10
3428.544771418486107
 20
171.7865149375211899
 30
0.0
 40
0.0029869126874674
 50
286.6897846104083101
 51
317.9365255781186193
  0
ARC
  5
AC95
  8
0
 10
3428.5451319433650497
 20
171.7872662461361983
 30
0.0
 40
0.0036464615559363
 50
272.3588586041997814
 51
277.8381308661769822
  0
LINE
  5
AC96
  8
0
 10
3428.5441675805582236
 20
171.8050730728899964
 30
0.0
 11
3428.5493482986580602
 21
171.8102199272900066
 31
0.0
  0
ARC
  5
AC97
  8
0
 10
3428.5644680067798618
 20
171.8015327170919022
 30
0.0
 40
0.0024443139929465
 50
219.3978197986122041
 51
272.7938588384308218
  0
LINE
  5
AC98
  8
0
 10
3428.5441241756279851
 20
171.636682839973588
 30
0.0
 11
3428.5441241756279851
 21
171.6503880890900007
 31
0.0
  0
LINE
  5
AC99
  8
0
 10
3428.5562125847059178
 20
171.6486922334856899
 30
0.0
 11
3428.5441241756279851
 21
171.636682839973588
 31
0.0
  0
ARC
  5
AC9A
  8
0
 10
3428.5551001136359446
 20
171.637216960602899
 30
0.0
 40
0.0109889262444431
 50
182.7859792424467003
 51
222.2465498473154923
  0
LINE
  5
AC9B
  8
0
 10
3428.5645637039360736
 20
171.64440632469001
 30
0.0
 11
3428.5515900360278465
 21
171.6315174588735886
 31
0.0
  0
ARC
  5
AC9C
  8
0
 10
3428.5472102341182108
 20
171.6363354777834047
 30
0.0
 40
0.0065112188551108
 50
267.84564659880931
 51
312.2722872777183056
  0
ARC
  5
AC9D
  8
0
 10
3428.5447479731451494
 20
171.6318299537211942
 30
0.0
 40
0.0029869126874674
 50
286.6897846104083101
 51
317.9365255781186193
  0
ARC
  5
AC9E
  8
0
 10
3428.5451045262880143
 20
171.6326248828391954
 30
0.0
 40
0.0036902167203284
 50
268.0544329356641242
 51
277.8068589398292261
  0
LINE
  5
AC9F
  8
0
 10
3428.5441441352159018
 20
171.6503880890900007
 30
0.0
 11
3428.5493248533161932
 21
171.6555349434900108
 31
0.0
  0
ARC
  5
ACA0
  8
0
 10
3428.5644445614379947
 20
171.6468477332919065
 30
0.0
 40
0.0024443139929465
 50
219.3978197986122041
 51
272.7938588384308218
  0
LINE
  5
ACA1
  8
0
 10
3428.544154592592804
 20
171.6676198366735946
 30
0.0
 11
3428.5441745521811754
 21
171.6813250857900073
 31
0.0
  0
LINE
  5
ACA2
  8
0
 10
3428.5562430016711915
 20
171.6796292301856965
 30
0.0
 11
3428.544154592592804
 21
171.6676198366735946
 31
0.0
  0
ARC
  5
ACA3
  8
0
 10
3428.5551305306012182
 20
171.6681539573029056
 30
0.0
 40
0.0109889262444431
 50
182.7859792424467003
 51
222.2465498473154923
  0
ARC
  5
ACA4
  8
0
 10
3428.5447783901090588
 20
171.6627669504212008
 30
0.0
 40
0.0029869126874674
 50
286.6897846104083101
 51
317.9365255781186193
  0
ARC
  5
ACA5
  8
0
 10
3428.5451389149880015
 20
171.6635182590362092
 30
0.0
 40
0.0036464615559363
 50
272.3504775215843097
 51
277.8381308661769822
  0
LINE
  5
ACA6
  8
0
 10
3428.5441745521811754
 20
171.6813250857900073
 30
0.0
 11
3428.5493552702810121
 21
171.686471940189989
 31
0.0
  0
LINE
  5
ACA7
  8
0
 10
3428.5441206898158271
 20
171.6985568334735888
 30
0.0
 11
3428.544140649405108
 21
171.7122620825900015
 31
0.0
  0
LINE
  5
ACA8
  8
0
 10
3428.5562090988942145
 20
171.7105662269856907
 30
0.0
 11
3428.5441206898158271
 21
171.6985568334735888
 31
0.0
  0
ARC
  5
ACA9
  8
0
 10
3428.5550966278251508
 20
171.6990909541028998
 30
0.0
 40
0.0109889262444431
 50
182.7859792424467003
 51
222.2465498473154923
  0
LINE
  5
ACAA
  8
0
 10
3428.5645602181239155
 20
171.7062803181900108
 30
0.0
 11
3428.5515865502161432
 21
171.6933914523735893
 31
0.0
  0
ARC
  5
ACAB
  8
0
 10
3428.5472067483069623
 20
171.6982094712834055
 30
0.0
 40
0.0065112188551108
 50
267.84564659880931
 51
312.2722872777183056
  0
ARC
  5
ACAC
  8
0
 10
3428.5447444873329914
 20
171.693703947221195
 30
0.0
 40
0.0029869126874674
 50
286.6897846104083101
 51
317.9365255781186193
  0
ARC
  5
ACAD
  8
0
 10
3428.5451050122110246
 20
171.6944552558362034
 30
0.0
 40
0.0036464615559363
 50
272.3937236740383128
 51
277.8381308661769822
  0
LINE
  5
ACAE
  8
0
 10
3428.544140649405108
 20
171.7122620825900015
 30
0.0
 11
3428.5493213675049446
 21
171.7174089369900116
 31
0.0
  0
ARC
  5
ACAF
  8
0
 10
3428.5644410756258367
 20
171.7087217267919073
 30
0.0
 40
0.0024443139929465
 50
219.3978197986122041
 51
272.7938588384308218
  0
LINE
  5
ACB0
  8
0
 10
3428.5449795654822083
 20
171.8145601059704006
 30
0.0
 11
3428.5579545745581527
 21
171.8016699076511884
 31
0.0
  0
ARC
  5
ACB1
  8
0
 10
3428.5620980192470597
 20
171.8058406140370096
 30
0.0
 40
0.0058790242086806
 50
225.1878694006196895
 51
274.6941967228632961
  0
ARC
  5
ACB2
  8
0
 10
3428.5544538215240209
 20
171.8073627554232132
 30
0.0
 40
0.0109775501264639
 50
317.7464381018756967
 51
357.2459014102308856
  0
LINE
  5
ACB3
  8
0
 10
3428.5654186920519351
 20
171.8068352887511878
 30
0.0
 11
3428.5533414847582208
 21
171.8188352852511969
 31
0.0
  0
LINE
  5
ACB4
  8
0
 10
3428.5449842031639491
 20
171.7217497011810963
 30
0.0
 11
3428.557959803275935
 21
171.7088589156900014
 31
0.0
  0
ARC
  5
ACB5
  8
0
 10
3428.5621032479639325
 20
171.7130296220757941
 30
0.0
 40
0.0058790242086806
 50
225.1878694006196895
 51
274.6941967228632961
  0
ARC
  5
ACB6
  8
0
 10
3428.5544969671191211
 20
171.7145277209206995
 30
0.0
 40
0.0109333211502977
 50
317.7060860633303037
 51
357.3608860870393755
  0
LINE
  5
ACB7
  8
0
 10
3428.5654186920519351
 20
171.7140242967900008
 30
0.0
 11
3428.5533467134760031
 21
171.7260242932900098
 31
0.0
  0
LINE
  5
ACB8
  8
0
 10
3428.5449866703288535
 20
171.6908119848557988
 30
0.0
 11
3428.5579615461811045
 21
171.6779219188900072
 31
0.0
  0
ARC
  5
ACB9
  8
0
 10
3428.5621049908700115
 20
171.6820926252757999
 30
0.0
 40
0.0058790242086806
 50
225.1878694006196895
 51
274.6941967228632961
  0
ARC
  5
ACBA
  8
0
 10
3428.5544480915918939
 20
171.6836228205334862
 30
0.0
 40
0.0109923673458415
 50
317.7598827874550125
 51
357.2075881227585228
  0
LINE
  5
ACBB
  8
0
 10
3428.5654274065809659
 20
171.6830872999900066
 30
0.0
 11
3428.5533484563811726
 21
171.6950872964899872
 31
0.0
  0
LINE
  5
ACBC
  8
0
 10
3428.5449885258171889
 20
171.6598748763096012
 30
0.0
 11
3428.5579632890871835
 21
171.6469849221900006
 31
0.0
  0
ARC
  5
ACBD
  8
0
 10
3428.5621067337760906
 20
171.6511556285757933
 30
0.0
 40
0.0058790242086806
 50
225.1878694006196895
 51
274.6941967228632961
  0
LINE
  5
ACBE
  8
0
 10
3428.6123305521018665
 20
171.636682858551211
 30
0.0
 11
3428.6377885167021304
 21
171.636682858551211
 31
0.0
  0
LINE
  5
ACBF
  8
0
 10
3428.6377885167021304
 20
171.636682858551211
 30
0.0
 11
3428.6377885167021304
 21
171.6503881076675952
 31
0.0
  0
LINE
  5
ACC0
  8
0
 10
3428.6498769257800632
 20
171.6486922520633129
 30
0.0
 11
3428.6377885167021304
 21
171.636682858551211
 31
0.0
  0
ARC
  5
ACC1
  8
0
 10
3428.6487644547100899
 20
171.6372169791804936
 30
0.0
 40
0.0109889262444431
 50
182.7859792424467003
 51
222.2465498473154923
  0
LINE
  5
ACC2
  8
0
 10
3428.6582280450102189
 20
171.6444063432676046
 30
0.0
 11
3428.6452543771010824
 21
171.6315174774512116
 31
0.0
  0
ARC
  5
ACC3
  8
0
 10
3428.6408745751928109
 20
171.6363354963609993
 30
0.0
 40
0.0065112188551108
 50
267.84564659880931
 51
312.2722872777183056
  0
ARC
  5
ACC4
  8
0
 10
3428.6314928713450172
 20
171.6438395954797898
 30
0.0
 40
0.0167267377498007
 50
297.6370570446965189
 51
303.1099439844330732
  0
LINE
  5
ACC5
  8
0
 10
3428.6386008010022124
 20
171.6289388799511926
 30
0.0
 11
3428.6111161858020751
 21
171.6289367761511926
 31
0.0
  0
ARC
  5
ACC6
  8
0
 10
3428.6111592893289526
 20
171.6305994479481001
 30
0.0
 40
0.0016632304165147
 50
230.7119913469850019
 51
268.5149822221620184
  0
ARC
  5
ACC7
  8
0
 10
3428.632058916035021
 20
171.6561447080860887
 30
0.0
 40
0.0346686044023185
 50
229.3821039036623972
 51
230.7119913469850019
  0
LINE
  5
ACC8
  8
0
 10
3428.6123305521018665
 20
171.6503881076675952
 30
0.0
 11
3428.6123305521018665
 21
171.636682858551211
 31
0.0
  0
ARC
  5
ACC9
  8
0
 10
3428.6026430607389557
 20
171.636682858551211
 30
0.0
 40
0.0096874913631844
 50
314.9674709104971839
 51
0.0000000000081422
  0
ARC
  5
ACCA
  8
0
 10
3428.6092976733280011
 20
171.636481777343505
 30
0.0
 40
0.0066556556674334
 50
228.2633150360782111
 51
271.6495301387444101
  0
LINE
  5
ACCB
  8
0
 10
3428.6048669483020603
 20
171.6315152465512028
 30
0.0
 11
3428.5918910204218264
 21
171.6444063432676046
 31
0.0
  0
LINE
  5
ACCC
  8
0
 10
3428.6123305521018665
 20
171.636682858551211
 30
0.0
 11
3428.6002621026541419
 21
171.6486724229820879
 31
0.0
  0
LINE
  5
ACCD
  8
0
 10
3428.6378084762900471
 20
171.6503881076675952
 30
0.0
 11
3428.6123505116897832
 21
171.6503881076675952
 31
0.0
  0
LINE
  5
ACCE
  8
0
 10
3428.6123505116897832
 20
171.6503881076675952
 30
0.0
 11
3428.6070986451900353
 21
171.6556056455081034
 31
0.0
  0
LINE
  5
ACCF
  8
0
 10
3428.6378084762900471
 20
171.6503881076675952
 30
0.0
 11
3428.6429891943898838
 21
171.6555349620676054
 31
0.0
  0
LINE
  5
ACD0
  8
0
 10
3428.6123305521018665
 20
171.6676198552511892
 30
0.0
 11
3428.6377885167021304
 21
171.6676198552511892
 31
0.0
  0
LINE
  5
ACD1
  8
0
 10
3428.6377885167021304
 20
171.6676198552511892
 30
0.0
 11
3428.6377885167021304
 21
171.6813251043676019
 31
0.0
  0
LINE
  5
ACD2
  8
0
 10
3428.6498769257800632
 20
171.6796292487632911
 30
0.0
 11
3428.6377885167021304
 21
171.6676198552511892
 31
0.0
  0
ARC
  5
ACD3
  8
0
 10
3428.6487644547100899
 20
171.6681539758805002
 30
0.0
 40
0.0109889262444431
 50
182.7859792424467003
 51
222.2465498473154923
  0
LINE
  5
ACD4
  8
0
 10
3428.6582280450102189
 20
171.6753433399676112
 30
0.0
 11
3428.6452543771010824
 21
171.6624544741511897
 31
0.0
  0
ARC
  5
ACD5
  8
0
 10
3428.6408745751928109
 20
171.6672724930610059
 30
0.0
 40
0.0065112188551108
 50
267.84564659880931
 51
312.2722872777183056
  0
ARC
  5
ACD6
  8
0
 10
3428.63841231421884
 20
171.6627669689987954
 30
0.0
 40
0.0029869126874674
 50
286.6897846104083101
 51
317.9365255781186193
  0
LINE
  5
ACD7
  8
0
 10
3428.6386008010022124
 20
171.6598758766511992
 30
0.0
 11
3428.6111161858020751
 21
171.6598737728511992
 31
0.0
  0
ARC
  5
ACD8
  8
0
 10
3428.6111592893289526
 20
171.6615364446481067
 30
0.0
 40
0.0016632304165147
 50
230.7119913469850019
 51
268.5149822221620184
  0
ARC
  5
ACD9
  8
0
 10
3428.632058916035021
 20
171.6870817047860953
 30
0.0
 40
0.0346686044023185
 50
229.3821039036623972
 51
230.7119913469850019
  0
LINE
  5
ACDA
  8
0
 10
3428.6123305521018665
 20
171.6813251043676019
 30
0.0
 11
3428.6123305521018665
 21
171.6676198552511892
 31
0.0
  0
ARC
  5
ACDB
  8
0
 10
3428.6026430607389557
 20
171.6676198552511892
 30
0.0
 40
0.0096874913631844
 50
314.9674709104971839
 51
0.0000000000081422
  0
LINE
  5
ACDC
  8
0
 10
3428.6123305521018665
 20
171.6676198552511892
 30
0.0
 11
3428.6001516108481155
 21
171.6797191892615899
 31
0.0
  0
LINE
  5
ACDD
  8
0
 10
3428.6378084762900471
 20
171.6813251043676019
 30
0.0
 11
3428.6123505116897832
 21
171.6813251043676019
 31
0.0
  0
LINE
  5
ACDE
  8
0
 10
3428.6123505116897832
 20
171.6813251043676019
 30
0.0
 11
3428.6070593018639556
 21
171.6865817283668889
 31
0.0
  0
LINE
  5
ACDF
  8
0
 10
3428.6378084762900471
 20
171.6813251043676019
 30
0.0
 11
3428.6429891943898838
 21
171.686471958767612
 31
0.0
  0
LINE
  5
ACE0
  8
0
 10
3428.6123305521018665
 20
171.6985568520512118
 30
0.0
 11
3428.6377885167021304
 21
171.6985568520512118
 31
0.0
  0
LINE
  5
ACE1
  8
0
 10
3428.6377885167021304
 20
171.6985568520512118
 30
0.0
 11
3428.6377885167021304
 21
171.712262101167596
 31
0.0
  0
LINE
  5
ACE2
  8
0
 10
3428.6498769257800632
 20
171.7105662455633137
 30
0.0
 11
3428.6377885167021304
 21
171.6985568520512118
 31
0.0
  0
ARC
  5
ACE3
  8
0
 10
3428.6487644547100899
 20
171.6990909726804944
 30
0.0
 40
0.0109889262444431
 50
182.7859792424467003
 51
222.2465498473154923
  0
LINE
  5
ACE4
  8
0
 10
3428.6582280450102189
 20
171.7062803367676054
 30
0.0
 11
3428.6452543771010824
 21
171.6933914709512123
 31
0.0
  0
ARC
  5
ACE5
  8
0
 10
3428.6408745751928109
 20
171.6982094898610001
 30
0.0
 40
0.0065112188551108
 50
267.84564659880931
 51
312.2722872777183056
  0
ARC
  5
ACE6
  8
0
 10
3428.63841231421884
 20
171.6937039657987896
 30
0.0
 40
0.0029869126874674
 50
286.6897846104083101
 51
317.9365255781186193
  0
LINE
  5
ACE7
  8
0
 10
3428.6386008010022124
 20
171.6908128734511934
 30
0.0
 11
3428.6111161858020751
 21
171.6908107696511934
 31
0.0
  0
ARC
  5
ACE8
  8
0
 10
3428.6111592893289526
 20
171.6924734414481009
 30
0.0
 40
0.0016632304165147
 50
230.7119913469850019
 51
268.5149822221620184
  0
ARC
  5
ACE9
  8
0
 10
3428.632058916035021
 20
171.7180187015860895
 30
0.0
 40
0.0346686044023185
 50
229.3821039036623972
 51
230.7119913469850019
  0
LINE
  5
ACEA
  8
0
 10
3428.6123305521018665
 20
171.712262101167596
 30
0.0
 11
3428.6123305521018665
 21
171.6985568520512118
 31
0.0
  0
ARC
  5
ACEB
  8
0
 10
3428.6026430607389557
 20
171.6985568520512118
 30
0.0
 40
0.0096874913631844
 50
314.9674709104971839
 51
0.0000000000081422
  0
ARC
  5
ACEC
  8
0
 10
3428.6092976733280011
 20
171.6983557708435058
 30
0.0
 40
0.0066556556674334
 50
228.2633150360782111
 51
271.6495301387444101
  0
LINE
  5
ACED
  8
0
 10
3428.6048669483020603
 20
171.6933892400512036
 30
0.0
 11
3428.5918910204218264
 21
171.7062803367676054
 31
0.0
  0
LINE
  5
ACEE
  8
0
 10
3428.6123305521018665
 20
171.6985568520512118
 30
0.0
 11
3428.6001516108549367
 21
171.7106561860545071
 31
0.0
  0
LINE
  5
ACEF
  8
0
 10
3428.6378084762900471
 20
171.712262101167596
 30
0.0
 11
3428.6123505116897832
 21
171.712262101167596
 31
0.0
  0
LINE
  5
ACF0
  8
0
 10
3428.6123505116897832
 20
171.712262101167596
 30
0.0
 11
3428.6070593018989712
 21
171.7175187251328055
 31
0.0
  0
LINE
  5
ACF1
  8
0
 10
3428.6378084762900471
 20
171.712262101167596
 30
0.0
 11
3428.6429891943898838
 21
171.7174089555676062
 31
0.0
  0
ARC
  5
ACF2
  8
0
 10
3428.6386546573407941
 20
171.6970913709822923
 30
0.0
 40
0.0062787285140456
 50
269.5085344483837844
 51
275.6254085097471034
  0
LINE
  5
ACF3
  8
0
 10
3428.6123305521018665
 20
171.7294938488512059
 30
0.0
 11
3428.6377885167021304
 21
171.7294938488512059
 31
0.0
  0
LINE
  5
ACF4
  8
0
 10
3428.6377885167021304
 20
171.7294938488512059
 30
0.0
 11
3428.6377885167021304
 21
171.7431990979675902
 31
0.0
  0
LINE
  5
ACF5
  8
0
 10
3428.6498769257800632
 20
171.7415032423633079
 30
0.0
 11
3428.6377885167021304
 21
171.7294938488512059
 31
0.0
  0
ARC
  5
ACF6
  8
0
 10
3428.6487644547100899
 20
171.7300279694804885
 30
0.0
 40
0.0109889262444431
 50
182.7859792424467003
 51
222.2465498473154923
  0
LINE
  5
ACF7
  8
0
 10
3428.6582280450102189
 20
171.7372173335675996
 30
0.0
 11
3428.6452543771010824
 21
171.7243284677512065
 31
0.0
  0
ARC
  5
ACF8
  8
0
 10
3428.6408745751928109
 20
171.7291464866611079
 30
0.0
 40
0.0065112188551108
 50
267.84564659880931
 51
312.2722872777183056
  0
ARC
  5
ACF9
  8
0
 10
3428.63841231421884
 20
171.7246409625988122
 30
0.0
 40
0.0029869126874674
 50
286.6897846104083101
 51
317.9365255781186193
  0
LINE
  5
ACFA
  8
0
 10
3428.6386008010022124
 20
171.7217498702511875
 30
0.0
 11
3428.6111161858020751
 21
171.7217477664511875
 31
0.0
  0
ARC
  5
ACFB
  8
0
 10
3428.6111592893289526
 20
171.723410438248095
 30
0.0
 40
0.0016632304165147
 50
230.7119913469850019
 51
268.5149822221620184
  0
ARC
  5
ACFC
  8
0
 10
3428.632058916035021
 20
171.7489556983861121
 30
0.0
 40
0.0346686044023185
 50
229.3821039036623972
 51
230.7119913469850019
  0
LINE
  5
ACFD
  8
0
 10
3428.6123305521018665
 20
171.7431990979675902
 30
0.0
 11
3428.6123305521018665
 21
171.7294938488512059
 31
0.0
  0
ARC
  5
ACFE
  8
0
 10
3428.6026430607389557
 20
171.7294938488512059
 30
0.0
 40
0.0096874913631844
 50
314.9674709104971839
 51
0.0000000000081422
  0
ARC
  5
ACFF
  8
0
 10
3428.6092976733280011
 20
171.7292927676433862
 30
0.0
 40
0.0066556556674334
 50
228.2633150360782111
 51
271.6495301387444101
  0
LINE
  5
AD00
  8
0
 10
3428.6048669483020603
 20
171.7243262368511978
 30
0.0
 11
3428.5918910204218264
 21
171.7372173335675996
 31
0.0
  0
LINE
  5
AD01
  8
0
 10
3428.6123305521018665
 20
171.7294938488512059
 30
0.0
 11
3428.6002621026541419
 21
171.7414834132821113
 31
0.0
  0
LINE
  5
AD02
  8
0
 10
3428.6378084762900471
 20
171.7431990979675902
 30
0.0
 11
3428.6123505116897832
 21
171.7431990979675902
 31
0.0
  0
LINE
  5
AD03
  8
0
 10
3428.6123505116897832
 20
171.7431990979675902
 30
0.0
 11
3428.6071697936899909
 21
171.7483459523676004
 31
0.0
  0
LINE
  5
AD04
  8
0
 10
3428.6378084762900471
 20
171.7431990979675902
 30
0.0
 11
3428.6429891943898838
 21
171.7483459523676004
 31
0.0
  0
LINE
  5
AD05
  8
0
 10
3428.603178350395865
 20
171.7260243118676044
 30
0.0
 11
3428.5908766567517887
 21
171.7140242967900008
 31
0.0
  0
LINE
  5
AD06
  8
0
 10
3428.6123305521018665
 20
171.7604308455512125
 30
0.0
 11
3428.6377885167021304
 21
171.7604308455512125
 31
0.0
  0
LINE
  5
AD07
  8
0
 10
3428.6377885167021304
 20
171.7604308455512125
 30
0.0
 11
3428.6377885167021304
 21
171.7741360946675968
 31
0.0
  0
LINE
  5
AD08
  8
0
 10
3428.6498769257800632
 20
171.7724402390632861
 30
0.0
 11
3428.6377885167021304
 21
171.7604308455512125
 31
0.0
  0
ARC
  5
AD09
  8
0
 10
3428.6487644547100899
 20
171.7609649661804951
 30
0.0
 40
0.0109889262444431
 50
182.7859792424467003
 51
222.2465498473154923
  0
LINE
  5
AD0A
  8
0
 10
3428.6582280450102189
 20
171.7681543302676062
 30
0.0
 11
3428.6452543771010824
 21
171.7552654644512131
 31
0.0
  0
ARC
  5
AD0B
  8
0
 10
3428.6408745751928109
 20
171.7600834833610008
 30
0.0
 40
0.0065112188551108
 50
267.84564659880931
 51
312.2722872777183056
  0
ARC
  5
AD0C
  8
0
 10
3428.63841231421884
 20
171.7555779592987903
 30
0.0
 40
0.0029869126874674
 50
286.6897846104083101
 51
317.9365255781186193
  0
LINE
  5
AD0D
  8
0
 10
3428.6386008010022124
 20
171.7526868669511941
 30
0.0
 11
3428.6111161858020751
 21
171.7526847631511941
 31
0.0
  0
ARC
  5
AD0E
  8
0
 10
3428.6111592893289526
 20
171.7543474349481016
 30
0.0
 40
0.0016632304165147
 50
230.7119913469850019
 51
268.5149822221620184
  0
ARC
  5
AD0F
  8
0
 10
3428.632058916035021
 20
171.7798926950860903
 30
0.0
 40
0.0346686044023185
 50
229.3821039036623972
 51
230.7119913469850019
  0
LINE
  5
AD10
  8
0
 10
3428.6123305521018665
 20
171.7741360946675968
 30
0.0
 11
3428.6123305521018665
 21
171.7604308455512125
 31
0.0
  0
ARC
  5
AD11
  8
0
 10
3428.6026430607389557
 20
171.7604308455512125
 30
0.0
 40
0.0096874913631844
 50
314.9674709104971839
 51
0.0000000000081422
  0
ARC
  5
AD12
  8
0
 10
3428.6092976733280011
 20
171.7602297643435065
 30
0.0
 40
0.0066556556674334
 50
228.2633150360782111
 51
271.6495301387444101
  0
LINE
  5
AD13
  8
0
 10
3428.6048669483020603
 20
171.7552632335512044
 30
0.0
 11
3428.5918910204218264
 21
171.7681543302676062
 31
0.0
  0
LINE
  5
AD14
  8
0
 10
3428.6123305521018665
 20
171.7604308455512125
 30
0.0
 11
3428.6001516108481155
 21
171.7725301795614996
 31
0.0
  0
LINE
  5
AD15
  8
0
 10
3428.6378084762900471
 20
171.7741360946675968
 30
0.0
 11
3428.6123505116897832
 21
171.7741360946675968
 31
0.0
  0
LINE
  5
AD16
  8
0
 10
3428.6123505116897832
 20
171.7741360946675968
 30
0.0
 11
3428.6070593018639556
 21
171.7793927186669123
 31
0.0
  0
LINE
  5
AD17
  8
0
 10
3428.6378084762900471
 20
171.7741360946675968
 30
0.0
 11
3428.6429891943898838
 21
171.779282949067607
 31
0.0
  0
LINE
  5
AD18
  8
0
 10
3428.6031679303328019
 20
171.7569511440547956
 30
0.0
 11
3428.5908766567517887
 21
171.744961312067602
 31
0.0
  0
LINE
  5
AD19
  8
0
 10
3428.6123305521018665
 20
171.823194838851208
 30
0.0
 11
3428.6377885167021304
 21
171.823194838851208
 31
0.0
  0
LINE
  5
AD1A
  8
0
 10
3428.6377885167021304
 20
171.823194838851208
 30
0.0
 11
3428.6377885167021304
 21
171.8369000879675923
 31
0.0
  0
LINE
  5
AD1B
  8
0
 10
3428.6493184892710815
 20
171.8346494460597
 30
0.0
 11
3428.6377885167021304
 21
171.823194838851208
 31
0.0
  0
ARC
  5
AD1C
  8
0
 10
3428.6487644547100899
 20
171.8237289594804906
 30
0.0
 40
0.0109889262444431
 50
182.7859792424467003
 51
222.2465498473154923
  0
LINE
  5
AD1D
  8
0
 10
3428.65736088811218
 20
171.8300568348215052
 30
0.0
 11
3428.6452543771010824
 21
171.8180294577512086
 31
0.0
  0
ARC
  5
AD1E
  8
0
 10
3428.6408745751928109
 20
171.8228474766609963
 30
0.0
 40
0.0065112188551108
 50
267.84564659880931
 51
312.2722872777183056
  0
ARC
  5
AD1F
  8
0
 10
3428.63841231421884
 20
171.8183419525987858
 30
0.0
 40
0.0029869126874674
 50
286.6897846104083101
 51
317.9365255781186193
  0
LINE
  5
AD20
  8
0
 10
3428.6386008010022124
 20
171.8154508602511896
 30
0.0
 11
3428.6111161858020751
 21
171.8154487564511896
 31
0.0
  0
ARC
  5
AD21
  8
0
 10
3428.6111592893289526
 20
171.8171114282480971
 30
0.0
 40
0.0016632304165147
 50
230.7119913469850019
 51
268.5149822221620184
  0
ARC
  5
AD22
  8
0
 10
3428.632058916035021
 20
171.8426566883861142
 30
0.0
 40
0.0346686044023185
 50
229.3821039036623972
 51
230.7119913469850019
  0
LINE
  5
AD23
  8
0
 10
3428.6123305521018665
 20
171.8369000879675923
 30
0.0
 11
3428.6123305521018665
 21
171.823194838851208
 31
0.0
  0
ARC
  5
AD24
  8
0
 10
3428.6026430607389557
 20
171.823194838851208
 30
0.0
 40
0.0096874913631844
 50
314.9674709104971839
 51
0.0000000000081422
  0
ARC
  5
AD25
  8
0
 10
3428.6092976733280011
 20
171.8229937576433883
 30
0.0
 40
0.0066556556674334
 50
228.2633150360782111
 51
271.6495301387444101
  0
LINE
  5
AD26
  8
0
 10
3428.6048669483020603
 20
171.8180272268511999
 30
0.0
 11
3428.592658558812218
 21
171.830155803021313
 31
0.0
  0
LINE
  5
AD27
  8
0
 10
3428.6123305521018665
 20
171.823194838851208
 30
0.0
 11
3428.6006018619959832
 21
171.8348468647646996
 31
0.0
  0
LINE
  5
AD28
  8
0
 10
3428.6378084762900471
 20
171.8369000879675923
 30
0.0
 11
3428.6123505116897832
 21
171.8369000879675923
 31
0.0
  0
LINE
  5
AD29
  8
0
 10
3428.6123505116897832
 20
171.8369000879675923
 30
0.0
 11
3428.6075080269479258
 21
171.8417109199610024
 31
0.0
  0
LINE
  5
AD2A
  8
0
 10
3428.6378084762900471
 20
171.8369000879675923
 30
0.0
 11
3428.6424307578149637
 21
171.8414921560062112
 31
0.0
  0
LINE
  5
AD2B
  8
0
 10
3428.603178350395865
 20
171.8197253018676065
 30
0.0
 11
3428.5908766567517887
 21
171.8068352887511878
 31
0.0
  0
LINE
  5
AD2C
  8
0
 10
3428.6399211196999204
 20
171.8439853899251091
 30
0.0
 11
3428.6513744697508628
 21
171.832606904451211
 31
0.0
  0
ARC
  5
AD2D
  8
0
 10
3428.6555179144611429
 20
171.8367776108945861
 30
0.0
 40
0.0058790242643684
 50
225.1878696508730116
 51
274.6941964726506171
  0
ARC
  5
AD2E
  8
0
 10
3428.6582761570762159
 20
171.8330108958350877
 30
0.0
 40
0.0030926030702117
 50
222.5818906734087932
 51
252.7852339243189022
  0
ARC
  5
AD2F
  8
0
 10
3428.6479117972558015
 20
171.8382952288974934
 30
0.0
 40
0.0109463449005199
 50
317.6299354746009271
 51
356.7642955326389256
  0
LINE
  5
AD30
  8
0
 10
3428.6346214979330398
 20
171.8455119843571879
 30
0.0
 11
3428.6109179177510669
 21
171.8454968053511891
 31
0.0
  0
ARC
  5
AD31
  8
0
 10
3428.6109166787578033
 20
171.8474316229552983
 30
0.0
 40
0.0019348180007574
 50
212.6842047323598877
 51
270.0366903589081176
  0
ARC
  5
AD32
  8
0
 10
3428.6010609630247927
 20
171.8538464820437071
 30
0.0
 40
0.0111056086777604
 50
317.8013170256285207
 51
345.128734487488714
  0
ARC
  5
AD33
  8
0
 10
3428.6091708639210083
 20
171.8532431708667048
 30
0.0
 40
0.0068573700046247
 50
228.9322423064816974
 51
270.9806036667599756
  0
LINE
  5
AD34
  8
0
 10
3428.6046659072521834
 20
171.8480731719511994
 30
0.0
 11
3428.5993429156142156
 21
171.853361359057601
 31
0.0
  0
LINE
  5
AD35
  8
0
 10
3428.6029556069188402
 20
171.8497722820193019
 30
0.0
 11
3428.5908766567517887
 21
171.8377722855512104
 31
0.0
  0
LINE
  5
AD36
  8
0
 10
3428.5937089895819554
 20
171.854292433962712
 30
0.0
 11
3428.5908766567517887
 21
171.8514785697512082
 31
0.0
  0
LINE
  5
AD37
  8
0
 10
3428.5908766567517887
 20
171.8514785697512082
 30
0.0
 11
3428.5908766567517887
 21
171.8377722855512104
 31
0.0
  0
ARC
  5
AD38
  8
0
 10
3428.6005641481151542
 20
171.8377722855512104
 30
0.0
 40
0.0096874913631266
 50
180.0000000000015916
 51
225.0325290897561104
  0
ARC
  5
AD39
  8
0
 10
3428.5939337507038545
 20
171.8375200961853864
 30
0.0
 40
0.0066053156455538
 50
268.1277478662926228
 51
311.8908664973383793
  0
LINE
  5
AD3A
  8
0
 10
3428.5983442117521918
 20
171.8326029803511972
 30
0.0
 11
3428.6113171380698077
 21
171.8454968053511891
 31
0.0
  0
ARC
  5
AD3B
  8
0
 10
3428.5910217648151956
 20
171.8335470710131005
 30
0.0
 40
0.0037656066149491
 50
295.7642596319004156
 51
315.7253578061691996
  0
ARC
  5
AD3C
  8
0
 10
3428.5919217123500857
 20
171.83200882067311
 30
0.0
 40
0.0019941457134707
 50
263.2967324659762767
 51
291.685081774256787
  0
LINE
  5
AD3D
  8
0
 10
3428.5916889409518262
 20
171.830028306951192
 30
0.0
 11
3428.5645854063718616
 21
171.830028306951192
 31
0.0
  0
LINE
  5
AD3E
  8
0
 10
3428.5654186920519351
 20
171.8377722855512104
 30
0.0
 11
3428.5908766567517887
 21
171.8377722855512104
 31
0.0
  0
LINE
  5
AD3F
  8
0
 10
3428.5908766567517887
 20
171.8514785697512082
 30
0.0
 11
3428.5654186920519351
 21
171.8514785697512082
 31
0.0
  0
LINE
  5
AD40
  8
0
 10
3428.5908766567517887
 20
171.820541572951214
 30
0.0
 11
3428.5654186920519351
 21
171.820541572951214
 31
0.0
  0
LINE
  5
AD41
  8
0
 10
3428.5654186920519351
 20
171.820541572951214
 30
0.0
 11
3428.5602274733259947
 21
171.8256988594388019
 31
0.0
  0
LINE
  5
AD42
  8
0
 10
3428.5908766567517887
 20
171.820541572951214
 30
0.0
 11
3428.5966063533178385
 21
171.8262338175362913
 31
0.0
  0
LINE
  5
AD43
  8
0
 10
3428.5908766567517887
 20
171.820541572951214
 30
0.0
 11
3428.5908766567517887
 21
171.8068352887511878
 31
0.0
  0
ARC
  5
AD44
  8
0
 10
3428.60187649224099
 20
171.8073793160978937
 30
0.0
 40
0.0110132804625037
 50
182.8314144430993053
 51
222.2011152380738963
  0
LINE
  5
AD45
  8
0
 10
3428.5908766567517887
 20
171.8068352887511878
 30
0.0
 11
3428.5654186920519351
 21
171.8068352887511878
 31
0.0
  0
LINE
  5
AD46
  8
0
 10
3428.5654186920519351
 20
171.8068352887511026
 30
0.0
 11
3428.5654186920519351
 21
171.820541572951214
 31
0.0
  0
LINE
  5
AD47
  8
0
 10
3428.609489261400995
 20
171.8163408600512128
 30
0.0
 11
3428.5937179474522054
 21
171.7999813100512085
 31
0.0
  0
ARC
  5
AD48
  8
0
 10
3428.5916219044588615
 20
171.802001986176009
 30
0.0
 40
0.0029114477893966
 50
271.319359944479686
 51
316.0488257788920237
  0
LINE
  5
AD49
  8
0
 10
3428.5916889409518262
 20
171.7990913102512138
 30
0.0
 11
3428.5645871492770311
 21
171.7990913084900058
 31
0.0
  0
LINE
  5
AD4A
  8
0
 10
3428.5441658376521445
 20
171.7741360778512103
 30
0.0
 11
3428.5493465557187847
 21
171.7792829322193029
 31
0.0
  0
LINE
  5
AD4B
  8
0
 10
3428.5449781280321986
 20
171.7836228852297893
 30
0.0
 11
3428.557956098161867
 21
171.7707296764112073
 31
0.0
  0
ARC
  5
AD4C
  8
0
 10
3428.5620925166372217
 20
171.774893288135786
 30
0.0
 40
0.0058690391366968
 50
225.1877165339481905
 51
274.7390295629882075
  0
ARC
  5
AD4D
  8
0
 10
3428.5544373490702128
 20
171.7764346532995887
 30
0.0
 40
0.0109944339184321
 50
317.7637438424386005
 51
357.2037264763416147
  0
LINE
  5
AD4E
  8
0
 10
3428.5654186920519351
 20
171.7758982919511936
 30
0.0
 11
3428.5654186920519351
 21
171.7896045761511914
 31
0.0
  0
LINE
  5
AD4F
  8
0
 10
3428.5654186920519351
 20
171.7896045761511914
 30
0.0
 11
3428.5908766567517887
 21
171.7896045761511914
 31
0.0
  0
LINE
  5
AD50
  8
0
 10
3428.5908766567517887
 20
171.7896045761511914
 30
0.0
 11
3428.5960234004951417
 21
171.7947851827732109
 31
0.0
  0
LINE
  5
AD51
  8
0
 10
3428.5654186920519351
 20
171.7896045761511914
 30
0.0
 11
3428.5602267732488144
 21
171.7947594339622981
 31
0.0
  0
LINE
  5
AD52
  8
0
 10
3428.5916889409518262
 20
171.7990913102512138
 30
0.0
 11
3428.6046669267661855
 21
171.7861981652712871
 31
0.0
  0
LINE
  5
AD53
  8
0
 10
3428.6029556069129285
 20
171.7878982885129915
 30
0.0
 11
3428.5908766567517887
 21
171.7758982919511936
 31
0.0
  0
LINE
  5
AD54
  8
0
 10
3428.5908766567517887
 20
171.7758982919511936
 30
0.0
 11
3428.5908766567517887
 21
171.7896045761513051
 31
0.0
  0
LINE
  5
AD55
  8
0
 10
3428.5908766567517887
 20
171.7758982919511936
 30
0.0
 11
3428.5654186920519351
 21
171.7758982919511936
 31
0.0
  0
LINE
  5
AD56
  8
0
 10
3428.5654186920519351
 20
171.7758982919511936
 30
0.0
 11
3428.553327212709064
 21
171.7879049722463094
 31
0.0
  0
ARC
  5
AD57
  8
0
 10
3428.6018764869590996
 20
171.7764423171082058
 30
0.0
 40
0.0110132750787622
 50
182.8314044229481965
 51
222.2011252582312011
  0
ARC
  5
AD58
  8
0
 10
3428.59175179287422
 20
171.7707602504434874
 30
0.0
 40
0.0026096368086733
 50
273.0582570099006148
 51
318.8875709585623781
  0
LINE
  5
AD59
  8
0
 10
3428.5918910204218264
 20
171.7681543302676062
 30
0.0
 11
3428.5642043257521436
 21
171.7681522096511912
 31
0.0
  0
ARC
  5
AD5A
  8
0
 10
3428.5645283294870751
 20
171.7706796123603965
 30
0.0
 40
0.0025456480051292
 50
219.9702759697809995
 51
262.7506221103582789
  0
LINE
  5
AD5B
  8
0
 10
3428.6113150520441195
 20
171.783620738582897
 30
0.0
 11
3428.5983414440897832
 21
171.7707262335758003
 31
0.0
  0
ARC
  5
AD5C
  8
0
 10
3428.5939056252000228
 20
171.7757242141753125
 30
0.0
 40
0.0066825368905556
 50
268.3906475688784212
 51
311.5897675404970073
  0
LINE
  5
AD5D
  8
0
 10
3428.5449792433350922
 20
171.6289367934118104
 30
0.0
 11
3428.557956098161867
 21
171.6160446926112115
 31
0.0
  0
ARC
  5
AD5E
  8
0
 10
3428.5620925166372217
 20
171.6202083043359039
 30
0.0
 40
0.0058690391366968
 50
225.1877165339481905
 51
274.7390295629882075
  0
ARC
  5
AD5F
  8
0
 10
3428.5544373490702128
 20
171.621749669499593
 30
0.0
 40
0.0109944339184321
 50
317.7637438424386005
 51
357.2037264763416147
  0
LINE
  5
AD60
  8
0
 10
3428.5654186920519351
 20
171.6212133081511979
 30
0.0
 11
3428.5654186920519351
 21
171.6349195923511957
 31
0.0
  0
LINE
  5
AD61
  8
0
 10
3428.5654186920519351
 20
171.6349195923511957
 30
0.0
 11
3428.5908766567517887
 21
171.6349195923511957
 31
0.0
  0
LINE
  5
AD62
  8
0
 10
3428.5908766567517887
 20
171.6349195923511957
 30
0.0
 11
3428.5960234004951417
 21
171.6401001989731867
 31
0.0
  0
LINE
  5
AD63
  8
0
 10
3428.5654186920519351
 20
171.6349195923511957
 30
0.0
 11
3428.5602267732488144
 21
171.6400744501623024
 31
0.0
  0
LINE
  5
AD64
  8
0
 10
3428.6029556069129285
 20
171.6332133047129958
 30
0.0
 11
3428.5908766567517887
 21
171.6212133081511979
 31
0.0
  0
LINE
  5
AD65
  8
0
 10
3428.5908766567517887
 20
171.6212133081511979
 30
0.0
 11
3428.5908766567517887
 21
171.6349195923513093
 31
0.0
  0
LINE
  5
AD66
  8
0
 10
3428.5908766567517887
 20
171.6212133081511979
 30
0.0
 11
3428.5654186920519351
 21
171.6212133081511979
 31
0.0
  0
LINE
  5
AD67
  8
0
 10
3428.5654186920519351
 20
171.6212133081511979
 30
0.0
 11
3428.553327212709064
 21
171.6332199884463989
 31
0.0
  0
ARC
  5
AD68
  8
0
 10
3428.6018764869590996
 20
171.62175733330821
 30
0.0
 40
0.0110132750787622
 50
182.8314044229481965
 51
222.2011252582312011
  0
ARC
  5
AD69
  8
0
 10
3428.59175179287422
 20
171.6160752666434917
 30
0.0
 40
0.0026096368086733
 50
273.0582570099006148
 51
318.8875709585623781
  0
LINE
  5
AD6A
  8
0
 10
3428.5918910204218264
 20
171.6134693464676104
 30
0.0
 11
3428.5642070987519219
 21
171.6134693296511955
 31
0.0
  0
ARC
  5
AD6B
  8
0
 10
3428.5645283294870751
 20
171.615994628560486
 30
0.0
 40
0.0025456480051292
 50
219.9702759697809995
 51
262.7506221103582789
  0
LINE
  5
AD6C
  8
0
 10
3428.6113171380311542
 20
171.6289378280511926
 30
0.0
 11
3428.5983414440897832
 21
171.6160412497758045
 31
0.0
  0
ARC
  5
AD6D
  8
0
 10
3428.5939056252000228
 20
171.6210392303752883
 30
0.0
 40
0.0066825368905556
 50
268.3906475688784212
 51
311.5897675404970073
  0
LINE
  5
AD6E
  8
0
 10
3428.5469958832932207
 20
171.6607658578735993
 30
0.0
 11
3428.5625861158810039
 21
171.6762333211900113
 31
0.0
  0
LINE
  5
AD6F
  8
0
 10
3428.5625861176558828
 20
171.676233322951191
 30
0.0
 11
3428.5937179474522054
 21
171.676233322951191
 31
0.0
  0
LINE
  5
AD70
  8
0
 10
3428.5961726936311607
 20
171.7020266553386136
 30
0.0
 11
3428.5908766567517887
 21
171.6967935859512124
 31
0.0
  0
LINE
  5
AD71
  8
0
 10
3428.5908766567517887
 20
171.6967935859512124
 30
0.0
 11
3428.5654186920519351
 21
171.6967935859512124
 31
0.0
  0
LINE
  5
AD72
  8
0
 10
3428.5654186920519351
 20
171.6967935859512124
 30
0.0
 11
3428.560217265493975
 21
171.7019657531724874
 31
0.0
  0
LINE
  5
AD73
  8
0
 10
3428.5654186920519351
 20
171.6967935859512124
 30
0.0
 11
3428.565427404807906
 21
171.6830873017511863
 31
0.0
  0
LINE
  5
AD74
  8
0
 10
3428.565427404807906
 20
171.6830873017511863
 30
0.0
 11
3428.5908766567517887
 21
171.6830873017511863
 31
0.0
  0
LINE
  5
AD75
  8
0
 10
3428.5908766567517887
 20
171.6830873017511863
 30
0.0
 11
3428.5908766567517887
 21
171.6967935859512124
 31
0.0
  0
ARC
  5
AD76
  8
0
 10
3428.6020050111937962
 20
171.683684606029999
 30
0.0
 40
0.0111443727941441
 50
183.0723506053109872
 51
221.9601784844529959
  0
LINE
  5
AD77
  8
0
 10
3428.5937179474522054
 20
171.676233322951191
 30
0.0
 11
3428.6094892614019045
 21
171.6607658764511939
 31
0.0
  0
LINE
  5
AD78
  8
0
 10
3428.6094892614019045
 20
171.6607658764511939
 30
0.0
 11
3428.5937179474522054
 21
171.6452963261511968
 31
0.0
  0
ARC
  5
AD79
  8
0
 10
3428.5914724450572066
 20
171.6475856314351063
 30
0.0
 40
0.0032067428471043
 50
277.5005110596667919
 51
314.4465823439359724
  0
LINE
  5
AD7A
  8
0
 10
3428.591891037348887
 20
171.6444063264511897
 30
0.0
 11
3428.5645637039360736
 21
171.64440632469001
 31
0.0
  0
LINE
  5
AD7B
  8
0
 10
3428.5469958832932207
 20
171.6607658578735993
 30
0.0
 11
3428.5625556989161851
 21
171.6452963244900047
 31
0.0
  0
LINE
  5
AD7C
  8
0
 10
3428.562587858787083
 20
171.6452963244900047
 30
0.0
 11
3428.5940260775460047
 21
171.6453022885822861
 31
0.0
  0
ARC
  5
AD7D
  8
0
 10
3428.5933526757230538
 20
171.6540029084102059
 30
0.0
 40
0.0087266405565782
 50
274.4256981045591033
 51
322.3505282535218157
  0
LINE
  5
AD7E
  8
0
 10
3428.6002621026541419
 20
171.6486724229820879
 30
0.0
 11
3428.6113082930669407
 21
171.6598748247511992
 31
0.0
  0
LINE
  5
AD7F
  8
0
 10
3428.6113172268460403
 20
171.6908118215511934
 30
0.0
 11
3428.5983425171521048
 21
171.6779219206511868
 31
0.0
  0
ARC
  5
AD80
  8
0
 10
3428.5938973625411563
 20
171.682918921282095
 30
0.0
 40
0.0066880052942745
 50
268.4627762190174849
 51
311.6551576576379148
  0
LINE
  5
AD81
  8
0
 10
3428.6030878218621183
 20
171.6951567353092116
 30
0.0
 11
3428.5908766567517887
 21
171.6830873017511863
 31
0.0
  0
LINE
  5
AD82
  8
0
 10
3428.6113451789951796
 20
171.7217477839793958
 30
0.0
 11
3428.5983425171521048
 21
171.7088589174512094
 31
0.0
  0
ARC
  5
AD83
  8
0
 10
3428.5941936844328666
 20
171.7130443800564876
 30
0.0
 40
0.0058932936585921
 50
265.3697517360672009
 51
314.7481821404322204
  0
ARC
  5
AD84
  8
0
 10
3428.5918578742721365
 20
171.7086684508736028
 30
0.0
 40
0.0023883611729234
 50
270.7955938112206127
 51
321.1515046615994038
  0
LINE
  5
AD85
  8
0
 10
3428.591891037348887
 20
171.7062803199511904
 30
0.0
 11
3428.5645602181239155
 21
171.7062803181900108
 31
0.0
  0
LINE
  5
AD86
  8
0
 10
3428.5654186920519351
 20
171.7140242967900008
 30
0.0
 11
3428.5908766567517887
 21
171.7140242967900008
 31
0.0
  0
ARC
  5
AD87
  8
0
 10
3428.6020050119018379
 20
171.714621603277493
 30
0.0
 40
0.0111443736208323
 50
183.0723617491582047
 51
221.9601777570765933
  0
LINE
  5
AD88
  8
0
 10
3428.5908766567517887
 20
171.7140242967900008
 30
0.0
 11
3428.5908766567517887
 21
171.7277305826511906
 31
0.0
  0
LINE
  5
AD89
  8
0
 10
3428.5908766567517887
 20
171.7277305826511906
 30
0.0
 11
3428.5961237854339743
 21
171.7330122405938937
 31
0.0
  0
LINE
  5
AD8A
  8
0
 10
3428.5908766567517887
 20
171.7277305826511906
 30
0.0
 11
3428.5654186920519351
 21
171.7277305826511906
 31
0.0
  0
LINE
  5
AD8B
  8
0
 10
3428.5654186920519351
 20
171.7277305826511906
 30
0.0
 11
3428.5602379740321339
 21
171.7328774370710107
 31
0.0
  0
LINE
  5
AD8C
  8
0
 10
3428.5654186920519351
 20
171.7277305826511906
 30
0.0
 11
3428.5654186920519351
 21
171.7140242967900008
 31
0.0
  0
LINE
  5
AD8D
  8
0
 10
3428.6112830779948126
 20
171.7526847759258999
 30
0.0
 11
3428.5983425171521048
 21
171.7397959141511876
 31
0.0
  0
ARC
  5
AD8E
  8
0
 10
3428.5942052071200123
 20
171.7439498195251986
 30
0.0
 40
0.0058627863814307
 50
265.2326145066036815
 51
314.8853193698544146
  0
ARC
  5
AD8F
  8
0
 10
3428.5918579375302215
 20
171.7396053637438058
 30
0.0
 40
0.002388259324303
 50
270.7937038813728918
 51
321.1521190178474967
  0
LINE
  5
AD90
  8
0
 10
3428.5918910204218264
 20
171.7372173335675996
 30
0.0
 11
3428.5642056156511899
 21
171.7372194129611103
 31
0.0
  0
ARC
  5
AD91
  8
0
 10
3428.5645981163370379
 20
171.7398704040307962
 30
0.0
 40
0.0026817469800314
 50
221.1049192542008939
 51
261.615984211017917
  0
LINE
  5
AD92
  8
0
 10
3428.5625774013519731
 20
171.7381073164511918
 30
0.0
 11
3428.5470071284062215
 21
171.7535758147969887
 31
0.0
  0
LINE
  5
AD93
  8
0
 10
3428.5533397418521417
 20
171.7569612917511961
 30
0.0
 11
3428.5654186920519351
 21
171.744961295251187
 31
0.0
  0
LINE
  5
AD94
  8
0
 10
3428.5654186920519351
 20
171.744961295251187
 30
0.0
 11
3428.5908766567517887
 21
171.744961312067602
 31
0.0
  0
ARC
  5
AD95
  8
0
 10
3428.6016060797710452
 20
171.7453932229759062
 30
0.0
 40
0.0107381127462984
 50
182.3051862337352134
 51
222.7272434073450995
  0
LINE
  5
AD96
  8
0
 10
3428.5961367079321462
 20
171.7639363992790038
 30
0.0
 11
3428.5908766567517887
 21
171.7586675794512132
 31
0.0
  0
LINE
  5
AD97
  8
0
 10
3428.5908766567517887
 20
171.7586675794512132
 30
0.0
 11
3428.5908766567517887
 21
171.744961312067602
 31
0.0
  0
LINE
  5
AD98
  8
0
 10
3428.5908766567517887
 20
171.7586675794512132
 30
0.0
 11
3428.5654186920519351
 21
171.7586675794512132
 31
0.0
  0
LINE
  5
AD99
  8
0
 10
3428.5654186920519351
 20
171.7586675794512132
 30
0.0
 11
3428.5602379740521428
 21
171.763814433851195
 31
0.0
  0
LINE
  5
AD9A
  8
0
 10
3428.5646657984830199
 20
171.7681543134511912
 30
0.0
 11
3428.5516294414519507
 21
171.755269647551188
 31
0.0
  0
ARC
  5
AD9B
  8
0
 10
3428.5474632863952138
 20
171.7594848507382892
 30
0.0
 40
0.005926616730106
 50
274.4142893343150718
 51
314.6647060420311277
  0
LINE
  5
AD9C
  8
0
 10
3428.5654186920519351
 20
171.7586675794512132
 30
0.0
 11
3428.5654186918341111
 21
171.744961295251187
 31
0.0
  0
ARC
  5
AD9D
  8
0
 10
3428.5557311995758027
 20
171.7449612954050053
 30
0.0
 40
0.0096874922584158
 50
314.9674749242662983
 51
359.9999990904261153
  0
LINE
  5
AD9E
  8
0
 10
3428.5562447878519379
 20
171.7724297901511932
 30
0.0
 11
3428.5441658376521445
 21
171.7604297936512125
 31
0.0
  0
LINE
  5
AD9F
  8
0
 10
3428.5441658376521445
 20
171.7604297936512125
 30
0.0
 11
3428.5441658376521445
 21
171.7741360778512103
 31
0.0
  0
ARC
  5
ADA0
  8
0
 10
3428.5552942526410334
 20
171.7610271230298906
 30
0.0
 40
0.0111444346002329
 50
183.072462779144189
 51
221.9600663105238993
  0
LINE
  5
ADA1
  8
0
 10
3428.5646065262722004
 20
171.737217316751213
 30
0.0
 11
3428.551627059436214
 21
171.7243302840143997
 31
0.0
  0
ARC
  5
ADA2
  8
0
 10
3428.5464890391767767
 20
171.7312088677124962
 30
0.0
 40
0.0085856954218532
 50
273.4595179812540096
 51
306.7582248236500959
  0
ARC
  5
ADA3
  8
0
 10
3428.5448136014301781
 20
171.7247158279282075
 30
0.0
 40
0.003020849213785
 50
280.8260626969690748
 51
316.5628679288371927
  0
LINE
  5
ADA4
  8
0
 10
3428.5625774013528826
 20
171.7381073164528118
 30
0.0
 11
3428.5470071283521065
 21
171.7226388181512107
 31
0.0
  0
LINE
  5
ADA5
  8
0
 10
3428.5493465557187847
 20
171.6245979484193072
 30
0.0
 11
3428.5453104722519129
 21
171.6205882466888113
 31
0.0
  0
ARC
  5
ADA6
  8
0
 10
3428.5314368553517852
 20
172.0319536152460955
 30
0.0
 40
0.4115992513284816
 50
270.0017802591933105
 51
271.9316125779992035
  0
LINE
  5
ADA7
  8
0
 10
3428.5453114129491041
 20
171.6205898099451019
 30
0.0
 11
3428.5453129572979378
 21
171.6068835258944887
 31
0.0
  0
ARC
  5
ADA8
  8
0
 10
3428.5490974155300137
 20
171.6072426311631887
 30
0.0
 40
0.0038014577068675
 50
185.4205366692085875
 51
253.2037349960365873
  0
ARC
  5
ADA9
  8
0
 10
3428.5508514115390426
 20
171.6111515596440995
 30
0.0
 40
0.0080692150117807
 50
249.2982054982365128
 51
310.8501368677326013
  0
LINE
  5
ADAA
  8
0
 10
3428.556129346004127
 20
171.6050478199142901
 30
0.0
 11
3428.5646043892270427
 21
171.6134693296511955
 31
0.0
  0
LINE
  5
ADAB
  8
0
 10
3428.5562440216681352
 20
171.6177455872459063
 30
0.0
 11
3428.5453129572979378
 21
171.6068835258944887
 31
0.0
  0
LINE
  5
ADAC
  8
0
 10
3428.5916889241489116
 20
171.6134693463448002
 30
0.0
 11
3428.5957598353520552
 21
171.6094252686511936
 31
0.0
  0
ARC
  5
ADAD
  8
0
 10
3428.5987486506937785
 20
171.6128139739089136
 30
0.0
 40
0.0045184444753373
 50
228.587922170317114
 51
282.3641164216301149
  0
ARC
  5
ADAE
  8
0
 10
3428.5989604706651335
 20
171.6139549670874089
 30
0.0
 40
0.0056058077146139
 50
277.7472900470003765
 51
353.26044035975832
  0
LINE
  5
ADAF
  8
0
 10
3428.6045275414521711
 20
171.6132970894512084
 30
0.0
 11
3428.6045275414521711
 21
171.6221896291388873
 31
0.0
  0
LINE
  5
ADB0
  8
0
 10
3428.6000530066389729
 20
171.6177423765510071
 30
0.0
 11
3428.6045275414521711
 21
171.6132970894512084
 31
0.0
  0
ARC
  5
ADB1
  8
0
 10
3428.6387295798831474
 20
171.6305341670075109
 30
0.0
 40
0.0016004764266714
 50
265.3848296453538751
 51
289.0471140963072116
  0
LINE
  5
ADB2
  8
0
 10
3428.6383989027131065
 20
171.6289388644968881
 30
0.0
 11
3428.6460616874519474
 21
171.6213259825512125
 31
0.0
  0
ARC
  5
ADB3
  8
0
 10
3428.6481444217738499
 20
171.6236093161242025
 30
0.0
 40
0.0030905330383034
 50
227.6306080406750993
 51
280.9961690975760007
  0
ARC
  5
ADB4
  8
0
 10
3428.6471904066270326
 20
171.6270347109079069
 30
0.0
 40
0.0066410474712204
 50
283.4396030335732917
 51
353.1027287366557061
  0
LINE
  5
ADB5
  8
0
 10
3428.6537833932520698
 20
171.6262371904512065
 30
0.0
 11
3428.6537596031448629
 21
171.6399671092729875
 31
0.0
  0
LINE
  5
ADB6
  8
0
 10
3428.6537596031448629
 20
171.6399671092729875
 30
0.0
 11
3428.665791180971155
 21
171.644404074107797
 31
0.0
  0
LINE
  5
ADB7
  8
0
 10
3428.6468613709598685
 20
171.6331139672298889
 30
0.0
 11
3428.6537833932520698
 21
171.6262371904512065
 31
0.0
  0
LINE
  5
ADB8
  8
0
 10
3428.6590413711519432
 20
171.8068363407512038
 30
0.0
 11
3428.6844993357522071
 21
171.8068363407512038
 31
0.0
  0
LINE
  5
ADB9
  8
0
 10
3428.6844993357522071
 20
171.8068363407512038
 30
0.0
 11
3428.6844993357522071
 21
171.8205415898675881
 31
0.0
  0
LINE
  5
ADBA
  8
0
 10
3428.6976352304391185
 20
171.8198863730104904
 30
0.0
 11
3428.6844993357522071
 21
171.8068363407512038
 31
0.0
  0
ARC
  5
ADBB
  8
0
 10
3428.6954752737601666
 20
171.8073704613804864
 30
0.0
 40
0.0109889262444431
 50
182.7859792424467003
 51
222.2465498473154923
  0
LINE
  5
ADBC
  8
0
 10
3428.7055177725219437
 20
171.8151349499075877
 30
0.0
 11
3428.6919651961520685
 21
171.8016709596512044
 31
0.0
  0
ARC
  5
ADBD
  8
0
 10
3428.6875853942428876
 20
171.8064889785611058
 30
0.0
 40
0.0065112188551108
 50
267.84564659880931
 51
312.2722872777183056
  0
ARC
  5
ADBE
  8
0
 10
3428.6851231332689167
 20
171.80198345449881
 30
0.0
 40
0.0029869126874674
 50
286.6897846104083101
 51
317.9365255781186193
  0
ARC
  5
ADBF
  8
0
 10
3428.6854836581469499
 20
171.80273476311379
 30
0.0
 40
0.0036464615559363
 50
267.2958120921089744
 51
277.8381308661769822
  0
LINE
  5
ADC0
  8
0
 10
3428.6853116200518343
 20
171.7990923621512138
 30
0.0
 11
3428.6578270048507875
 21
171.7990902583512138
 31
0.0
  0
ARC
  5
ADC1
  8
0
 10
3428.6578701083799388
 20
171.8007529301480929
 30
0.0
 40
0.0016632304165147
 50
230.7119913469850019
 51
268.5149822221620184
  0
ARC
  5
ADC2
  8
0
 10
3428.6787697350850976
 20
171.82629819028611
 30
0.0
 40
0.0346686044023185
 50
229.3821039036623972
 51
230.7119913469850019
  0
LINE
  5
ADC3
  8
0
 10
3428.6590413711519432
 20
171.8205415898675881
 30
0.0
 11
3428.6590413711519432
 21
171.8068363407512038
 31
0.0
  0
ARC
  5
ADC4
  8
0
 10
3428.6493538797890324
 20
171.8068363407512038
 30
0.0
 40
0.0096874913631844
 50
314.9674709104971839
 51
0.0000000000081422
  0
LINE
  5
ADC5
  8
0
 10
3428.6590413711519432
 20
171.8068363407512038
 30
0.0
 11
3428.6465144932271869
 21
171.8192813371557008
 31
0.0
  0
LINE
  5
ADC6
  8
0
 10
3428.6845192953401238
 20
171.8205415898675881
 30
0.0
 11
3428.6590613307412241
 21
171.8205415898675881
 31
0.0
  0
LINE
  5
ADC7
  8
0
 10
3428.6590613307412241
 20
171.8205415898675881
 30
0.0
 11
3428.6534221842730403
 21
171.826143876232095
 31
0.0
  0
LINE
  5
ADC8
  8
0
 10
3428.6845192953401238
 20
171.8205415898675881
 30
0.0
 11
3428.6887143310577812
 21
171.8247092047857905
 31
0.0
  0
LINE
  5
ADC9
  8
0
 10
3428.6590413711519432
 20
171.7758993439512096
 30
0.0
 11
3428.6844993357522071
 21
171.7758993439512096
 31
0.0
  0
LINE
  5
ADCA
  8
0
 10
3428.6844993357522071
 20
171.7758993439512096
 30
0.0
 11
3428.6844993357522071
 21
171.7896045930675939
 31
0.0
  0
LINE
  5
ADCB
  8
0
 10
3428.6964772407532109
 20
171.787798955693404
 30
0.0
 11
3428.6844993357522071
 21
171.7758993439512096
 31
0.0
  0
ARC
  5
ADCC
  8
0
 10
3428.6954752737601666
 20
171.7764334645804922
 30
0.0
 40
0.0109889262444431
 50
182.7859792424467003
 51
222.2465498473154923
  0
LINE
  5
ADCD
  8
0
 10
3428.7049388640598409
 20
171.7836228286676032
 30
0.0
 11
3428.6919651961520685
 21
171.7707339628512102
 31
0.0
  0
ARC
  5
ADCE
  8
0
 10
3428.6875853942428876
 20
171.7755519817609979
 30
0.0
 40
0.0065112188551108
 50
267.84564659880931
 51
312.2722872777183056
  0
ARC
  5
ADCF
  8
0
 10
3428.6851231332689167
 20
171.7710464576987874
 30
0.0
 40
0.0029869126874674
 50
286.6897846104083101
 51
317.9365255781186193
  0
ARC
  5
ADD0
  8
0
 10
3428.6854836581469499
 20
171.7717977663137958
 30
0.0
 40
0.0036464615559363
 50
267.2958120921089744
 51
277.8381308661769822
  0
LINE
  5
ADD1
  8
0
 10
3428.6853116200518343
 20
171.7681553653511912
 30
0.0
 11
3428.6578270048507875
 21
171.7681532615511912
 31
0.0
  0
ARC
  5
ADD2
  8
0
 10
3428.6578701083799388
 20
171.7698159333480987
 30
0.0
 40
0.0016632304165147
 50
230.7119913469850019
 51
268.5149822221620184
  0
ARC
  5
ADD3
  8
0
 10
3428.6787697350850976
 20
171.7953611934860874
 30
0.0
 40
0.0346686044023185
 50
229.3821039036623972
 51
230.7119913469850019
  0
LINE
  5
ADD4
  8
0
 10
3428.6590413711519432
 20
171.7896045930675939
 30
0.0
 11
3428.6590413711519432
 21
171.7758993439512096
 31
0.0
  0
ARC
  5
ADD5
  8
0
 10
3428.6493538797890324
 20
171.7758993439512096
 30
0.0
 40
0.0096874913631844
 50
314.9674709104971839
 51
0.0000000000081422
  0
ARC
  5
ADD6
  8
0
 10
3428.6560084923780778
 20
171.7756982627435036
 30
0.0
 40
0.0066556556674334
 50
228.2633150360782111
 51
271.6495301387444101
  0
LINE
  5
ADD7
  8
0
 10
3428.651577767352137
 20
171.7707317319512015
 30
0.0
 11
3428.6386018394719031
 21
171.7836228286676032
 31
0.0
  0
LINE
  5
ADD8
  8
0
 10
3428.6590413711519432
 20
171.7758993439512096
 30
0.0
 11
3428.6469729217028544
 21
171.7878889083820866
 31
0.0
  0
LINE
  5
ADD9
  8
0
 10
3428.6845192953401238
 20
171.7896045930675939
 30
0.0
 11
3428.6590613307412241
 21
171.7896045930675939
 31
0.0
  0
LINE
  5
ADDA
  8
0
 10
3428.6590613307412241
 20
171.7896045930675939
 30
0.0
 11
3428.6538806127409771
 21
171.7947514474676041
 31
0.0
  0
LINE
  5
ADDB
  8
0
 10
3428.6845192953401238
 20
171.7896045930675939
 30
0.0
 11
3428.6897000134399605
 21
171.7947514474676041
 31
0.0
  0
LINE
  5
ADDC
  8
0
 10
3428.6590413711519432
 20
171.744962347251203
 30
0.0
 11
3428.6844993357522071
 21
171.744962347251203
 31
0.0
  0
LINE
  5
ADDD
  8
0
 10
3428.6844993357522071
 20
171.744962347251203
 30
0.0
 11
3428.6844993357522071
 21
171.7586675963675873
 31
0.0
  0
LINE
  5
ADDE
  8
0
 10
3428.6965877448301399
 20
171.756971740763305
 30
0.0
 11
3428.6844993357522071
 21
171.744962347251203
 31
0.0
  0
ARC
  5
ADDF
  8
0
 10
3428.6954752737601666
 20
171.745496467880514
 30
0.0
 40
0.0109889262444431
 50
182.7859792424467003
 51
222.2465498473154923
  0
LINE
  5
ADE0
  8
0
 10
3428.7049378190308744
 20
171.752684793768708
 30
0.0
 11
3428.6919651961520685
 21
171.7397969661512036
 31
0.0
  0
ARC
  5
ADE1
  8
0
 10
3428.6875853942428876
 20
171.744614985061105
 30
0.0
 40
0.0065112188551108
 50
267.84564659880931
 51
312.2722872777183056
  0
ARC
  5
ADE2
  8
0
 10
3428.6851231332689167
 20
171.7401094609988093
 30
0.0
 40
0.0029869126874674
 50
286.6897846104083101
 51
317.9365255781186193
  0
ARC
  5
ADE3
  8
0
 10
3428.6854836581469499
 20
171.7408607696137892
 30
0.0
 40
0.0036464615559363
 50
267.2958120921089744
 51
277.8381308661769822
  0
LINE
  5
ADE4
  8
0
 10
3428.6853116200518343
 20
171.737218368651213
 30
0.0
 11
3428.6578270048507875
 21
171.7372162648512131
 31
0.0
  0
ARC
  5
ADE5
  8
0
 10
3428.6578701083799388
 20
171.7388789366480921
 30
0.0
 40
0.0016632304165147
 50
230.7119913469850019
 51
268.5149822221620184
  0
ARC
  5
ADE6
  8
0
 10
3428.6787697350850976
 20
171.7644241967861092
 30
0.0
 40
0.0346686044023185
 50
229.3821039036623972
 51
230.7119913469850019
  0
LINE
  5
ADE7
  8
0
 10
3428.6590413711519432
 20
171.7586675963675873
 30
0.0
 11
3428.6590413711519432
 21
171.744962347251203
 31
0.0
  0
ARC
  5
ADE8
  8
0
 10
3428.6493538797890324
 20
171.744962347251203
 30
0.0
 40
0.0096874913631844
 50
314.9674709104971839
 51
0.0000000000081422
  0
ARC
  5
ADE9
  8
0
 10
3428.6560084923780778
 20
171.744761266043497
 30
0.0
 40
0.0066556556674334
 50
228.2633150360782111
 51
271.6495301387444101
  0
LINE
  5
ADEA
  8
0
 10
3428.651577767352137
 20
171.7397947352511949
 30
0.0
 11
3428.6386018394719031
 21
171.7526858319675966
 31
0.0
  0
LINE
  5
ADEB
  8
0
 10
3428.6590413711519432
 20
171.744962347251203
 30
0.0
 11
3428.6469729217028544
 21
171.7569519116819947
 31
0.0
  0
LINE
  5
ADEC
  8
0
 10
3428.6845192953401238
 20
171.7586675963675873
 30
0.0
 11
3428.6590613307412241
 21
171.7586675963675873
 31
0.0
  0
LINE
  5
ADED
  8
0
 10
3428.6590613307412241
 20
171.7586675963675873
 30
0.0
 11
3428.6538806127409771
 21
171.7638144507675975
 31
0.0
  0
LINE
  5
ADEE
  8
0
 10
3428.6845192953401238
 20
171.7586675963675873
 30
0.0
 11
3428.6897000134399605
 21
171.7638144507675975
 31
0.0
  0
LINE
  5
ADEF
  8
0
 10
3428.6590413711519432
 20
171.7140253504512089
 30
0.0
 11
3428.6844993357522071
 21
171.7140253504512089
 31
0.0
  0
LINE
  5
ADF0
  8
0
 10
3428.6844993357522071
 20
171.7140253504512089
 30
0.0
 11
3428.6844993357522071
 21
171.7277305995675931
 31
0.0
  0
LINE
  5
ADF1
  8
0
 10
3428.6965877448301399
 20
171.7260347439633108
 30
0.0
 11
3428.6844993357522071
 21
171.7140253504512089
 31
0.0
  0
ARC
  5
ADF2
  8
0
 10
3428.6954752737601666
 20
171.7145594710804914
 30
0.0
 40
0.0109889262444431
 50
182.7859792424467003
 51
222.2465498473154923
  0
LINE
  5
ADF3
  8
0
 10
3428.7049388640598409
 20
171.7217488351676025
 30
0.0
 11
3428.6919651961520685
 21
171.7088599693512094
 31
0.0
  0
ARC
  5
ADF4
  8
0
 10
3428.6875853942428876
 20
171.7136779882611108
 30
0.0
 40
0.0065112188551108
 50
267.84564659880931
 51
312.2722872777183056
  0
ARC
  5
ADF5
  8
0
 10
3428.6851231332689167
 20
171.7091724641987867
 30
0.0
 40
0.0029869126874674
 50
286.6897846104083101
 51
317.9365255781186193
  0
ARC
  5
ADF6
  8
0
 10
3428.6854836581469499
 20
171.709923772813795
 30
0.0
 40
0.0036464615559363
 50
267.2958120921089744
 51
277.8381308661769822
  0
LINE
  5
ADF7
  8
0
 10
3428.6853116200518343
 20
171.7062813718511904
 30
0.0
 11
3428.6578270048507875
 21
171.7062792680511905
 31
0.0
  0
ARC
  5
ADF8
  8
0
 10
3428.6578701083799388
 20
171.7079419398480979
 30
0.0
 40
0.0016632304165147
 50
230.7119913469850019
 51
268.5149822221620184
  0
ARC
  5
ADF9
  8
0
 10
3428.6787697350850976
 20
171.7334871999860866
 30
0.0
 40
0.0346686044023185
 50
229.3821039036623972
 51
230.7119913469850019
  0
LINE
  5
ADFA
  8
0
 10
3428.6590413711519432
 20
171.7277305995675931
 30
0.0
 11
3428.6590413711519432
 21
171.7140253504512089
 31
0.0
  0
ARC
  5
ADFB
  8
0
 10
3428.6493538797890324
 20
171.7140253504512089
 30
0.0
 40
0.0096874913631844
 50
314.9674709104971839
 51
0.0000000000081422
  0
ARC
  5
ADFC
  8
0
 10
3428.6560084923780778
 20
171.7138242692435028
 30
0.0
 40
0.0066556556674334
 50
228.2633150360782111
 51
271.6495301387444101
  0
LINE
  5
ADFD
  8
0
 10
3428.651577767352137
 20
171.7088577384512007
 30
0.0
 11
3428.6386018394719031
 21
171.7217488351676025
 31
0.0
  0
LINE
  5
ADFE
  8
0
 10
3428.6590413711519432
 20
171.7140253504512089
 30
0.0
 11
3428.6469729217028544
 21
171.7260149148820858
 31
0.0
  0
LINE
  5
ADFF
  8
0
 10
3428.6845192953401238
 20
171.7277305995675931
 30
0.0
 11
3428.6590613307412241
 21
171.7277305995675931
 31
0.0
  0
LINE
  5
AE00
  8
0
 10
3428.6590613307412241
 20
171.7277305995675931
 30
0.0
 11
3428.6538806127409771
 21
171.7328774539676033
 31
0.0
  0
LINE
  5
AE01
  8
0
 10
3428.6845192953401238
 20
171.7277305995675931
 30
0.0
 11
3428.6897000134399605
 21
171.7328774539676033
 31
0.0
  0
LINE
  5
AE02
  8
0
 10
3428.6590413711519432
 20
171.6830883536511863
 30
0.0
 11
3428.6844993357522071
 21
171.6830883536511863
 31
0.0
  0
LINE
  5
AE03
  8
0
 10
3428.6844993357522071
 20
171.6830883536511863
 30
0.0
 11
3428.6844993357522071
 21
171.6967936027675989
 31
0.0
  0
LINE
  5
AE04
  8
0
 10
3428.6965877448301399
 20
171.6950977471632882
 30
0.0
 11
3428.6844993357522071
 21
171.6830883536511863
 31
0.0
  0
ARC
  5
AE05
  8
0
 10
3428.6954752737601666
 20
171.6836224742804973
 30
0.0
 40
0.0109889262444431
 50
182.7859792424467003
 51
222.2465498473154923
  0
LINE
  5
AE06
  8
0
 10
3428.7049388640598409
 20
171.6908118383676083
 30
0.0
 11
3428.6919651961520685
 21
171.6779229725511868
 31
0.0
  0
ARC
  5
AE07
  8
0
 10
3428.6875853942428876
 20
171.682740991461003
 30
0.0
 40
0.0065112188551108
 50
267.84564659880931
 51
312.2722872777183056
  0
ARC
  5
AE08
  8
0
 10
3428.6851231332689167
 20
171.6782354673987925
 30
0.0
 40
0.0029869126874674
 50
286.6897846104083101
 51
317.9365255781186193
  0
ARC
  5
AE09
  8
0
 10
3428.6854836581469499
 20
171.6789867760138009
 30
0.0
 40
0.0036464615559363
 50
267.2958120921089744
 51
277.8381308661769822
  0
LINE
  5
AE0A
  8
0
 10
3428.6853116200518343
 20
171.6753443750511963
 30
0.0
 11
3428.6578270048507875
 21
171.6753422712511963
 31
0.0
  0
ARC
  5
AE0B
  8
0
 10
3428.6578701083799388
 20
171.6770049430481038
 30
0.0
 40
0.0016632304165147
 50
230.7119913469850019
 51
268.5149822221620184
  0
ARC
  5
AE0C
  8
0
 10
3428.6787697350850976
 20
171.7025502031860924
 30
0.0
 40
0.0346686044023185
 50
229.3821039036623972
 51
230.7119913469850019
  0
LINE
  5
AE0D
  8
0
 10
3428.6590413711519432
 20
171.6967936027675989
 30
0.0
 11
3428.6590413711519432
 21
171.6830883536511863
 31
0.0
  0
ARC
  5
AE0E
  8
0
 10
3428.6493538797890324
 20
171.6830883536511863
 30
0.0
 40
0.0096874913631844
 50
314.9674709104971839
 51
0.0000000000081422
  0
ARC
  5
AE0F
  8
0
 10
3428.6560084923780778
 20
171.682887272443395
 30
0.0
 40
0.0066556556674334
 50
228.2633150360782111
 51
271.6495301387444101
  0
LINE
  5
AE10
  8
0
 10
3428.651577767352137
 20
171.6779207416512065
 30
0.0
 11
3428.6386018394719031
 21
171.6908118383676083
 31
0.0
  0
LINE
  5
AE11
  8
0
 10
3428.6590413711519432
 20
171.6830883536511863
 30
0.0
 11
3428.6469729217028544
 21
171.6950779180820064
 31
0.0
  0
LINE
  5
AE12
  8
0
 10
3428.6845192953401238
 20
171.6967936027675989
 30
0.0
 11
3428.6590613307412241
 21
171.6967936027675989
 31
0.0
  0
LINE
  5
AE13
  8
0
 10
3428.6590613307412241
 20
171.6967936027675989
 30
0.0
 11
3428.6538806127409771
 21
171.7019404571676091
 31
0.0
  0
LINE
  5
AE14
  8
0
 10
3428.6845192953401238
 20
171.6967936027675989
 30
0.0
 11
3428.6897000134399605
 21
171.7019404571676091
 31
0.0
  0
LINE
  5
AE15
  8
0
 10
3428.6590413711519432
 20
171.6521513569512081
 30
0.0
 11
3428.6844993357522071
 21
171.6521513569512081
 31
0.0
  0
LINE
  5
AE16
  8
0
 10
3428.6844993357522071
 20
171.6521513569512081
 30
0.0
 11
3428.6844993357522071
 21
171.6658566060675923
 31
0.0
  0
LINE
  5
AE17
  8
0
 10
3428.6964772338951661
 20
171.6640509618802071
 30
0.0
 11
3428.6844993357522071
 21
171.6521513569512081
 31
0.0
  0
ARC
  5
AE18
  8
0
 10
3428.6954752737601666
 20
171.6526854775804907
 30
0.0
 40
0.0109889262444431
 50
182.7859792424467003
 51
222.2465498473154923
  0
LINE
  5
AE19
  8
0
 10
3428.7049388470318263
 20
171.6598748247511992
 30
0.0
 11
3428.6919651961520685
 21
171.6469859758512087
 31
0.0
  0
ARC
  5
AE1A
  8
0
 10
3428.6875853942428876
 20
171.6518039947611101
 30
0.0
 40
0.0065112188551108
 50
267.84564659880931
 51
312.2722872777183056
  0
ARC
  5
AE1B
  8
0
 10
3428.6851231332689167
 20
171.6472984706987859
 30
0.0
 40
0.0029869126874674
 50
286.6897846104083101
 51
317.9365255781186193
  0
ARC
  5
AE1C
  8
0
 10
3428.6854836581469499
 20
171.6480497793137943
 30
0.0
 40
0.0036464615559363
 50
267.2958120921089744
 51
277.8381308661769822
  0
LINE
  5
AE1D
  8
0
 10
3428.6853116200518343
 20
171.6444073783511897
 30
0.0
 11
3428.6578270048507875
 21
171.6444052745511897
 31
0.0
  0
ARC
  5
AE1E
  8
0
 10
3428.6578701083799388
 20
171.6460679463480972
 30
0.0
 40
0.0016632304165147
 50
230.7119913469850019
 51
268.5149822221620184
  0
ARC
  5
AE1F
  8
0
 10
3428.6787697350850976
 20
171.6716132064860858
 30
0.0
 40
0.0346686044023185
 50
229.3821039036623972
 51
230.7119913469850019
  0
LINE
  5
AE20
  8
0
 10
3428.6590413711519432
 20
171.6658566060675923
 30
0.0
 11
3428.6590413711519432
 21
171.6521513569512081
 31
0.0
  0
ARC
  5
AE21
  8
0
 10
3428.6493538797890324
 20
171.6521513569512081
 30
0.0
 40
0.0096874913631844
 50
314.9674709104971839
 51
0.0000000000081422
  0
ARC
  5
AE22
  8
0
 10
3428.6560084923780778
 20
171.6519502757433884
 30
0.0
 40
0.0066556556674334
 50
228.2633150360782111
 51
271.6495301387444101
  0
LINE
  5
AE23
  8
0
 10
3428.651577767352137
 20
171.6469837449511999
 30
0.0
 11
3428.6386018394719031
 21
171.6598748416676017
 31
0.0
  0
LINE
  5
AE24
  8
0
 10
3428.6590413711519432
 20
171.6521513569512081
 30
0.0
 11
3428.6469729217028544
 21
171.6641409213821134
 31
0.0
  0
LINE
  5
AE25
  8
0
 10
3428.6845192953401238
 20
171.6658566060675923
 30
0.0
 11
3428.6590613307412241
 21
171.6658566060675923
 31
0.0
  0
LINE
  5
AE26
  8
0
 10
3428.6590613307412241
 20
171.6658566060675923
 30
0.0
 11
3428.6538806127409771
 21
171.6710034604676025
 31
0.0
  0
LINE
  5
AE27
  8
0
 10
3428.6845192953401238
 20
171.6658566060675923
 30
0.0
 11
3428.6895895037609989
 21
171.6708936731336053
 31
0.0
  0
LINE
  5
AE28
  8
0
 10
3428.7057521901519976
 20
171.6985568520512118
 30
0.0
 11
3428.7312101547518068
 21
171.6985568520512118
 31
0.0
  0
LINE
  5
AE29
  8
0
 10
3428.7312101547518068
 20
171.6985568520512118
 30
0.0
 11
3428.7312101547518068
 21
171.712262101167596
 31
0.0
  0
LINE
  5
AE2A
  8
0
 10
3428.7431880550720962
 20
171.7104564591429892
 30
0.0
 11
3428.7312101547518068
 21
171.6985568520512118
 31
0.0
  0
ARC
  5
AE2B
  8
0
 10
3428.7421860927602211
 20
171.6990909726804944
 30
0.0
 40
0.0109889262444431
 50
182.7859792424467003
 51
222.2465498473154923
  0
LINE
  5
AE2C
  8
0
 10
3428.7516496830598953
 20
171.7062803367676054
 30
0.0
 11
3428.738676015152123
 21
171.6933914709512123
 31
0.0
  0
ARC
  5
AE2D
  8
0
 10
3428.734296213242942
 20
171.6982094898610001
 30
0.0
 40
0.0065112188551108
 50
267.84564659880931
 51
312.2722872777183056
  0
ARC
  5
AE2E
  8
0
 10
3428.7318339522680617
 20
171.6937039657987896
 30
0.0
 40
0.0029869126874674
 50
286.6897846104083101
 51
317.9365255781186193
  0
ARC
  5
AE2F
  8
0
 10
3428.7321944771470044
 20
171.694455274413798
 30
0.0
 40
0.0036464615559363
 50
267.2958120921089744
 51
277.8381308661769822
  0
LINE
  5
AE30
  8
0
 10
3428.7320224390518888
 20
171.6908128734511934
 30
0.0
 11
3428.7045378238522062
 21
171.6908107696511934
 31
0.0
  0
ARC
  5
AE31
  8
0
 10
3428.7045809273790837
 20
171.6924734414481009
 30
0.0
 40
0.0016632304165147
 50
230.7119913469850019
 51
268.5149822221620184
  0
ARC
  5
AE32
  8
0
 10
3428.7254805540851521
 20
171.7180187015860895
 30
0.0
 40
0.0346686044023185
 50
229.3821039036623972
 51
230.7119913469850019
  0
LINE
  5
AE33
  8
0
 10
3428.7057521901519976
 20
171.712262101167596
 30
0.0
 11
3428.7057521901519976
 21
171.6985568520512118
 31
0.0
  0
ARC
  5
AE34
  8
0
 10
3428.6960646987890868
 20
171.6985568520512118
 30
0.0
 40
0.0096874913631844
 50
314.9674709104971839
 51
0.0000000000081422
  0
ARC
  5
AE35
  8
0
 10
3428.7027193113772228
 20
171.6983557708435058
 30
0.0
 40
0.0066556556674334
 50
228.2633150360782111
 51
271.6495301387444101
  0
LINE
  5
AE36
  8
0
 10
3428.6982885863521915
 20
171.6933892400512036
 30
0.0
 11
3428.6853126584719575
 21
171.7062803367676054
 31
0.0
  0
LINE
  5
AE37
  8
0
 10
3428.7057521901519976
 20
171.6985568520512118
 30
0.0
 11
3428.6936837407038183
 21
171.7105464164820887
 31
0.0
  0
LINE
  5
AE38
  8
0
 10
3428.7312301143401783
 20
171.712262101167596
 30
0.0
 11
3428.7057721497399143
 21
171.712262101167596
 31
0.0
  0
LINE
  5
AE39
  8
0
 10
3428.7057721497399143
 20
171.712262101167596
 30
0.0
 11
3428.7005914317401221
 21
171.7174089555676062
 31
0.0
  0
LINE
  5
AE3A
  8
0
 10
3428.7312301143401783
 20
171.712262101167596
 30
0.0
 11
3428.736300323649175
 21
171.7172991691161883
 31
0.0
  0
LINE
  5
AE3B
  8
0
 10
3428.7057521901519976
 20
171.7294938488512059
 30
0.0
 11
3428.7312101547518068
 21
171.7294938488512059
 31
0.0
  0
LINE
  5
AE3C
  8
0
 10
3428.7312101547518068
 20
171.7294938488512059
 30
0.0
 11
3428.7312101547518068
 21
171.7431990979675902
 31
0.0
  0
LINE
  5
AE3D
  8
0
 10
3428.7431880529388764
 20
171.7413934538236902
 30
0.0
 11
3428.7312101547518068
 21
171.7294938488512059
 31
0.0
  0
ARC
  5
AE3E
  8
0
 10
3428.7421860927602211
 20
171.7300279694804885
 30
0.0
 40
0.0109889262444431
 50
182.7859792424467003
 51
222.2465498473154923
  0
LINE
  5
AE3F
  8
0
 10
3428.7516496830598953
 20
171.7372173335675996
 30
0.0
 11
3428.738676015152123
 21
171.7243284677512065
 31
0.0
  0
ARC
  5
AE40
  8
0
 10
3428.734296213242942
 20
171.7291464866611079
 30
0.0
 40
0.0065112188551108
 50
267.84564659880931
 51
312.2722872777183056
  0
ARC
  5
AE41
  8
0
 10
3428.7318339522680617
 20
171.7246409625988122
 30
0.0
 40
0.0029869126874674
 50
286.6897846104083101
 51
317.9365255781186193
  0
ARC
  5
AE42
  8
0
 10
3428.7321944771470044
 20
171.7253922712137921
 30
0.0
 40
0.0036464615559363
 50
267.2958120921089744
 51
277.8381308661769822
  0
LINE
  5
AE43
  8
0
 10
3428.7320224390518888
 20
171.7217498702511875
 30
0.0
 11
3428.7045378238522062
 21
171.7217477664511875
 31
0.0
  0
ARC
  5
AE44
  8
0
 10
3428.7045809273790837
 20
171.723410438248095
 30
0.0
 40
0.0016632304165147
 50
230.7119913469850019
 51
268.5149822221620184
  0
ARC
  5
AE45
  8
0
 10
3428.7254805540851521
 20
171.7489556983861121
 30
0.0
 40
0.0346686044023185
 50
229.3821039036623972
 51
230.7119913469850019
  0
LINE
  5
AE46
  8
0
 10
3428.7057721497399143
 20
171.7431990979675902
 30
0.0
 11
3428.7057521901519976
 21
171.7294938488512059
 31
0.0
  0
ARC
  5
AE47
  8
0
 10
3428.6960646987890868
 20
171.7294938488512059
 30
0.0
 40
0.0096874913631844
 50
314.9674709104971839
 51
0.0000000000081422
  0
ARC
  5
AE48
  8
0
 10
3428.7027193113772228
 20
171.7292927676433862
 30
0.0
 40
0.0066556556674334
 50
228.2633150360782111
 51
271.6495301387444101
  0
LINE
  5
AE49
  8
0
 10
3428.6982885863521915
 20
171.7243262368511978
 30
0.0
 11
3428.6853126584719575
 21
171.7372173335675996
 31
0.0
  0
LINE
  5
AE4A
  8
0
 10
3428.7057521901519976
 20
171.7294938488512059
 30
0.0
 11
3428.6936837407038183
 21
171.7414834132821113
 31
0.0
  0
LINE
  5
AE4B
  8
0
 10
3428.7312301143401783
 20
171.7431990979675902
 30
0.0
 11
3428.7057721497399143
 21
171.7431990979675902
 31
0.0
  0
LINE
  5
AE4C
  8
0
 10
3428.7057721497399143
 20
171.7431990979675902
 30
0.0
 11
3428.7005914317401221
 21
171.7483459523676004
 31
0.0
  0
LINE
  5
AE4D
  8
0
 10
3428.7312301143401783
 20
171.7431990979675902
 30
0.0
 11
3428.736300322777879
 21
171.7482361650507983
 31
0.0
  0
LINE
  5
AE4E
  8
0
 10
3428.7057521901519976
 20
171.7604308455512125
 30
0.0
 11
3428.7312101547518068
 21
171.7604308455512125
 31
0.0
  0
LINE
  5
AE4F
  8
0
 10
3428.7312101547518068
 20
171.7604308455512125
 30
0.0
 11
3428.7312101547518068
 21
171.7741360946675968
 31
0.0
  0
LINE
  5
AE50
  8
0
 10
3428.7431880550720962
 20
171.7723304526429899
 30
0.0
 11
3428.7312101547518068
 21
171.7604308455512125
 31
0.0
  0
ARC
  5
AE51
  8
0
 10
3428.7421860927602211
 20
171.7609649661804951
 30
0.0
 40
0.0109889262444431
 50
182.7859792424467003
 51
222.2465498473154923
  0
LINE
  5
AE52
  8
0
 10
3428.7516496830598953
 20
171.7681543302676062
 30
0.0
 11
3428.738676015152123
 21
171.7552654644512131
 31
0.0
  0
ARC
  5
AE53
  8
0
 10
3428.734296213242942
 20
171.7600834833610008
 30
0.0
 40
0.0065112188551108
 50
267.84564659880931
 51
312.2722872777183056
  0
ARC
  5
AE54
  8
0
 10
3428.7318339522680617
 20
171.7555779592987903
 30
0.0
 40
0.0029869126874674
 50
286.6897846104083101
 51
317.9365255781186193
  0
ARC
  5
AE55
  8
0
 10
3428.7321944771470044
 20
171.7563292679137987
 30
0.0
 40
0.0036464615559363
 50
267.2958120921089744
 51
277.8381308661769822
  0
LINE
  5
AE56
  8
0
 10
3428.7320224390518888
 20
171.7526868669511941
 30
0.0
 11
3428.7045378238522062
 21
171.7526847631511941
 31
0.0
  0
ARC
  5
AE57
  8
0
 10
3428.7045809273790837
 20
171.7543474349481016
 30
0.0
 40
0.0016632304165147
 50
230.7119913469850019
 51
268.5149822221620184
  0
ARC
  5
AE58
  8
0
 10
3428.7254805540851521
 20
171.7798926950860903
 30
0.0
 40
0.0346686044023185
 50
229.3821039036623972
 51
230.7119913469850019
  0
LINE
  5
AE59
  8
0
 10
3428.7057521901519976
 20
171.7741360946675968
 30
0.0
 11
3428.7057521901519976
 21
171.7604308455512125
 31
0.0
  0
ARC
  5
AE5A
  8
0
 10
3428.6960646987890868
 20
171.7604308455512125
 30
0.0
 40
0.0096874913631844
 50
314.9674709104971839
 51
0.0000000000081422
  0
ARC
  5
AE5B
  8
0
 10
3428.7027193113772228
 20
171.7602297643435065
 30
0.0
 40
0.0066556556674334
 50
228.2633150360782111
 51
271.6495301387444101
  0
LINE
  5
AE5C
  8
0
 10
3428.6982885863521915
 20
171.7552632335512044
 30
0.0
 11
3428.6853126584719575
 21
171.7681543302676062
 31
0.0
  0
LINE
  5
AE5D
  8
0
 10
3428.7057521901519976
 20
171.7604308455512125
 30
0.0
 11
3428.6936837407038183
 21
171.7724204099820042
 31
0.0
  0
LINE
  5
AE5E
  8
0
 10
3428.7312301143401783
 20
171.7741360946675968
 30
0.0
 11
3428.7057721497399143
 21
171.7741360946675968
 31
0.0
  0
LINE
  5
AE5F
  8
0
 10
3428.7057721497399143
 20
171.7741360946675968
 30
0.0
 11
3428.7005914317401221
 21
171.779282949067607
 31
0.0
  0
LINE
  5
AE60
  8
0
 10
3428.7312301143401783
 20
171.7741360946675968
 30
0.0
 11
3428.736300323649175
 21
171.7791731626161891
 31
0.0
  0
LINE
  5
AE61
  8
0
 10
3428.6562000804528907
 20
171.7999823619512085
 30
0.0
 11
3428.6404287664518051
 21
171.7845128116512115
 31
0.0
  0
ARC
  5
AE62
  8
0
 10
3428.6381833295267825
 20
171.786802050196286
 30
0.0
 40
0.0032066493576167
 50
277.4992469519070823
 51
314.4465822514686124
  0
LINE
  5
AE63
  8
0
 10
3428.6386018394719031
 20
171.7836228286676032
 30
0.0
 11
3428.6109151447521981
 21
171.7836207079512008
 31
0.0
  0
ARC
  5
AE64
  8
0
 10
3428.6113551145208476
 20
171.7863526362606876
 30
0.0
 40
0.0027671295028728
 50
221.6735509138763121
 51
260.8512227364258251
  0
LINE
  5
AE65
  8
0
 10
3428.609288220452072
 20
171.7845128116512115
 30
0.0
 11
3428.5937179467709939
 21
171.7999813107277873
 31
0.0
  0
ARC
  5
AE66
  8
0
 10
3428.6088197835451865
 20
171.7906165991931005
 30
0.0
 40
0.0060637263915702
 50
226.7747131988296019
 51
264.8411005359612886
  0
ARC
  5
AE67
  8
0
 10
3428.610006275611795
 20
171.8037583899995866
 30
0.0
 40
0.0192589690580608
 50
264.8411005359612886
 51
267.8632777353050187
  0
LINE
  5
AE68
  8
0
 10
3428.609288220452072
 20
171.7845128116512115
 30
0.0
 11
3428.6404287664518051
 21
171.7845128116512115
 31
0.0
  0
ARC
  5
AE69
  8
0
 10
3428.6404296114451427
 20
171.7924585762997083
 30
0.0
 40
0.0079457646934681
 50
269.9939068770361246
 51
280.3378058418512069
  0
ARC
  5
AE6A
  8
0
 10
3428.6406396437878357
 20
171.7913071621597112
 30
0.0
 40
0.0067753510455419
 50
280.3378058418512069
 51
307.4115372419910273
  0
LINE
  5
AE6B
  8
0
 10
3428.6447559120579172
 20
171.7859255529843097
 30
0.0
 11
3428.6580283499952202
 21
171.7990913102512138
 31
0.0
  0
LINE
  5
AE6C
  8
0
 10
3428.6562000804028685
 20
171.7999823619022095
 30
0.0
 11
3428.6406298074011829
 21
171.8163408600505022
 31
0.0
  0
ARC
  5
AE6D
  8
0
 10
3428.638837736692949
 20
171.8176456915198003
 30
0.0
 40
0.0022075830265719
 50
263.8386850129015215
 51
281.295257945238518
  0
LINE
  5
AE6E
  8
0
 10
3428.6573608880871689
 20
171.8300568348292927
 30
0.0
 11
3428.6775582585751181
 21
171.8300477460109903
 31
0.0
  0
LINE
  5
AE6F
  8
0
 10
3428.7004704222072178
 20
171.8101205914850027
 30
0.0
 11
3428.7055511491521429
 21
171.8050730745511885
 31
0.0
  0
LINE
  5
AE70
  8
0
 10
3428.7055511491521429
 20
171.8050730745511885
 30
0.0
 11
3428.7202451199509596
 21
171.8050730745511885
 31
0.0
  0
LINE
  5
AE71
  8
0
 10
3428.6851105790519796
 20
171.7990913102512138
 30
0.0
 11
3428.6980885648658841
 21
171.7861981652706049
 31
0.0
  0
ARC
  5
AE72
  8
0
 10
3428.7022249774481679
 20
171.7903617967112098
 30
0.0
 40
0.0058690489707037
 50
225.1878929955948934
 51
274.7389852529012728
  0
ARC
  5
AE73
  8
0
 10
3428.704631684456217
 20
171.7860897595523966
 30
0.0
 40
0.0024859967560026
 50
219.370475842306206
 51
277.0974407215243218
  0
LINE
  5
AE74
  8
0
 10
3428.7049388471327802
 20
171.7836228118511883
 30
0.0
 11
3428.7322207070528748
 21
171.7836228118511883
 31
0.0
  0
ARC
  5
AE75
  8
0
 10
3428.7319341312349934
 20
171.7860855313398929
 30
0.0
 40
0.002479022037308
 50
276.5600016647520079
 51
320.6236617989845854
  0
ARC
  5
AE76
  8
0
 10
3428.7339650076819453
 20
171.7916459746622877
 30
0.0
 40
0.0071340835741293
 50
269.0795504766142017
 51
324.2227585579781248
  0
ARC
  5
AE77
  8
0
 10
3428.7420089507581906
 20
171.7919108183268122
 30
0.0
 40
0.0110132820087798
 50
182.8314173210260947
 51
222.2011123601992892
  0
LINE
  5
AE78
  8
0
 10
3428.7310091137519521
 20
171.7913667903511907
 30
0.0
 11
3428.7334778351028035
 21
171.7937674542058915
 31
0.0
  0
LINE
  5
AE79
  8
0
 10
3428.7310091137519521
 20
171.7913667903511907
 30
0.0
 11
3428.7055511491521429
 21
171.7913667903511907
 31
0.0
  0
LINE
  5
AE7A
  8
0
 10
3428.7055511491521429
 20
171.7913667903511907
 30
0.0
 11
3428.6935721899858436
 21
171.8032674494056948
 31
0.0
  0
LINE
  5
AE7B
  8
0
 10
3428.7055511491521429
 20
171.8050730745511885
 30
0.0
 11
3428.7055511491521429
 21
171.7913667903511907
 31
0.0
  0
ARC
  5
AE7C
  8
0
 10
3428.6958636580297934
 20
171.7913667903511907
 30
0.0
 40
0.0096874911219222
 50
314.9674703189153888
 51
359.9999999999789111
  0
LINE
  5
AE7D
  8
0
 10
3428.7318213980520341
 20
171.7836228118511883
 30
0.0
 11
3428.7447961077518812
 21
171.7707329109512102
 31
0.0
  0
ARC
  5
AE7E
  8
0
 10
3428.7489395524407882
 20
171.774903617337003
 30
0.0
 40
0.00587902420868
 50
225.1878694006427963
 51
274.6941967228892736
  0
ARC
  5
AE7F
  8
0
 10
3428.7417400577887747
 20
171.7761340292435079
 30
0.0
 40
0.0104525590774313
 50
317.2909595534537743
 51
340.8432095416339962
  0
ARC
  5
AE80
  8
0
 10
3428.7513921284198659
 20
171.7707455900583966
 30
0.0
 40
0.002604027975213
 50
220.7927709700784078
 51
275.6761909230688161
  0
LINE
  5
AE81
  8
0
 10
3428.7516496830598953
 20
171.7681543302676062
 30
0.0
 11
3428.7545234700542096
 21
171.7681469651869008
 31
0.0
  0
LINE
  5
AE82
  8
0
 10
3428.7318203548020392
 20
171.7526868514827072
 30
0.0
 11
3428.7447944131517943
 21
171.7397975929511915
 31
0.0
  0
ARC
  5
AE83
  8
0
 10
3428.7489414997758104
 20
171.7439719637038991
 30
0.0
 40
0.0058841905682849
 50
225.1878589019351864
 51
274.6710408391099918
  0
ARC
  5
AE84
  8
0
 10
3428.7513370651308833
 20
171.7396706444424979
 30
0.0
 40
0.0024731631864914
 50
219.2064692037633904
 51
277.2614517942137127
  0
LINE
  5
AE85
  8
0
 10
3428.7516496661319252
 20
171.737217316751213
 30
0.0
 11
3428.7664888194958621
 21
171.737217316751213
 31
0.0
  0
ARC
  5
AE86
  8
0
 10
3428.7414460393838453
 20
171.7454290846621063
 30
0.0
 40
0.0108260399988977
 50
317.4439725946892281
 51
357.5234983155535247
  0
LINE
  5
AE87
  8
0
 10
3428.7522619681521974
 20
171.744961295251187
 30
0.0
 11
3428.7647197627120477
 21
171.7449643084042918
 31
0.0
  0
LINE
  5
AE88
  8
0
 10
3428.7522619681521974
 20
171.744961295251187
 30
0.0
 11
3428.7402830090359203
 21
171.7568619542556974
 31
0.0
  0
LINE
  5
AE89
  8
0
 10
3428.7522619681521974
 20
171.7586675794512132
 30
0.0
 11
3428.7522619681521974
 21
171.744961295251187
 31
0.0
  0
LINE
  5
AE8A
  8
0
 10
3428.7596330053252132
 20
171.7586763355137975
 30
0.0
 11
3428.7522619681521974
 21
171.7586675794512132
 31
0.0
  0
LINE
  5
AE8B
  8
0
 10
3428.7522619681521974
 20
171.7586675794512132
 30
0.0
 11
3428.7471812412568397
 21
171.7637150963350052
 31
0.0
  0
ARC
  5
AE8C
  8
0
 10
3428.6828483993390364
 20
171.7572554870428974
 30
0.0
 40
0.0849626125488673
 50
339.6652348487111226
 51
346.3577691523620956
  0
LINE
  5
AE8D
  8
0
 10
3428.7625159934518706
 20
171.7277305826511906
 30
0.0
 11
3428.7522619681521974
 21
171.7277305826511906
 31
0.0
  0
LINE
  5
AE8E
  8
0
 10
3428.7522619681521974
 20
171.7277305826511906
 30
0.0
 11
3428.747181241205908
 21
171.7327780995850048
 31
0.0
  0
LINE
  5
AE8F
  8
0
 10
3428.7522619681521974
 20
171.7277305826511906
 30
0.0
 11
3428.7522619681521974
 21
171.7140242984511929
 31
0.0
  0
LINE
  5
AE90
  8
0
 10
3428.7522619681521974
 20
171.7140242984511929
 30
0.0
 11
3428.7402830089849886
 21
171.725924957505697
 31
0.0
  0
LINE
  5
AE91
  8
0
 10
3428.7625159933859322
 20
171.7277305826511906
 30
0.0
 11
3428.7625159934518706
 21
171.7140242984511929
 31
0.0
  0
LINE
  5
AE92
  8
0
 10
3428.7625159934518706
 20
171.7140242984511929
 30
0.0
 11
3428.7522619681521974
 21
171.7140242984511929
 31
0.0
  0
ARC
  5
AE93
  8
0
 10
3428.7410973144919808
 20
171.7146366505407968
 30
0.0
 40
0.0111814340051067
 50
318.1068486853940271
 51
356.8606216334022747
  0
ARC
  5
AE94
  8
0
 10
3428.7513424689300336
 20
171.7087472219535869
 30
0.0
 40
0.0024859410778049
 50
219.3701663656059964
 51
277.0987955275418813
  0
LINE
  5
AE95
  8
0
 10
3428.7516496830598953
 20
171.7062803367676054
 30
0.0
 11
3428.7607369273518998
 21
171.7062803996512059
 31
0.0
  0
ARC
  5
AE96
  8
0
 10
3428.7606852583030559
 20
171.706694751876114
 30
0.0
 40
0.0004176194109905
 50
277.0835026161695964
 51
329.6092683934439833
  0
ARC
  5
AE97
  8
0
 10
3428.7440977085479972
 20
171.7137021730399056
 30
0.0
 40
0.0184211015842641
 50
336.9290417403195761
 51
1.00196870449016
  0
ARC
  5
AE98
  8
0
 10
3428.7493716304079499
 20
171.714576272639988
 30
0.0
 40
0.0074061152977788
 50
243.4439108891654087
 51
270.3794444227955864
  0
ARC
  5
AE99
  8
0
 10
3428.7485882787827904
 20
171.7130089565469859
 30
0.0
 40
0.0056539396488177
 50
218.6161894830825929
 51
243.4439108891639023
  0
LINE
  5
AE9A
  8
0
 10
3428.7441706060681099
 20
171.709480330561604
 30
0.0
 11
3428.7318213980520341
 21
171.7217488183511875
 31
0.0
  0
LINE
  5
AE9B
  8
0
 10
3428.7478047944759965
 20
171.7024605802128008
 30
0.0
 11
3428.7476942688517738
 21
171.6876251444512036
 31
0.0
  0
LINE
  5
AE9C
  8
0
 10
3428.7476942688517738
 20
171.6876251444512036
 30
0.0
 11
3428.7402830090359203
 21
171.6949879607558955
 31
0.0
  0
ARC
  5
AE9D
  8
0
 10
3428.7363986415189174
 20
171.6877010968609056
 30
0.0
 40
0.0112958826841794
 50
314.04922632039262
 51
359.6147458827430796
  0
ARC
  5
AE9E
  8
0
 10
3428.7436877503241703
 20
171.6801659701650919
 30
0.0
 40
0.0008121218369628
 50
221.9482752413599087
 51
314.0492263203868788
  0
LINE
  5
AE9F
  8
0
 10
3428.7430837358510871
 20
171.6796230996511952
 30
0.0
 11
3428.7318213980520341
 21
171.6908118215511934
 31
0.0
  0
LINE
  5
AEA0
  8
0
 10
3428.7352780293867909
 20
171.6873777843732114
 30
0.0
 11
3428.7287198446510956
 21
171.6813250875511869
 31
0.0
  0
LINE
  5
AEA1
  8
0
 10
3428.7287198446510956
 20
171.6813250875511869
 30
0.0
 11
3428.7055511491521429
 21
171.6813250875511869
 31
0.0
  0
LINE
  5
AEA2
  8
0
 10
3428.7055511491521429
 20
171.6813250875511869
 30
0.0
 11
3428.7004704222567852
 21
171.6863726044350074
 31
0.0
  0
LINE
  5
AEA3
  8
0
 10
3428.7055511491521429
 20
171.6813250875511869
 30
0.0
 11
3428.7055511491521429
 21
171.6676188033511892
 31
0.0
  0
LINE
  5
AEA4
  8
0
 10
3428.7055511491521429
 20
171.6676188033511892
 30
0.0
 11
3428.6935721900358658
 21
171.6795194623556995
 31
0.0
  0
LINE
  5
AEA5
  8
0
 10
3428.6851105790519796
 20
171.6753433231511963
 30
0.0
 11
3428.6980835940521501
 21
171.6624551010511937
 31
0.0
  0
ARC
  5
AEA6
  8
0
 10
3428.7022306806738925
 20
171.6666294717695109
 30
0.0
 40
0.005884190542319
 50
225.1878586811047001
 51
274.6710418583576256
  0
ARC
  5
AEA7
  8
0
 10
3428.7046316499699969
 20
171.6623417271310075
 30
0.0
 40
0.0024859413481117
 50
219.3701725046954039
 51
277.0956381947164004
  0
ARC
  5
AEA8
  8
0
 10
3428.6943864954710079
 20
171.6682311553410045
 30
0.0
 40
0.0111814340215062
 50
318.106848759801494
 51
356.8606221504686005
  0
LINE
  5
AEA9
  8
0
 10
3428.7055511491521429
 20
171.6676188033511892
 30
0.0
 11
3428.7287198446510956
 21
171.6676188033511892
 31
0.0
  0
LINE
  5
AEAA
  8
0
 10
3428.7287198446510956
 20
171.6676188033511892
 30
0.0
 11
3428.7287198446510956
 21
171.6813250875511869
 31
0.0
  0
ARC
  5
AEAB
  8
0
 10
3428.7199116109209172
 20
171.6679721971406138
 30
0.0
 40
0.0088153201089008
 50
293.2839977698897087
 51
357.7024770833094749
  0
LINE
  5
AEAC
  8
0
 10
3428.7233962097520816
 20
171.6598748247511992
 30
0.0
 11
3428.7049387281931558
 21
171.6598748247511992
 31
0.0
  0
LINE
  5
AEAD
  8
0
 10
3428.6967947230518803
 20
171.6517839346560947
 30
0.0
 11
3428.6967947230518803
 21
171.6453809965512107
 31
0.0
  0
ARC
  5
AEAE
  8
0
 10
3428.6901325648491365
 20
171.6453809965512107
 30
0.0
 40
0.0066621582028867
 50
282.7007158621225926
 51
0.0000000000032569
  0
ARC
  5
AEAF
  8
0
 10
3428.6914800786289561
 20
171.6408310292437136
 30
0.0
 40
0.0019527012271503
 50
225.8819946418147993
 51
273.4414453990477796
  0
LINE
  5
AEB0
  8
0
 10
3428.6901207282521682
 20
171.6394291702511907
 30
0.0
 11
3428.6851105790519796
 21
171.6444063264511897
 31
0.0
  0
LINE
  5
AEB1
  8
0
 10
3428.6935721899858436
 20
171.6485824656060117
 30
0.0
 11
3428.6967947230518803
 21
171.6453809965512107
 31
0.0
  0
ARC
  5
AEB2
  8
0
 10
3428.6386197205069948
 20
171.7288076493848052
 30
0.0
 40
0.0070578044919066
 50
269.8464098725071949
 51
275.287533085626194
  0
ARC
  5
AEB3
  8
0
 10
3428.6388209535621172
 20
171.7551777238780062
 30
0.0
 40
0.0025015068015026
 50
264.974859887324385
 51
280.3441503022347092
  0
ARC
  5
AEB4
  8
0
 10
3428.5308455457720811
 20
171.6424522417370895
 30
0.0
 40
0.6337246446630173
 50
89.944226477754242
 51
102.0224635933572017
  0
ARC
  5
AEB5
  8
0
 10
3428.5009865626821011
 20
171.7826573955416904
 30
0.0
 40
0.4903752671807875
 50
102.0224635933572017
 51
118.3548946451976036
  0
ARC
  5
AEB6
  8
0
 10
3428.3933251439061678
 20
171.9821482308238956
 30
0.0
 40
0.2636869912280639
 50
118.3548946451976036
 51
140.092554406747098
  0
ARC
  5
AEB7
  8
0
 10
3428.3095944787601184
 20
172.0521764234003967
 30
0.0
 40
0.1545321835399552
 50
140.092554406747098
 51
161.584510346731804
  0
ARC
  5
AEB8
  8
0
 10
3428.2838946308979757
 20
172.060733342283612
 30
0.0
 40
0.1274452302059883
 50
161.584510346731804
 51
174.0526842989293073
  0
ARC
  5
AEB9
  8
0
 10
3427.9635547881839557
 20
172.0941046341052072
 30
0.0
 40
0.1946281433405116
 50
352.3760089812262208
 51
354.0526842989293073
  0
ARC
  5
AEBA
  8
0
 10
3428.5314013970428277
 20
171.6424519444275063
 30
0.0
 40
0.6337246446630173
 50
77.9162445284600409
 51
89.9944816440601443
  0
ARC
  5
AEBB
  8
0
 10
3428.5614103467928544
 20
171.7826250765156999
 30
0.0
 40
0.4903752671807875
 50
61.583813476594031
 51
77.9162445284600409
  0
ARC
  5
AEBC
  8
0
 10
3428.6692851082661946
 20
171.9820006274028117
 30
0.0
 40
0.2636869912280639
 50
39.8461537150586622
 51
61.583813476594031
  0
ARC
  5
AEBD
  8
0
 10
3428.7530906378037798
 20
172.0519392094608122
 30
0.0
 40
0.1545321835399552
 50
18.3541977750632803
 51
39.8461537150586622
  0
ARC
  5
AEBE
  8
0
 10
3428.7535743651178564
 20
172.0535975115581095
 30
0.0
 40
0.153557461714406
 50
7.4711140439554251
 51
17.8237514878524905
  0
ARC
  5
AEBF
  8
0
 10
3428.7661546554259075
 20
172.059539114210196
 30
0.0
 40
0.1403759208291255
 50
1.7853339890607001
 51
5.7339685656996959
  0
ARC
  5
AEC0
  8
0
 10
3424.5944289813528485
 20
172.66693812145121
 30
0.0
 40
0.9900000000000002
 50
348.4636381127289724
 51
11.5363618872709708
  0
ARC
  5
AEC1
  8
0
 10
3424.5944289813528485
 20
172.66693812145121
 30
0.0
 40
0.9900000000000002
 50
195.526267972954912
 51
344.4734177670616759
  0
ARC
  5
AEC2
  8
0
 10
3424.5944289813528485
 20
172.66693812145121
 30
0.0
 40
0.9900000000000002
 50
15.5263254422336701
 51
164.4736745577662873
  0
LINE
  5
AEC3
  8
0
 10
3425.5544289813519754
 20
172.9319424133630889
 30
0.0
 11
3422.4244289813518662
 21
172.9319424133630889
 31
0.0
  0
ARC
  5
AEC4
  8
0
 10
3422.4244363119009904
 20
172.9219350850383989
 30
0.0
 40
0.0100073310095792
 50
90.0419701868717368
 51
179.9826153806695004
  0
LINE
  5
AEC5
  8
0
 10
3422.4144289813521027
 20
172.9219381214512055
 30
0.0
 11
3422.4144289813521027
 21
172.4119381488756062
 31
0.0
  0
ARC
  5
AEC6
  8
0
 10
3422.42442900877586
 20
172.4119381488756062
 30
0.0
 40
0.0100000274244323
 50
179.9999999999917861
 51
269.9998428700056934
  0
LINE
  5
AEC7
  8
0
 10
3422.4244289813518662
 20
172.4019381214511952
 30
0.0
 11
3425.5544289813401519
 21
172.4019295376274101
 31
0.0
  0
ARC
  5
AEC8
  8
0
 10
3425.5544290075799836
 20
172.4119295168015924
 30
0.0
 40
0.0099999791742831
 50
269.9998496587152204
 51
0.0494582487836371
  0
LINE
  5
AEC9
  8
0
 10
3425.5644289830279376
 20
172.4119381488754073
 30
0.0
 11
3425.5644289830279376
 21
172.9219379313169895
 31
0.0
  0
ARC
  5
AECA
  8
0
 10
3425.5544216497241905
 20
172.921935082338905
 30
0.0
 40
0.0100073337098807
 50
0.0163114800541745
 51
89.9580236462482645
  0
ARC
  5
AECB
  8
0
 10
3424.5944289813528485
 20
172.66693812145121
 30
0.0
 40
0.5449999999999995
 50
29.0941659314739596
 51
150.9058340685259907
  0
ARC
  5
AECC
  8
0
 10
3424.5944289813528485
 20
172.66693812145121
 30
0.0
 40
0.5449999999999995
 50
209.093649570996206
 51
330.906350429003794
  0
ENDSEC
  0
EOF
