  0
SECTION
  2
HEADER
  9
$ACADVER
  1
AC1009
  9
$INSBASE
 10
3169.0052367016778589
 20
43.1742593493460731
 30
0.0
  9
$EXTMIN
 10
3160.9196087209920734
 20
37.6364311004287586
 30
0.0
  9
$EXTMAX
 10
3198.7995858755048175
 20
47.0535200943711374
 30
0.0
  9
$LIMMIN
 10
0.0
 20
0.0
  9
$LIMMAX
 10
11.6929133858000007
 20
8.2677165353999982
  9
$ORTHOMODE
 70
     0
  9
$REGENMODE
 70
     1
  9
$FILLMODE
 70
     1
  9
$QTEXTMODE
 70
     0
  9
$MIRRTEXT
 70
     0
  9
$DRAGMODE
 70
     2
  9
$LTSCALE
 40
0.6431102362
  9
$OSMODE
 70
  4095
  9
$ATTMODE
 70
     1
  9
$TEXTSIZE
 40
0.2
  9
$TRACEWID
 40
0.05
  9
$TEXTSTYLE
  7
STANDARD
  9
$CLAYER
  8
0
  9
$CELTYPE
  6
BYLAYER
  9
$CECOLOR
 62
   256
  9
$DIMSCALE
 40
1.0
  9
$DIMASZ
 40
0.1875
  9
$DIMEXO
 40
0.0625
  9
$DIMDLI
 40
0.4443307087
  9
$DIMRND
 40
0.0
  9
$DIMDLE
 40
0.0
  9
$DIMEXE
 40
0.125
  9
$DIMTP
 40
0.01
  9
$DIMTM
 40
0.01
  9
$DIMTXT
 40
2.0
  9
$DIMCEN
 40
0.1052362205
  9
$DIMTSZ
 40
0.0
  9
$DIMTOL
 70
     1
  9
$DIMLIM
 70
     0
  9
$DIMTIH
 70
     1
  9
$DIMTOH
 70
     1
  9
$DIMSE1
 70
     0
  9
$DIMSE2
 70
     0
  9
$DIMTAD
 70
     0
  9
$DIMZIN
 70
     0
  9
$DIMBLK
  1

  9
$DIMASO
 70
     1
  9
$DIMSHO
 70
     1
  9
$DIMPOST
  1
\X
  9
$DIMAPOST
  1

  9
$DIMALT
 70
     1
  9
$DIMALTD
 70
     2
  9
$DIMALTF
 40
25.3999999999999986
  9
$DIMLFAC
 40
1.0
  9
$DIMTOFL
 70
     0
  9
$DIMTVP
 40
0.0
  9
$DIMTIX
 70
     0
  9
$DIMSOXD
 70
     0
  9
$DIMSAH
 70
     0
  9
$DIMBLK1
  1

  9
$DIMBLK2
  1

  9
$DIMSTYLE
  2
STANDARD
  9
$DIMCLRD
 70
     0
  9
$DIMCLRE
 70
     0
  9
$DIMCLRT
 70
     0
  9
$DIMTFAC
 40
1.0
  9
$DIMGAP
 40
0.09
  9
$LUNITS
 70
     2
  9
$LUPREC
 70
     4
  9
$SKETCHINC
 40
0.1
  9
$FILLETRAD
 40
0.0
  9
$AUNITS
 70
     0
  9
$AUPREC
 70
     0
  9
$MENU
  1
.
  9
$ELEVATION
 40
0.0
  9
$PELEVATION
 40
0.0
  9
$THICKNESS
 40
0.0
  9
$LIMCHECK
 70
     0
  9
$BLIPMODE
 70
     0
  9
$CHAMFERA
 40
0.0
  9
$CHAMFERB
 40
0.0
  9
$SKPOLY
 70
     0
  9
$TDCREATE
 40
2458060.468368056230247
  9
$TDUPDATE
 40
2459942.7475000000558794
  9
$TDINDWG
 40
0.3167663194
  9
$TDUSRTIMER
 40
0.3167663194
  9
$USRTIMER
 70
     1
  9
$ANGBASE
 50
0.0
  9
$ANGDIR
 70
     0
  9
$PDMODE
 70
     0
  9
$PDSIZE
 40
0.3125
  9
$PLINEWID
 40
0.0
  9
$COORDS
 70
     1
  9
$SPLFRAME
 70
     0
  9
$SPLINETYPE
 70
     6
  9
$SPLINESEGS
 70
     8
  9
$ATTDIA
 70
     1
  9
$ATTREQ
 70
     1
  9
$HANDLING
 70
     1
  9
$HANDSEED
  5
6588
  9
$SURFTAB1
 70
     6
  9
$SURFTAB2
 70
     6
  9
$SURFTYPE
 70
     6
  9
$SURFU
 70
     6
  9
$SURFV
 70
     6
  9
$UCSNAME
  2

  9
$UCSORG
 10
0.0
 20
0.0
 30
0.0
  9
$UCSXDIR
 10
1.0
 20
0.0
 30
0.0
  9
$UCSYDIR
 10
0.0
 20
1.0
 30
0.0
  9
$PUCSNAME
  2

  9
$PUCSORG
 10
0.0
 20
0.0
 30
0.0
  9
$PUCSXDIR
 10
1.0
 20
0.0
 30
0.0
  9
$PUCSYDIR
 10
0.0
 20
1.0
 30
0.0
  9
$USERI1
 70
     0
  9
$USERI2
 70
     0
  9
$USERI3
 70
     0
  9
$USERI4
 70
     0
  9
$USERI5
 70
     0
  9
$USERR1
 40
0.0
  9
$USERR2
 40
0.0
  9
$USERR3
 40
0.0
  9
$USERR4
 40
0.0
  9
$USERR5
 40
0.0
  9
$WORLDVIEW
 70
     1
  9
$SHADEDGE
 70
     3
  9
$SHADEDIF
 70
    70
  9
$TILEMODE
 70
     1
  9
$MAXACTVP
 70
    64
  9
$PLIMCHECK
 70
     0
  9
$PEXTMIN
 10
1.0000000000000000E+20
 20
1.0000000000000000E+20
 30
1.0000000000000000E+20
  9
$PEXTMAX
 10
-1.0000000000000000E+20
 20
-1.0000000000000000E+20
 30
-1.0000000000000000E+20
  9
$PLIMMIN
 10
0.0
 20
0.0
  9
$PLIMMAX
 10
12.0
 20
9.0
  9
$UNITMODE
 70
     0
  9
$VISRETAIN
 70
     1
  9
$PLINEGEN
 70
     0
  9
$PSLTSCALE
 70
     1
  0
ENDSEC
  0
SECTION
  2
TABLES
  0
TABLE
  2
VPORT
 70
     1
  0
VPORT
  2
*ACTIVE
 70
     0
 10
0.0
 20
0.0
 11
1.0
 21
1.0
 12
164.1106146749883976
 22
-13.3298009518936293
 13
0.0
 23
0.0
 14
1.0
 24
1.0
 15
0.0
 25
0.0
 16
0.0
 26
0.0
 36
238.8063968625259008
 17
3002.96630859375
 27
54.8220901489257813
 37
0.0
 40
19.1795513591079896
 41
2.8353293413173648
 42
50.0
 43
0.0
 44
0.0
 50
0.0
 51
0.0
 71
     0
 72
   100
 73
     1
 74
     1
 75
     0
 76
     0
 77
     0
 78
     0
  0
ENDTAB
  0
TABLE
  2
LTYPE
 70
     2
  0
LTYPE
  2
CONTINUOUS
 70
     0
  3
Solid line
 72
    65
 73
     0
 40
0.0
  0
LTYPE
  2
PHANTOM2
 70
     0
  3
___ _ _ ___ _ _ ___ _ _ ___ _ _
 72
    65
 73
     6
 40
1.25
 49
0.625
 49
-0.125
 49
0.125
 49
-0.125
 49
0.125
 49
-0.125
  0
ENDTAB
  0
TABLE
  2
LAYER
 70
     2
  0
LAYER
  2
0
 70
     0
 62
   255
  6
CONTINUOUS
  0
LAYER
  2
DEFPOINTS
 70
     0
 62
     7
  6
CONTINUOUS
  0
ENDTAB
  0
TABLE
  2
STYLE
 70
     1
  0
STYLE
  2
STANDARD
 70
     0
 40
0.0
 41
0.8
 50
0.0
 71
     0
 42
0.2
  3
txt
  4

  0
ENDTAB
  0
TABLE
  2
VIEW
 70
     0
  0
ENDTAB
  0
TABLE
  2
UCS
 70
     0
  0
ENDTAB
  0
TABLE
  2
APPID
 70
     9
  0
APPID
  2
ACAD
 70
     0
  0
APPID
  2
ACAD_MLEADERVER
 70
     0
  0
APPID
  2
ACAD_EXEMPT_FROM_CAD_STANDARDS
 70
     0
  0
APPID
  2
ACAD_NAV_VCDISPLAY
 70
     0
  0
APPID
  2
ACAECLAYERSTANDARD
 70
     0
  0
APPID
  2
ACCMTRANSPARENCY
 70
     0
  0
APPID
  2
ACAD_DSTYLE_DIMJAG
 70
     0
  0
APPID
  2
ACAD_DSTYLE_DIMTALN
 70
     0
  0
APPID
  2
ACDBATTR
 70
     0
  0
ENDTAB
  0
TABLE
  2
DIMSTYLE
 70
     1
  0
DIMSTYLE
  2
STANDARD
 70
     0
  3

  4

  5

  6

  7

 40
1.0
 41
0.1875
 42
0.0625
 43
0.38
 44
0.125
 45
0.0
 46
0.0
 47
0.01
 48
0.01
140
0.15625
141
0.09
142
0.0
143
25.3999999999999986
144
1.0
145
0.0
146
1.0
147
0.09
 71
     1
 72
     0
 73
     1
 74
     1
 75
     0
 76
     0
 77
     0
 78
     4
170
     0
171
     2
172
     0
173
     0
174
     0
175
     0
176
     0
177
     0
178
     0
  0
ENDTAB
  0
ENDSEC
  0
SECTION
  2
BLOCKS
  0
BLOCK
  8
0
  2
$MODEL_SPACE
 70
     0
 10
0.0
 20
0.0
 30
0.0
  3
$MODEL_SPACE
  1

  0
ENDBLK
  5
21
  8
0
  0
BLOCK
 67
     1
  8
0
  2
$PAPER_SPACE
 70
     0
 10
0.0
 20
0.0
 30
0.0
  3
$PAPER_SPACE
  1

  0
ENDBLK
  5
1D
 67
     1
  8
0
  0
BLOCK
  8
0
  2
_FILLED
 70
     0
 10
0.0
 20
0.0
 30
0.0
  3
_FILLED
  1

  0
SOLID
  5
5CF5
  8
0
  6
BYBLOCK
 62
     0
 10
0.0
 20
0.0
 30
0.0
 11
-1.0
 21
0.1666666667
 31
0.0
 12
-1.0
 22
-0.1666666667
 32
0.0
 13
-1.0
 23
-0.1666666667
 33
0.0
  0
ENDBLK
  5
5CF6
  8
0
  6
BYBLOCK
 62
     0
  0
BLOCK
  8
0
  2
*D2
 70
     1
 10
0.0
 20
0.0
 30
0.0
  3
*D2
  1

  0
LINE
  5
63CB
  8
0
 62
     0
 10
3169.0677367016801327
 20
44.1642593493460893
 30
0.0
 11
3190.2883887344669347
 21
44.1642593493460893
 31
0.0
  0
LINE
  5
63CC
  8
0
 62
     0
 10
3169.0677367016801327
 20
37.8317589392863383
 30
0.0
 11
3190.2883887344669347
 21
37.8317589392863525
 31
0.0
  0
LINE
  5
63CD
  8
0
 62
     0
 10
3190.1633887344678442
 20
43.9767593493461035
 30
0.0
 11
3190.1633887344678442
 21
43.1780091443162206
 31
0.0
  0
LINE
  5
63CE
  8
0
 62
     0
 10
3190.1633887344678442
 20
38.0192589392863525
 30
0.0
 11
3190.1633887344678442
 21
38.8180091443162212
 31
0.0
  0
SOLID
  5
63CF
  8
0
 62
     0
 10
3190.1321387344678442
 20
43.9767593493461035
 30
0.0
 11
3190.1946387344678442
 21
43.9767593493461035
 31
0.0
 12
3190.1633887344678442
 22
44.1642593493460893
 32
0.0
 13
3190.1633887344678442
 23
44.1642593493460893
 33
0.0
  0
SOLID
  5
63D0
  8
0
 62
     0
 10
3190.1321387344678442
 20
38.0192589392863525
 30
0.0
 11
3190.1946387344678442
 21
38.0192589392863525
 31
0.0
 12
3190.1633887344678442
 22
37.8317589392863525
 32
0.0
 13
3190.1633887344678442
 23
37.8317589392863525
 33
0.0
  0
INSERT
  5
63D1
  8
0
  2
*U4
 10
0.0
 20
0.0
 30
0.0
  0
INSERT
  5
63D2
  8
0
  2
*U5
 10
0.0
 20
0.0
 30
0.0
  0
POINT
  5
63D3
  8
DEFPOINTS
 62
     0
 10
3169.0052367016801327
 20
44.1642593493460893
 30
0.0
  0
POINT
  5
63D4
  8
DEFPOINTS
 62
     0
 10
3169.0052367016801327
 20
37.8317589392863383
 30
0.0
  0
POINT
  5
63D5
  8
DEFPOINTS
 62
     0
 10
3190.1633887344678442
 20
37.8317589392863525
 30
0.0
  0
ENDBLK
  5
63CA
  8
0
  0
BLOCK
  8
0
  2
*D3
 70
     1
 10
0.0
 20
0.0
 30
0.0
  3
*D3
  1

  0
LINE
  5
63E5
  8
0
 62
     0
 10
3169.0677367016801327
 20
44.1642593493460893
 30
0.0
 11
3185.7808970617061277
 21
44.1642593493460893
 31
0.0
  0
LINE
  5
63E6
  8
0
 62
     0
 10
3169.0677367016801327
 20
37.8317589392863383
 30
0.0
 11
3185.7808970617061277
 21
37.8317589392863525
 31
0.0
  0
LINE
  5
63E7
  8
0
 62
     0
 10
3185.6558970617061277
 20
43.9767593493461035
 30
0.0
 11
3185.6558970617061277
 21
43.1780091443162206
 31
0.0
  0
LINE
  5
63E8
  8
0
 62
     0
 10
3185.6558970617061277
 20
38.0192589392863525
 30
0.0
 11
3185.6558970617061277
 21
38.8180091443162212
 31
0.0
  0
SOLID
  5
63E9
  8
0
 62
     0
 10
3185.6246470617061277
 20
43.9767593493461035
 30
0.0
 11
3185.6871470617061277
 21
43.9767593493461035
 31
0.0
 12
3185.6558970617061277
 22
44.1642593493460893
 32
0.0
 13
3185.6558970617061277
 23
44.1642593493460893
 33
0.0
  0
SOLID
  5
63EA
  8
0
 62
     0
 10
3185.6246470617061277
 20
38.0192589392863525
 30
0.0
 11
3185.6871470617061277
 21
38.0192589392863525
 31
0.0
 12
3185.6558970617061277
 22
37.8317589392863525
 32
0.0
 13
3185.6558970617061277
 23
37.8317589392863525
 33
0.0
  0
INSERT
  5
63EB
  8
0
  2
*U6
 10
0.0
 20
0.0
 30
0.0
  0
INSERT
  5
63EC
  8
0
  2
*U7
 10
0.0
 20
0.0
 30
0.0
  0
POINT
  5
63ED
  8
DEFPOINTS
 62
     0
 10
3169.0052367016801327
 20
44.1642593493460893
 30
0.0
  0
POINT
  5
63EE
  8
DEFPOINTS
 62
     0
 10
3169.0052367016801327
 20
37.8317589392863383
 30
0.0
  0
POINT
  5
63EF
  8
DEFPOINTS
 62
     0
 10
3185.6558970617061277
 20
37.8317589392863525
 30
0.0
  0
ENDBLK
  5
63D9
  8
0
  0
BLOCK
  8
0
  2
*U4
 70
     1
 10
0.0
 20
0.0
 30
0.0
  3
*U4
  1

  0
TEXT
  5
6579
  8
0
 62
     0
 10
3181.8967220678000558
 20
41.0880091443153077
 30
0.0
 40
2.0
  1
6.3325±0.0100
 41
0.8
  0
ENDBLK
  5
657B
  8
0
  0
BLOCK
  8
0
  2
*U5
 70
     1
 10
0.0
 20
0.0
 30
0.0
  3
*U5
  1

  0
TEXT
  5
657D
  8
0
 62
     0
 10
3182.1633887344660252
 20
38.908009144315308
 30
0.0
 40
2.0
  1
[160.85±0.25]
 41
0.8
  0
ENDBLK
  5
657F
  8
0
  0
BLOCK
  8
0
  2
*U6
 70
     1
 10
0.0
 20
0.0
 30
0.0
  3
*U6
  1

  0
TEXT
  5
6581
  8
0
 62
     0
 10
3176.0558970617062187
 20
41.0880091443153077
 30
0.0
 40
2.0
  1
6.332500±0.0100
 41
0.8
  0
ENDBLK
  5
6583
  8
0
  0
BLOCK
  8
0
  2
*U7
 70
     1
 10
0.0
 20
0.0
 30
0.0
  3
*U7
  1

  0
TEXT
  5
6585
  8
0
 62
     0
 10
3177.6558970617052182
 20
38.908009144315308
 30
0.0
 40
2.0
  1
[160.85±0.25]
 41
0.8
  0
ENDBLK
  5
6587
  8
0
  0
ENDSEC
  0
SECTION
  2
ENTITIES
  0
ATTDEF
  5
3930
  8
DEFPOINTS
 10
3168.9968413323172172
 20
43.1784091885117505
 30
0.0
 40
0.001
  1
K-14406T-4E2
  3

  2
MODELNUMBER
 70
     0
1001
ACDBATTR
1070
     0
1070
     1
  0
ATTDEF
  5
3931
  8
DEFPOINTS
 10
3168.9968413323172172
 20
43.1767425218450924
 30
0.0
 40
0.001
  1
PURIST
  3

  2
TRADENAME
 70
     0
1001
ACDBATTR
1070
     0
1070
     1
  0
ATTDEF
  5
3932
  8
DEFPOINTS
 10
3168.9968413323172172
 20
43.1750758551784202
 30
0.0
 40
0.001
  1
BATHROOM SINK FAUCET
  3

  2
PRODUCT
 70
     0
1001
ACDBATTR
1070
     0
1070
     1
  0
ARC
  5
61D2
  8
0
 10
3163.0996118324278541
 20
43.1742593493460731
 30
0.0
 40
0.9896650358613356
 50
348.5588309308670887
 51
11.4411690690371497
  0
ARC
  5
61D3
  8
0
 10
3163.0996118324278541
 20
43.1742593493460731
 30
0.0
 40
0.9896650358613356
 50
195.5314552181554859
 51
344.4685447818445141
  0
ARC
  5
61D4
  8
0
 10
3163.0996118324278541
 20
43.1742593493460731
 30
0.0
 40
0.9896650358613356
 50
15.5314552181558891
 51
164.4685447818428941
  0
ARC
  5
61D5
  8
0
 10
3163.0996118324278541
 20
43.1742593493460731
 30
0.0
 40
0.5443860264000016
 50
209.1296133722520096
 51
330.8703866277476209
  0
ARC
  5
61D6
  8
0
 10
3163.0996118324278541
 20
43.1742593493460731
 30
0.0
 40
0.5443860264000016
 50
29.1296133722523898
 51
150.8703866277475925
  0
ARC
  5
61D7
  8
0
 10
3164.0596118324278905
 20
43.4292593493460899
 30
0.0
 40
0.0100000000000001
 50
0.6776001724007443
 51
90.0
  0
LINE
  5
61D8
  8
0
 10
3164.0596118324278905
 20
43.4392593493460879
 30
0.0
 11
3160.9296118324277813
 21
43.4392593493460879
 31
0.0
  0
ARC
  5
61D9
  8
0
 10
3160.9296140332498908
 20
43.4292540360914572
 30
0.0
 40
0.0100053134966653
 50
90.0126030853300136
 51
179.9714866646947087
  0
LINE
  5
61DA
  8
0
 10
3160.9196087209920734
 20
43.4292590152513398
 30
0.0
 11
3160.9196087209920734
 21
42.9192593493459569
 31
0.0
  0
ARC
  5
61DB
  8
0
 10
3160.9296140333722178
 20
42.9192646628942711
 30
0.0
 40
0.010005313790267
 50
180.0304282217358889
 51
269.9873962186338758
  0
LINE
  5
61DC
  8
0
 10
3160.9296118324277813
 20
42.9092593493460797
 30
0.0
 11
3164.0596118324278905
 21
42.9092593493460797
 31
0.0
  0
ARC
  5
61DD
  8
0
 10
3164.0596118324278905
 20
42.9192593493460706
 30
0.0
 40
0.0100000000000016
 50
270.0
 51
359.3223996064616017
  0
ARC
  5
61DE
  8
0
 10
3169.0052367016778589
 20
43.1742593493460731
 30
0.0
 40
0.9900000000000002
 50
290.3020798524729003
 51
249.6979201475270997
  0
ARC
  5
61DF
  8
0
 10
3169.0052367016778589
 20
43.1742593493460731
 30
0.0
 40
0.545
 50
309.0704313789739786
 51
230.929568621025993
  0
ARC
  5
61E0
  8
0
 10
3169.0052367016778589
 20
43.1750089397176922
 30
0.0
 40
0.342750819688132
 50
0.1253050216996584
 51
179.8746949781688045
  0
ARC
  5
61E1
  8
0
 10
3169.0052367016778589
 20
38.1745097589744518
 30
0.0
 40
0.3427508196881312
 50
180.1253050217150928
 51
359.8746949783113109
  0
ARC
  5
61E2
  8
0
 10
3174.9108524312791815
 20
43.1742595163934908
 30
0.0
 40
0.9896650358613356
 50
168.5588309272820027
 51
191.4411690727160078
  0
ARC
  5
61E3
  8
0
 10
3174.9108524312791815
 20
43.1742595163934908
 30
0.0
 40
0.9896650358613356
 50
195.5314552181554859
 51
344.4685447818445141
  0
ARC
  5
61E4
  8
0
 10
3174.9108524312791815
 20
43.1742595163934908
 30
0.0
 40
0.9896650358613356
 50
15.5314552181558891
 51
164.4685447818428941
  0
ARC
  5
61E5
  8
0
 10
3174.9108524312791815
 20
43.1742595163934908
 30
0.0
 40
0.5443860264000016
 50
209.1296133722520096
 51
330.8703866277476209
  0
ARC
  5
61E6
  8
0
 10
3174.9108524312791815
 20
43.1742595163934908
 30
0.0
 40
0.5443860264000016
 50
29.1296133722523898
 51
150.8703866277475925
  0
ARC
  5
61E7
  8
0
 10
3173.9508524312791451
 20
43.4292595163935218
 30
0.0
 40
0.0100000000000001
 50
90.0
 51
179.3223939119849035
  0
LINE
  5
61E8
  8
0
 10
3173.9508524312791451
 20
43.4392595163935127
 30
0.0
 11
3177.0808524312787995
 21
43.4392595163935127
 31
0.0
  0
ARC
  5
61E9
  8
0
 10
3177.0808502304571448
 20
43.429254203138882
 30
0.0
 40
0.0100053134966653
 50
0.0285133353052828
 51
89.9873969146699864
  0
LINE
  5
61EA
  8
0
 10
3177.0908555427140527
 20
43.4292591822987717
 30
0.0
 11
3177.0908555427140527
 21
42.9192595163933817
 31
0.0
  0
ARC
  5
61EB
  8
0
 10
3177.0808502303348178
 20
42.919264829941703
 30
0.0
 40
0.010005313790267
 50
270.0126037813661242
 51
359.9695717782640827
  0
LINE
  5
61EC
  8
0
 10
3177.0808524312787995
 20
42.9092595163934973
 30
0.0
 11
3173.9508524312791451
 21
42.9092595163934973
 31
0.0
  0
ARC
  5
61ED
  8
0
 10
3173.9508524312791451
 20
42.9192595163935025
 30
0.0
 40
0.0100000000000016
 50
180.6776060887274866
 51
270.0
  0
LINE
  5
61EE
  8
0
 10
3164.06961113312218
 20
42.9191410885240288
 30
0.0
 11
3164.06961113312218
 21
43.4293776101295705
 31
0.0
  0
LINE
  5
61EF
  8
0
 10
3173.9408531305962242
 20
43.4293777782093713
 30
0.0
 11
3173.9408531305962242
 21
42.9191412545775322
 31
0.0
  0
LINE
  5
61F0
  8
0
 10
3168.6624867016607823
 20
43.1757585300900999
 30
0.0
 11
3168.6624867016607823
 21
38.1737601686028185
 31
0.0
  0
LINE
  5
61F1
  8
0
 10
3169.3479867016940261
 20
43.1757585300893112
 30
0.0
 11
3169.3479867016940261
 21
38.1737601686028185
 31
0.0
  0
CIRCLE
  5
61F2
  8
0
 10
3169.0052367016778589
 20
43.8892593493460694
 30
0.0
 40
0.0885826772000016
  0
ENDSEC
  0
EOF
