  0
SECTION
  2
HEADER
  9
$ACADVER
  1
AC1009
  9
$INSBASE
 10
3040.0774000896522011
 20
75.6013452701803601
 30
0.0
  9
$EXTMIN
 10
3031.9917721089527731
 20
72.8956166842716016
 30
0.0
  9
$EXTMAX
 10
3081.8527279101299428
 20
84.5215869547192682
 30
0.0
  9
$LIMMIN
 10
0.0
 20
0.0
  9
$LIMMAX
 10
11.6929133858000007
 20
8.2677165353999982
  9
$ORTHOMODE
 70
     0
  9
$REGENMODE
 70
     1
  9
$FILLMODE
 70
     1
  9
$QTEXTMODE
 70
     0
  9
$MIRRTEXT
 70
     0
  9
$DRAGMODE
 70
     2
  9
$LTSCALE
 40
0.6431102362
  9
$OSMODE
 70
  4095
  9
$ATTMODE
 70
     1
  9
$TEXTSIZE
 40
0.2
  9
$TRACEWID
 40
0.05
  9
$TEXTSTYLE
  7
STANDARD
  9
$CLAYER
  8
0
  9
$CELTYPE
  6
BYLAYER
  9
$CECOLOR
 62
   256
  9
$DIMSCALE
 40
1.0
  9
$DIMASZ
 40
0.1875
  9
$DIMEXO
 40
0.0625
  9
$DIMDLI
 40
0.4443307087
  9
$DIMRND
 40
0.0
  9
$DIMDLE
 40
0.0
  9
$DIMEXE
 40
0.125
  9
$DIMTP
 40
0.01
  9
$DIMTM
 40
0.01
  9
$DIMTXT
 40
2.0
  9
$DIMCEN
 40
0.1052362205
  9
$DIMTSZ
 40
0.0
  9
$DIMTOL
 70
     1
  9
$DIMLIM
 70
     0
  9
$DIMTIH
 70
     1
  9
$DIMTOH
 70
     1
  9
$DIMSE1
 70
     0
  9
$DIMSE2
 70
     0
  9
$DIMTAD
 70
     0
  9
$DIMZIN
 70
     0
  9
$DIMBLK
  1

  9
$DIMASO
 70
     1
  9
$DIMSHO
 70
     1
  9
$DIMPOST
  1
\X
  9
$DIMAPOST
  1

  9
$DIMALT
 70
     1
  9
$DIMALTD
 70
     2
  9
$DIMALTF
 40
25.3999999999999986
  9
$DIMLFAC
 40
1.0
  9
$DIMTOFL
 70
     0
  9
$DIMTVP
 40
0.0
  9
$DIMTIX
 70
     0
  9
$DIMSOXD
 70
     0
  9
$DIMSAH
 70
     0
  9
$DIMBLK1
  1

  9
$DIMBLK2
  1

  9
$DIMSTYLE
  2
STANDARD
  9
$DIMCLRD
 70
     0
  9
$DIMCLRE
 70
     0
  9
$DIMCLRT
 70
     0
  9
$DIMTFAC
 40
1.0
  9
$DIMGAP
 40
0.09
  9
$LUNITS
 70
     2
  9
$LUPREC
 70
     4
  9
$SKETCHINC
 40
0.1
  9
$FILLETRAD
 40
0.0
  9
$AUNITS
 70
     0
  9
$AUPREC
 70
     0
  9
$MENU
  1
.
  9
$ELEVATION
 40
0.0
  9
$PELEVATION
 40
0.0
  9
$THICKNESS
 40
0.0
  9
$LIMCHECK
 70
     0
  9
$BLIPMODE
 70
     0
  9
$CHAMFERA
 40
0.0
  9
$CHAMFERB
 40
0.0
  9
$SKPOLY
 70
     0
  9
$TDCREATE
 40
2458060.468368056230247
  9
$TDUPDATE
 40
2459942.7473611109890044
  9
$TDINDWG
 40
0.3150417824
  9
$TDUSRTIMER
 40
0.3150417824
  9
$USRTIMER
 70
     1
  9
$ANGBASE
 50
0.0
  9
$ANGDIR
 70
     0
  9
$PDMODE
 70
     0
  9
$PDSIZE
 40
0.3125
  9
$PLINEWID
 40
0.0
  9
$COORDS
 70
     1
  9
$SPLFRAME
 70
     0
  9
$SPLINETYPE
 70
     6
  9
$SPLINESEGS
 70
     8
  9
$ATTDIA
 70
     1
  9
$ATTREQ
 70
     1
  9
$HANDLING
 70
     1
  9
$HANDSEED
  5
6E77
  9
$SURFTAB1
 70
     6
  9
$SURFTAB2
 70
     6
  9
$SURFTYPE
 70
     6
  9
$SURFU
 70
     6
  9
$SURFV
 70
     6
  9
$UCSNAME
  2

  9
$UCSORG
 10
0.0
 20
0.0
 30
0.0
  9
$UCSXDIR
 10
1.0
 20
0.0
 30
0.0
  9
$UCSYDIR
 10
0.0
 20
1.0
 30
0.0
  9
$PUCSNAME
  2

  9
$PUCSORG
 10
0.0
 20
0.0
 30
0.0
  9
$PUCSXDIR
 10
1.0
 20
0.0
 30
0.0
  9
$PUCSYDIR
 10
0.0
 20
1.0
 30
0.0
  9
$USERI1
 70
     0
  9
$USERI2
 70
     0
  9
$USERI3
 70
     0
  9
$USERI4
 70
     0
  9
$USERI5
 70
     0
  9
$USERR1
 40
0.0
  9
$USERR2
 40
0.0
  9
$USERR3
 40
0.0
  9
$USERR4
 40
0.0
  9
$USERR5
 40
0.0
  9
$WORLDVIEW
 70
     1
  9
$SHADEDGE
 70
     3
  9
$SHADEDIF
 70
    70
  9
$TILEMODE
 70
     1
  9
$MAXACTVP
 70
    64
  9
$PLIMCHECK
 70
     0
  9
$PEXTMIN
 10
1.0000000000000000E+20
 20
1.0000000000000000E+20
 30
1.0000000000000000E+20
  9
$PEXTMAX
 10
-1.0000000000000000E+20
 20
-1.0000000000000000E+20
 30
-1.0000000000000000E+20
  9
$PLIMMIN
 10
0.0
 20
0.0
  9
$PLIMMAX
 10
12.0
 20
9.0
  9
$UNITMODE
 70
     0
  9
$VISRETAIN
 70
     1
  9
$PLINEGEN
 70
     0
  9
$PSLTSCALE
 70
     1
  0
ENDSEC
  0
SECTION
  2
TABLES
  0
TABLE
  2
VPORT
 70
     1
  0
VPORT
  2
*ACTIVE
 70
     0
 10
0.0
 20
0.0
 11
1.0
 21
1.0
 12
118.404908169973595
 22
-11.4320491322652593
 13
0.0
 23
0.0
 14
1.0
 24
1.0
 15
0.0
 25
0.0
 16
0.0
 26
0.0
 36
215.6888699471975031
 17
2919.75537109375
 27
87.2746505737304688
 37
0.0
 40
26.2025895039320211
 41
2.8353293413173648
 42
50.0
 43
0.0
 44
0.0
 50
0.0
 51
0.0
 71
     0
 72
   100
 73
     1
 74
     1
 75
     0
 76
     0
 77
     0
 78
     0
  0
ENDTAB
  0
TABLE
  2
LTYPE
 70
     2
  0
LTYPE
  2
CONTINUOUS
 70
     0
  3
Solid line
 72
    65
 73
     0
 40
0.0
  0
LTYPE
  2
PHANTOM2
 70
     0
  3
___ _ _ ___ _ _ ___ _ _ ___ _ _
 72
    65
 73
     6
 40
1.25
 49
0.625
 49
-0.125
 49
0.125
 49
-0.125
 49
0.125
 49
-0.125
  0
ENDTAB
  0
TABLE
  2
LAYER
 70
     2
  0
LAYER
  2
0
 70
     0
 62
   255
  6
CONTINUOUS
  0
LAYER
  2
DEFPOINTS
 70
     0
 62
     7
  6
CONTINUOUS
  0
ENDTAB
  0
TABLE
  2
STYLE
 70
     1
  0
STYLE
  2
STANDARD
 70
     0
 40
0.0
 41
0.8
 50
0.0
 71
     0
 42
0.2
  3
txt
  4

  0
ENDTAB
  0
TABLE
  2
VIEW
 70
     0
  0
ENDTAB
  0
TABLE
  2
UCS
 70
     0
  0
ENDTAB
  0
TABLE
  2
APPID
 70
     9
  0
APPID
  2
ACAD
 70
     0
  0
APPID
  2
ACAD_MLEADERVER
 70
     0
  0
APPID
  2
ACAD_EXEMPT_FROM_CAD_STANDARDS
 70
     0
  0
APPID
  2
ACAD_NAV_VCDISPLAY
 70
     0
  0
APPID
  2
ACAECLAYERSTANDARD
 70
     0
  0
APPID
  2
ACCMTRANSPARENCY
 70
     0
  0
APPID
  2
ACAD_DSTYLE_DIMJAG
 70
     0
  0
APPID
  2
ACAD_DSTYLE_DIMTALN
 70
     0
  0
APPID
  2
ACDBATTR
 70
     0
  0
ENDTAB
  0
TABLE
  2
DIMSTYLE
 70
     1
  0
DIMSTYLE
  2
STANDARD
 70
     0
  3

  4

  5

  6

  7

 40
1.0
 41
0.1875
 42
0.0625
 43
0.38
 44
0.125
 45
0.0
 46
0.0
 47
0.01
 48
0.01
140
0.15625
141
0.09
142
0.0
143
25.3999999999999986
144
1.0
145
0.0
146
1.0
147
0.09
 71
     1
 72
     0
 73
     1
 74
     1
 75
     0
 76
     0
 77
     0
 78
     4
170
     0
171
     2
172
     0
173
     0
174
     0
175
     0
176
     0
177
     0
178
     0
  0
ENDTAB
  0
ENDSEC
  0
SECTION
  2
BLOCKS
  0
BLOCK
  8
0
  2
$MODEL_SPACE
 70
     0
 10
0.0
 20
0.0
 30
0.0
  3
$MODEL_SPACE
  1

  0
ENDBLK
  5
21
  8
0
  0
BLOCK
 67
     1
  8
0
  2
$PAPER_SPACE
 70
     0
 10
0.0
 20
0.0
 30
0.0
  3
$PAPER_SPACE
  1

  0
ENDBLK
  5
1D
 67
     1
  8
0
  0
BLOCK
  8
0
  2
_FILLED
 70
     0
 10
0.0
 20
0.0
 30
0.0
  3
_FILLED
  1

  0
SOLID
  5
5A61
  8
0
  6
BYBLOCK
 62
     0
 10
0.0
 20
0.0
 30
0.0
 11
-1.0
 21
0.1666666667
 31
0.0
 12
-1.0
 22
-0.1666666667
 32
0.0
 13
-1.0
 23
-0.1666666667
 33
0.0
  0
ENDBLK
  5
5A62
  8
0
  6
BYBLOCK
 62
     0
  0
ENDSEC
  0
SECTION
  2
ENTITIES
  0
ATTDEF
  5
3930
  8
DEFPOINTS
 10
3040.0773926286310598
 20
75.5999313755768156
 30
0.0
 40
0.001
  1
K-14406T-4E2
  3

  2
MODELNUMBER
 70
     0
1001
ACDBATTR
1070
     0
1070
     1
  0
ATTDEF
  5
3931
  8
DEFPOINTS
 10
3040.0773926286310598
 20
75.5982647089101647
 30
0.0
 40
0.001
  1
PURIST
  3

  2
TRADENAME
 70
     0
1001
ACDBATTR
1070
     0
1070
     1
  0
ATTDEF
  5
3932
  8
DEFPOINTS
 10
3040.0773926286310598
 20
75.5965980422434995
 30
0.0
 40
0.001
  1
BATHROOM SINK FAUCET
  3

  2
PRODUCT
 70
     0
1001
ACDBATTR
1070
     0
1070
     1
  0
ARC
  5
69B0
  8
0
 10
3034.4142727313251271
 20
78.7083481217637768
 30
0.0
 40
0.0149907485933936
 50
225.8808479249227901
 51
269.9976657502033959
  0
ARC
  5
69B1
  8
0
 10
3031.6619877610191907
 20
75.9074485722902352
 30
0.0
 40
3.9118544779631832
 50
45.5001216819425593
 51
48.1652743969640795
  0
ARC
  5
69B2
  8
0
 10
3034.1706416925881058
 20
78.4208481902305152
 30
0.0
 40
0.4201549368598224
 50
80.5899834712880789
 51
97.9792621364961178
  0
ARC
  5
69B3
  8
0
 10
3034.2256313322468486
 20
78.7578686483837203
 30
0.0
 40
0.0786834628680458
 50
54.670038268855933
 51
79.9690951028418056
  0
ARC
  5
69B4
  8
0
 10
3034.1250664469598632
 20
78.7401061490156735
 30
0.0
 40
0.0976648122343967
 50
97.5003593747146056
 51
121.4271393035690068
  0
ARC
  5
69B5
  8
0
 10
3036.597405558787159
 20
75.9935869329983689
 30
0.0
 40
3.791430627716986
 50
131.7220280493081077
 51
134.5051778158484126
  0
ARC
  5
69B6
  8
0
 10
3033.9293748097820753
 20
78.7081053602745158
 30
0.0
 40
0.0147483446763886
 50
269.6010152126439721
 51
314.5014955151136178
  0
LINE
  5
69B7
  8
0
 10
3033.9292721090660052
 20
78.6933573731828346
 30
0.0
 11
3032.0017721089661791
 21
78.6933573731828346
 31
0.0
  0
ARC
  5
69B8
  8
0
 10
3032.0017708732138999
 20
78.7033561373675639
 30
0.0
 40
0.0099987642610981
 50
179.9970668656038129
 51
270.0070812125014186
  0
LINE
  5
69B9
  8
0
 10
3031.9917721089659608
 20
78.7033566492328305
 30
0.0
 11
3031.9917721089659608
 21
79.2133566492328498
 31
0.0
  0
ARC
  5
69BA
  8
0
 10
3032.0017721090412124
 20
79.2133566492019554
 30
0.0
 40
0.0100000000745126
 50
90.0000004285022186
 51
179.999999823146112
  0
LINE
  5
69BB
  8
0
 10
3032.0017721089661791
 20
79.223356649276468
 30
0.0
 11
3035.1317721089658335
 21
79.223356649276468
 31
0.0
  0
ARC
  5
69BC
  8
0
 10
3035.1317704029188462
 20
79.2133525304080308
 30
0.0
 40
0.010004119013916
 50
0.0235894119219334
 51
89.9902290933200106
  0
LINE
  5
69BD
  8
0
 10
3035.1417745210837893
 20
79.2133566492328498
 30
0.0
 11
3035.1417745210837893
 21
78.7033579926663833
 31
0.0
  0
ARC
  5
69BE
  8
0
 10
3035.131770286180199
 20
78.7033616085744825
 30
0.0
 40
0.0100042355576979
 50
270.0104393735451822
 51
359.9792911435603742
  0
LINE
  5
69BF
  8
0
 10
3035.1317721089658335
 20
78.6933573731828346
 30
0.0
 11
3034.4142721205971611
 21
78.6933573731828346
 31
0.0
  0
LINE
  5
69C0
  8
0
 10
3033.9511729884620763
 20
78.7088032022006416
 30
0.0
 11
3033.9483203021359259
 21
78.0522658219222478
 31
0.0
  0
LINE
  5
69C1
  8
0
 10
3033.9483203021359259
 20
78.0522658219222478
 30
0.0
 11
3034.3952239157861186
 21
78.0522658219116465
 31
0.0
  0
LINE
  5
69C2
  8
0
 10
3034.3952239157861186
 20
78.0522658219116465
 30
0.0
 11
3034.3923591429079352
 21
78.7088192321137683
 31
0.0
  0
ARC
  5
69C3
  8
0
 10
3033.6983226819520496
 20
78.0533566492667603
 30
0.0
 40
0.2500000000339231
 50
270.0000000032047751
 51
359.7499999946866751
  0
ARC
  5
69C4
  8
0
 10
3034.6452215359799993
 20
78.053356649266675
 30
0.0
 40
0.250000000033848
 50
180.2500000077234859
 51
269.9999999967952249
  0
LINE
  5
69C5
  8
0
 10
3034.7061596584658218
 20
77.8033566492328248
 30
0.0
 11
3033.6373845595658167
 21
77.8033566492328248
 31
0.0
  0
ARC
  5
69C6
  8
0
 10
3033.6373845595658167
 20
77.7933566492328339
 30
0.0
 40
0.0100000000000007
 50
90.0
 51
178.9999986497458906
  0
LINE
  5
69C7
  8
0
 10
3033.627386082618159
 20
77.7935311735328412
 30
0.0
 11
3033.627386082565863
 21
77.723182125032821
 31
0.0
  0
ARC
  5
69C8
  8
0
 10
3033.6373845596008323
 20
77.7233566493183616
 30
0.0
 40
0.0100000000855242
 50
181.0000006857119104
 51
269.999985285379978
  0
ARC
  5
69C9
  8
0
 10
3034.7061596585022016
 20
77.7933566493216517
 30
0.0
 40
0.0099999999111891
 50
1.000000850205305
 51
90.0000002081542334
  0
ARC
  5
69CA
  8
0
 10
3033.7088915062217893
 20
77.7583566500122458
 30
0.0
 40
1.0078806027443521
 50
358.0000000507708933
 51
1.999999871934707
  0
ARC
  5
69CB
  8
0
 10
3034.705981951305148
 20
77.7235374853017049
 30
0.0
 40
0.0101823868958343
 50
271.0000000369274744
 51
358.0000000507628215
  0
LINE
  5
69CC
  8
0
 10
3034.7167721089658698
 20
77.7133566492328214
 30
0.0
 11
3033.6267721089661791
 21
77.7133566492328214
 31
0.0
  0
LINE
  5
69CD
  8
0
 10
3033.6267721089661791
 20
77.7133566492328214
 30
0.0
 11
3033.6267721089661791
 21
76.073356649232835
 31
0.0
  0
ARC
  5
69CE
  8
0
 10
3033.63677253723381
 20
76.0733568254581485
 30
0.0
 40
0.01000042826959
 50
180.0010096533962098
 51
269.4630336866541143
  0
LINE
  5
69CF
  8
0
 10
3033.6366788162908961
 20
76.0633568363601569
 30
0.0
 11
3034.7068692755660777
 21
76.0633568363601569
 31
0.0
  0
ARC
  5
69D0
  8
0
 10
3034.7068696963169714
 20
76.0732597233493664
 30
0.0
 40
0.0099028869981634
 50
269.9975656335967074
 51
0.5607993629467867
  0
LINE
  5
69D1
  8
0
 10
3034.7167721089658698
 20
76.073356649232835
 30
0.0
 11
3034.7167721089658698
 21
77.7133566492328214
 31
0.0
  0
ARC
  5
69D2
  8
0
 10
3034.7068689518741849
 20
76.0533565091945718
 30
0.0
 40
0.0100003271707983
 50
1.4852669770555771
 51
89.9981454450947211
  0
ARC
  5
69D3
  8
0
 10
3034.9962814034079202
 20
76.0608661876714791
 30
0.0
 40
0.2795095385931641
 50
181.4864179394024859
 51
269.9980947615861169
  0
LINE
  5
69D4
  8
0
 10
3035.1470022429548408
 20
75.7813566492328334
 30
0.0
 11
3033.1967721086639358
 21
75.7813566492328334
 31
0.0
  0
ARC
  5
69D5
  8
0
 10
3033.1967721086639358
 20
75.7663566495345435
 30
0.0
 40
0.0149999996983024
 50
90.0
 51
180.0000011523993066
  0
LINE
  5
69D6
  8
0
 10
3033.1817721089660154
 20
75.7663566492328471
 30
0.0
 11
3033.1817721119828093
 21
75.6163566492328414
 31
0.0
  0
ARC
  5
69D7
  8
0
 10
3033.1967915553482271
 20
75.6163647031135042
 30
0.0
 40
0.0150194455243102
 50
180.0307237302403962
 51
269.9258102798510777
  0
LINE
  5
69D8
  8
0
 10
3033.1967721073510802
 20
75.6013452701803601
 30
0.0
 11
3035.1469953102528052
 21
75.6013452701803601
 31
0.0
  0
ARC
  5
69D9
  8
0
 10
3035.1469925098040221
 20
75.6157930366031508
 30
0.0
 40
0.0144477666942107
 50
270.0111057956854097
 51
359.9041066746463002
  0
LINE
  5
69DA
  8
0
 10
3035.1614402562631767
 20
75.6157688560481915
 30
0.0
 11
3035.1614402562631767
 21
75.7669314954959532
 31
0.0
  0
ARC
  5
69DB
  8
0
 10
3035.1469992703250682
 20
75.766915654912566
 30
0.0
 40
0.0144409946262329
 50
0.0628487704384173
 51
89.9882058563073031
  0
ARC
  5
69DC
  8
0
 10
3033.6366783798571305
 20
76.0533565067561028
 30
0.0
 40
0.0100003296135628
 50
89.9974995013395045
 51
178.5147235045511138
  0
ARC
  5
69DD
  8
0
 10
3033.3472752211209809
 20
76.0608566484843323
 30
0.0
 40
0.2794999992515112
 50
269.9999998492191935
 51
358.515487303296311
  0
ARC
  5
69DE
  8
0
 10
3040.0774000896349207
 20
83.7578566492328349
 30
0.0
 40
0.3435000000000024
 50
0.0
 51
180.0
  0
LINE
  5
69DF
  8
0
 10
3039.7339000896349717
 20
83.7578566492328349
 30
0.0
 11
3039.7339000896349717
 21
79.3813566492328277
 31
0.0
  0
ARC
  5
69E0
  8
0
 10
3039.5739000896360267
 20
79.3813566492328277
 30
0.0
 40
0.160000000000001
 50
270.0
 51
0.0
  0
ARC
  5
69E1
  8
0
 10
3039.5474000896228972
 20
79.2063566492608402
 30
0.0
 40
0.0149999999720034
 50
90.0000000000260485
 51
180.0000001069383018
  0
LINE
  5
69E2
  8
0
 10
3039.5324000896521284
 20
79.2063566492328448
 30
0.0
 11
3039.5324000896521284
 21
76.0613566492328346
 31
0.0
  0
ARC
  5
69E3
  8
0
 10
3039.2524000896210055
 20
76.0613566492633311
 30
0.0
 40
0.2800000000305105
 50
270.0000000028920795
 51
359.9999999937566031
  0
LINE
  5
69E4
  8
0
 10
3041.0524001012058761
 20
75.7813566492328334
 30
0.0
 11
3039.1024000781089853
 21
75.7813566492328334
 31
0.0
  0
ARC
  5
69E5
  8
0
 10
3039.1024000780971619
 20
75.7663566607870109
 30
0.0
 40
0.0149999884458105
 50
89.9999999556802663
 51
180.0000441337635095
  0
LINE
  5
69E6
  8
0
 10
3039.0874000896519647
 20
75.7663566492328471
 30
0.0
 11
3039.0874000896519647
 21
75.6163566492328556
 31
0.0
  0
ARC
  5
69E7
  8
0
 10
3039.1024197415899835
 20
75.6163649114712939
 30
0.0
 40
0.0150196542106527
 50
180.0315181300188954
 51
269.9248491193819177
  0
LINE
  5
69E8
  8
0
 10
3039.1024000413622161
 20
75.6013452701803601
 30
0.0
 11
3041.0524001379421861
 21
75.6013452701803601
 31
0.0
  0
ARC
  5
69E9
  8
0
 10
3039.7396500896347789
 20
82.1038566492328243
 30
0.0
 40
0.0049999999999981
 50
89.9999999999739515
 51
180.0000000000194973
  0
LINE
  5
69EA
  8
0
 10
3039.7346500896351245
 20
82.1038566492328243
 30
0.0
 11
3039.7346500896351245
 21
81.4188566492328221
 31
0.0
  0
ARC
  5
69EB
  8
0
 10
3039.7446396627888134
 20
81.4188523302348983
 30
0.0
 40
0.0099895740874011
 50
179.9752281369854927
 51
269.9391425945602236
  0
LINE
  5
69EC
  8
0
 10
3040.6074000896801408
 20
79.2213566492328312
 30
0.0
 11
3039.5474000896228972
 21
79.2213566492328312
 31
0.0
  0
LINE
  5
69ED
  8
0
 10
3040.4209000896680664
 20
83.7578566492328349
 30
0.0
 11
3040.4209000896680664
 21
79.3813566492328277
 31
0.0
  0
ARC
  5
69EE
  8
0
 10
3040.5809000896679208
 20
79.3813566492328277
 30
0.0
 40
0.160000000000001
 50
180.0
 51
270.0
  0
ARC
  5
69EF
  8
0
 10
3040.6074000896801408
 20
79.2063566492608402
 30
0.0
 40
0.0149999999720034
 50
359.9999998930617267
 51
89.9999999999739515
  0
LINE
  5
69F0
  8
0
 10
3040.6224000896518191
 20
79.2063566492328448
 30
0.0
 11
3040.6224000896518191
 21
76.0613566492328346
 31
0.0
  0
ARC
  5
69F1
  8
0
 10
3040.9024000896820326
 20
76.0613566492633311
 30
0.0
 40
0.2800000000305105
 50
180.0000000062433969
 51
269.9999999971079205
  0
ARC
  5
69F2
  8
0
 10
3041.0524001012058761
 20
75.7663566607870109
 30
0.0
 40
0.0149999884458105
 50
359.9999558662365189
 51
90.0000000443197337
  0
LINE
  5
69F3
  8
0
 10
3041.0674000896519829
 20
75.7663566492328471
 30
0.0
 11
3041.0674000896519829
 21
75.6163566492328556
 31
0.0
  0
ARC
  5
69F4
  8
0
 10
3041.0523804377139641
 20
75.6163649114712939
 30
0.0
 40
0.0150196542106527
 50
270.0751508806180823
 51
359.9684818699810762
  0
ARC
  5
69F5
  8
0
 10
3040.4151500896678044
 20
82.1038566492328243
 30
0.0
 40
0.0049999999999981
 50
359.9999999999789111
 51
90.0000000000260485
  0
LINE
  5
69F6
  8
0
 10
3040.4201500896679136
 20
82.1038566492328243
 30
0.0
 11
3040.4201500896679136
 21
81.4188566492328221
 31
0.0
  0
ARC
  5
69F7
  8
0
 10
3040.4101605165142246
 20
81.4188523302348983
 30
0.0
 40
0.0099895740874011
 50
270.06085740543989
 51
0.0247718630144848
  0
LINE
  5
69F8
  8
0
 10
3039.7446290522439085
 20
81.4088627617825438
 30
0.0
 11
3040.410171127060039
 21
81.4088627617825438
 31
0.0
  0
LINE
  5
69F9
  8
0
 10
3039.7339000896349717
 20
82.1088566492328056
 30
0.0
 11
3040.4209000896680664
 21
82.1088566492328056
 31
0.0
  0
ARC
  5
69FA
  8
0
 10
3045.7405183083287739
 20
78.7083481217637768
 30
0.0
 40
0.0149907485933936
 50
270.0023342497964904
 51
314.1191520750771815
  0
ARC
  5
69FB
  8
0
 10
3048.4928032786360745
 20
75.9074485722902352
 30
0.0
 40
3.9118544779631832
 50
131.8347256030359063
 51
134.499878318057398
  0
ARC
  5
69FC
  8
0
 10
3045.9841493470657952
 20
78.4208481902305152
 30
0.0
 40
0.4201549368598224
 50
82.020737863503868
 51
99.4100165287119069
  0
ARC
  5
69FD
  8
0
 10
3045.9291597074070523
 20
78.7578686483837203
 30
0.0
 40
0.0786834628680458
 50
100.0309048971581944
 51
125.3299617311440954
  0
ARC
  5
69FE
  8
0
 10
3046.0297245926940377
 20
78.7401061490156735
 30
0.0
 40
0.0976648122343967
 50
58.572860696431043
 51
82.4996406252853944
  0
ARC
  5
69FF
  8
0
 10
3043.5573854808671967
 20
75.9935869329983689
 30
0.0
 40
3.791430627716986
 50
45.494822184151559
 51
48.2779719506918923
  0
ARC
  5
6A00
  8
0
 10
3046.2254162298718256
 20
78.7081053602745158
 30
0.0
 40
0.0147483446763886
 50
225.4985044848864959
 51
270.3989847873560279
  0
LINE
  5
6A01
  8
0
 10
3046.2255189305878957
 20
78.6933573731828346
 30
0.0
 11
3048.1530189306881766
 21
78.6933573731828346
 31
0.0
  0
ARC
  5
6A02
  8
0
 10
3048.153020166440001
 20
78.7033561373675639
 30
0.0
 40
0.0099987642610981
 50
269.9929187874985814
 51
0.0029331343962236
  0
LINE
  5
6A03
  8
0
 10
3048.1630189306879402
 20
78.7033566492328305
 30
0.0
 11
3048.1630189306879402
 21
79.2133566492328498
 31
0.0
  0
ARC
  5
6A04
  8
0
 10
3048.1530189306131433
 20
79.2133566492019554
 30
0.0
 40
0.0100000000745126
 50
0.0000001768539034
 51
89.999999571497753
  0
LINE
  5
6A05
  8
0
 10
3048.1530189306881766
 20
79.223356649276468
 30
0.0
 11
3045.023018930688977
 21
79.223356649276468
 31
0.0
  0
ARC
  5
6A06
  8
0
 10
3045.0230206367350547
 20
79.2133525304080308
 30
0.0
 40
0.010004119013916
 50
90.0097709066800036
 51
179.9764105880780107
  0
LINE
  5
6A07
  8
0
 10
3045.0130165185701117
 20
79.2133566492328498
 30
0.0
 11
3045.0130165185701117
 21
78.7033579926663833
 31
0.0
  0
ARC
  5
6A08
  8
0
 10
3045.0230207534741567
 20
78.7033616085744825
 30
0.0
 40
0.0100042355576979
 50
180.0207088564395121
 51
269.9895606264548178
  0
LINE
  5
6A09
  8
0
 10
3045.023018930688977
 20
78.6933573731828346
 30
0.0
 11
3045.7405189190571946
 21
78.6933573731828346
 31
0.0
  0
LINE
  5
6A0A
  8
0
 10
3046.2036180511918246
 20
78.7088032022006416
 30
0.0
 11
3046.2064707375179751
 21
78.0522658219222478
 31
0.0
  0
LINE
  5
6A0B
  8
0
 10
3046.2064707375179751
 20
78.0522658219222478
 30
0.0
 11
3045.7595671238677824
 21
78.0522658219116465
 31
0.0
  0
LINE
  5
6A0C
  8
0
 10
3045.7595671238677824
 20
78.0522658219116465
 30
0.0
 11
3045.7624318967459658
 21
78.7088192321137683
 31
0.0
  0
ARC
  5
6A0D
  8
0
 10
3046.4564683577018513
 20
78.0533566492667603
 30
0.0
 40
0.2500000000339231
 50
180.2500000053132965
 51
269.9999999967952249
  0
ARC
  5
6A0E
  8
0
 10
3045.5095695036739016
 20
78.053356649266675
 30
0.0
 40
0.250000000033848
 50
270.0000000032047751
 51
359.7499999922765141
  0
LINE
  5
6A0F
  8
0
 10
3045.4486313811880791
 20
77.8033566492328248
 30
0.0
 11
3046.5174064800880842
 21
77.8033566492328248
 31
0.0
  0
ARC
  5
6A10
  8
0
 10
3046.5174064800880842
 20
77.7933566492328339
 30
0.0
 40
0.0100000000000007
 50
1.000001350254053
 51
90.0
  0
LINE
  5
6A11
  8
0
 10
3046.5274049570361967
 20
77.7935311735328412
 30
0.0
 11
3046.5274049570880379
 21
77.723182125032821
 31
0.0
  0
ARC
  5
6A12
  8
0
 10
3046.5174064800530687
 20
77.7233566493183616
 30
0.0
 40
0.0100000000855242
 50
270.000014714620022
 51
358.9999993142881181
  0
ARC
  5
6A13
  8
0
 10
3045.4486313811521541
 20
77.7933566493216517
 30
0.0
 40
0.0099999999111891
 50
89.9999997918457666
 51
178.9999991497946894
  0
ARC
  5
6A14
  8
0
 10
3046.4458995334330211
 20
77.7583566500122458
 30
0.0
 40
1.0078806027443521
 50
178.0000001280652953
 51
181.9999999492291067
  0
ARC
  5
6A15
  8
0
 10
3045.4488090883501172
 20
77.7235374853017049
 30
0.0
 40
0.0101823868958343
 50
181.9999999492372069
 51
268.9999999630725256
  0
LINE
  5
6A16
  8
0
 10
3045.4380189306880311
 20
77.7133566492328214
 30
0.0
 11
3046.5280189306881766
 21
77.7133566492328214
 31
0.0
  0
LINE
  5
6A17
  8
0
 10
3046.5280189306881766
 20
77.7133566492328214
 30
0.0
 11
3046.5280189306881766
 21
76.073356649232835
 31
0.0
  0
ARC
  5
6A18
  8
0
 10
3046.518018502420091
 20
76.0733568254581485
 30
0.0
 40
0.01000042826959
 50
270.5369663133458857
 51
359.998990346602227
  0
LINE
  5
6A19
  8
0
 10
3046.5181122233630049
 20
76.0633568363601569
 30
0.0
 11
3045.4479217640878232
 21
76.0633568363601569
 31
0.0
  0
ARC
  5
6A1A
  8
0
 10
3045.4479213433369296
 20
76.0732597233493664
 30
0.0
 40
0.0099028869981634
 50
179.4392006370532044
 51
270.002434366403179
  0
LINE
  5
6A1B
  8
0
 10
3045.4380189306880311
 20
76.073356649232835
 30
0.0
 11
3045.4380189306880311
 21
77.7133566492328214
 31
0.0
  0
ARC
  5
6A1C
  8
0
 10
3045.4479220877801708
 20
76.0533565091945718
 30
0.0
 40
0.0100003271707983
 50
90.0018545549052931
 51
178.514733022944398
  0
ARC
  5
6A1D
  8
0
 10
3045.1585096362459808
 20
76.0608661876714791
 30
0.0
 40
0.2795095385931641
 50
270.0019052384138831
 51
358.5135820605974004
  0
LINE
  5
6A1E
  8
0
 10
3045.0077887966990602
 20
75.7813566492328334
 30
0.0
 11
3046.9580189309899652
 21
75.7813566492328334
 31
0.0
  0
ARC
  5
6A1F
  8
0
 10
3046.9580189309899652
 20
75.7663566495345435
 30
0.0
 40
0.0149999996983024
 50
359.9999988476005797
 51
90.0
  0
LINE
  5
6A20
  8
0
 10
3046.9730189306878856
 20
75.7663566492328471
 30
0.0
 11
3046.9730189276710917
 21
75.6163566492328414
 31
0.0
  0
ARC
  5
6A21
  8
0
 10
3046.9579994843061286
 20
75.6163647031135042
 30
0.0
 40
0.0150194455243102
 50
270.0741897201488086
 51
359.9692762697595185
  0
LINE
  5
6A22
  8
0
 10
3046.9580189323028208
 20
75.6013452701803601
 30
0.0
 11
3045.0077957294010957
 21
75.6013452701803601
 31
0.0
  0
ARC
  5
6A23
  8
0
 10
3045.0077985298498788
 20
75.6157930366031508
 30
0.0
 40
0.0144477666942107
 50
180.0958933253535861
 51
269.9888942043144766
  0
LINE
  5
6A24
  8
0
 10
3044.993350783391179
 20
75.6157688560481915
 30
0.0
 11
3044.993350783391179
 21
75.7669314954959532
 31
0.0
  0
ARC
  5
6A25
  8
0
 10
3045.0077917693288327
 20
75.766915654912566
 30
0.0
 40
0.0144409946262329
 50
90.0117941436926827
 51
179.9371512295614934
  0
ARC
  5
6A26
  8
0
 10
3046.5181126597972252
 20
76.0533565067561028
 30
0.0
 40
0.0100003296135628
 50
1.485276495448854
 51
90.0025004986604955
  0
ARC
  5
6A27
  8
0
 10
3046.8075158185338296
 20
76.0608566484843323
 30
0.0
 40
0.2794999992515112
 50
181.4845126967036038
 51
270.0000001507809202
  0
ENDSEC
  0
EOF
