  0
SECTION
  2
HEADER
  9
$ACADVER
  1
AC1009
  9
$INSBASE
 10
3886.6929529713361262
 20
212.478792618712788
 30
0.0
  9
$EXTMIN
 10
3879.9229652775370596
 20
212.4756427319128989
 30
-0.0015258207003583
  9
$EXTMAX
 10
3887.9316086589701627
 20
224.1918544485978089
 30
0.0000000349246037
  9
$LIMMIN
 10
0.0
 20
0.0
  9
$LIMMAX
 10
11.6929133858000007
 20
8.2677165353999982
  9
$ORTHOMODE
 70
     0
  9
$REGENMODE
 70
     1
  9
$FILLMODE
 70
     1
  9
$QTEXTMODE
 70
     0
  9
$MIRRTEXT
 70
     0
  9
$DRAGMODE
 70
     2
  9
$LTSCALE
 40
0.6431102362
  9
$OSMODE
 70
  4095
  9
$ATTMODE
 70
     1
  9
$TEXTSIZE
 40
0.2
  9
$TRACEWID
 40
0.05
  9
$TEXTSTYLE
  7
STANDARD
  9
$CLAYER
  8
0
  9
$CELTYPE
  6
BYLAYER
  9
$CECOLOR
 62
   256
  9
$DIMSCALE
 40
1.0
  9
$DIMASZ
 40
0.1875
  9
$DIMEXO
 40
0.0625
  9
$DIMDLI
 40
0.4443307087
  9
$DIMRND
 40
0.0
  9
$DIMDLE
 40
0.0
  9
$DIMEXE
 40
0.125
  9
$DIMTP
 40
0.01
  9
$DIMTM
 40
0.01
  9
$DIMTXT
 40
2.0
  9
$DIMCEN
 40
0.1052362205
  9
$DIMTSZ
 40
0.0
  9
$DIMTOL
 70
     1
  9
$DIMLIM
 70
     0
  9
$DIMTIH
 70
     1
  9
$DIMTOH
 70
     1
  9
$DIMSE1
 70
     0
  9
$DIMSE2
 70
     0
  9
$DIMTAD
 70
     0
  9
$DIMZIN
 70
     0
  9
$DIMBLK
  1

  9
$DIMASO
 70
     1
  9
$DIMSHO
 70
     1
  9
$DIMPOST
  1
\X
  9
$DIMAPOST
  1

  9
$DIMALT
 70
     1
  9
$DIMALTD
 70
     2
  9
$DIMALTF
 40
25.3999999999999986
  9
$DIMLFAC
 40
1.0
  9
$DIMTOFL
 70
     0
  9
$DIMTVP
 40
0.0
  9
$DIMTIX
 70
     0
  9
$DIMSOXD
 70
     0
  9
$DIMSAH
 70
     0
  9
$DIMBLK1
  1

  9
$DIMBLK2
  1

  9
$DIMSTYLE
  2
STANDARD
  9
$DIMCLRD
 70
     0
  9
$DIMCLRE
 70
     0
  9
$DIMCLRT
 70
     0
  9
$DIMTFAC
 40
1.0
  9
$DIMGAP
 40
0.09
  9
$LUNITS
 70
     2
  9
$LUPREC
 70
     4
  9
$SKETCHINC
 40
0.1
  9
$FILLETRAD
 40
0.0
  9
$AUNITS
 70
     0
  9
$AUPREC
 70
     0
  9
$MENU
  1
.
  9
$ELEVATION
 40
0.0
  9
$PELEVATION
 40
0.0
  9
$THICKNESS
 40
0.0
  9
$LIMCHECK
 70
     0
  9
$BLIPMODE
 70
     0
  9
$CHAMFERA
 40
0.0
  9
$CHAMFERB
 40
0.0
  9
$SKPOLY
 70
     0
  9
$TDCREATE
 40
2458060.468368056230247
  9
$TDUPDATE
 40
2459559.5679513891227543
  9
$TDINDWG
 40
0.6120672454
  9
$TDUSRTIMER
 40
0.6120672454
  9
$USRTIMER
 70
     1
  9
$ANGBASE
 50
0.0
  9
$ANGDIR
 70
     0
  9
$PDMODE
 70
     0
  9
$PDSIZE
 40
0.3125
  9
$PLINEWID
 40
0.0
  9
$COORDS
 70
     1
  9
$SPLFRAME
 70
     0
  9
$SPLINETYPE
 70
     6
  9
$SPLINESEGS
 70
     8
  9
$ATTDIA
 70
     1
  9
$ATTREQ
 70
     1
  9
$HANDLING
 70
     1
  9
$HANDSEED
  5
C193
  9
$SURFTAB1
 70
     6
  9
$SURFTAB2
 70
     6
  9
$SURFTYPE
 70
     6
  9
$SURFU
 70
     6
  9
$SURFV
 70
     6
  9
$UCSNAME
  2

  9
$UCSORG
 10
0.0
 20
0.0
 30
0.0
  9
$UCSXDIR
 10
1.0
 20
0.0
 30
0.0
  9
$UCSYDIR
 10
0.0
 20
1.0
 30
0.0
  9
$PUCSNAME
  2

  9
$PUCSORG
 10
0.0
 20
0.0
 30
0.0
  9
$PUCSXDIR
 10
1.0
 20
0.0
 30
0.0
  9
$PUCSYDIR
 10
0.0
 20
1.0
 30
0.0
  9
$USERI1
 70
     0
  9
$USERI2
 70
     0
  9
$USERI3
 70
     0
  9
$USERI4
 70
     0
  9
$USERI5
 70
     0
  9
$USERR1
 40
0.0
  9
$USERR2
 40
0.0
  9
$USERR3
 40
0.0
  9
$USERR4
 40
0.0
  9
$USERR5
 40
0.0
  9
$WORLDVIEW
 70
     1
  9
$SHADEDGE
 70
     3
  9
$SHADEDIF
 70
    70
  9
$TILEMODE
 70
     1
  9
$MAXACTVP
 70
    64
  9
$PLIMCHECK
 70
     0
  9
$PEXTMIN
 10
1.0000000000000000E+20
 20
1.0000000000000000E+20
 30
1.0000000000000000E+20
  9
$PEXTMAX
 10
-1.0000000000000000E+20
 20
-1.0000000000000000E+20
 30
-1.0000000000000000E+20
  9
$PLIMMIN
 10
0.0
 20
0.0
  9
$PLIMMAX
 10
12.0
 20
9.0
  9
$UNITMODE
 70
     0
  9
$VISRETAIN
 70
     1
  9
$PLINEGEN
 70
     0
  9
$PSLTSCALE
 70
     1
  0
ENDSEC
  0
SECTION
  2
TABLES
  0
TABLE
  2
VPORT
 70
     1
  0
VPORT
  2
*ACTIVE
 70
     0
 10
0.0
 20
0.0
 11
1.0
 21
1.0
 12
-2.7661944770588889
 22
-0.0975029356235382
 13
0.0
 23
0.0
 14
1.0
 24
1.0
 15
0.0
 25
0.0
 16
0.0
 26
0.0
 36
41.6816774532636174
 17
3886.6934814453129547
 27
218.4312515258789063
 37
0.0
 40
11.8023603322486803
 41
2.344785276073619
 42
50.0
 43
0.0
 44
0.0
 50
0.0
 51
0.0
 71
     0
 72
   100
 73
     1
 74
     1
 75
     0
 76
     0
 77
     0
 78
     0
  0
ENDTAB
  0
TABLE
  2
LTYPE
 70
     2
  0
LTYPE
  2
CONTINUOUS
 70
     0
  3
Solid line
 72
    65
 73
     0
 40
0.0
  0
LTYPE
  2
PHANTOM2
 70
     0
  3
___ _ _ ___ _ _ ___ _ _ ___ _ _
 72
    65
 73
     6
 40
1.25
 49
0.625
 49
-0.125
 49
0.125
 49
-0.125
 49
0.125
 49
-0.125
  0
ENDTAB
  0
TABLE
  2
LAYER
 70
     2
  0
LAYER
  2
0
 70
     0
 62
   255
  6
CONTINUOUS
  0
LAYER
  2
DEFPOINTS
 70
     0
 62
     7
  6
CONTINUOUS
  0
ENDTAB
  0
TABLE
  2
STYLE
 70
     1
  0
STYLE
  2
STANDARD
 70
     0
 40
0.0
 41
0.8
 50
0.0
 71
     0
 42
0.2
  3
txt
  4

  0
ENDTAB
  0
TABLE
  2
VIEW
 70
     0
  0
ENDTAB
  0
TABLE
  2
UCS
 70
     0
  0
ENDTAB
  0
TABLE
  2
APPID
 70
     9
  0
APPID
  2
ACAD
 70
     0
  0
APPID
  2
ACAD_MLEADERVER
 70
     0
  0
APPID
  2
ACAD_EXEMPT_FROM_CAD_STANDARDS
 70
     0
  0
APPID
  2
ACAD_NAV_VCDISPLAY
 70
     0
  0
APPID
  2
ACAECLAYERSTANDARD
 70
     0
  0
APPID
  2
ACCMTRANSPARENCY
 70
     0
  0
APPID
  2
ACAD_DSTYLE_DIMJAG
 70
     0
  0
APPID
  2
ACAD_DSTYLE_DIMTALN
 70
     0
  0
APPID
  2
ACDBATTR
 70
     0
  0
ENDTAB
  0
TABLE
  2
DIMSTYLE
 70
     1
  0
DIMSTYLE
  2
STANDARD
 70
     0
  3

  4

  5

  6

  7

 40
1.0
 41
0.1875
 42
0.0625
 43
0.38
 44
0.125
 45
0.0
 46
0.0
 47
0.01
 48
0.01
140
0.15625
141
0.09
142
0.0
143
25.3999999999999986
144
1.0
145
0.0
146
1.0
147
0.09
 71
     1
 72
     0
 73
     1
 74
     1
 75
     0
 76
     0
 77
     0
 78
     4
170
     0
171
     2
172
     0
173
     0
174
     0
175
     0
176
     0
177
     0
178
     0
  0
ENDTAB
  0
ENDSEC
  0
SECTION
  2
BLOCKS
  0
BLOCK
  8
0
  2
$MODEL_SPACE
 70
     0
 10
0.0
 20
0.0
 30
0.0
  3
$MODEL_SPACE
  1

  0
ENDBLK
  5
21
  8
0
  0
BLOCK
 67
     1
  8
0
  2
$PAPER_SPACE
 70
     0
 10
0.0
 20
0.0
 30
0.0
  3
$PAPER_SPACE
  1

  0
ENDBLK
  5
1D
 67
     1
  8
0
  0
BLOCK
  8
0
  2
_FILLED
 70
     0
 10
0.0
 20
0.0
 30
0.0
  3
_FILLED
  1

  0
SOLID
  5
BE6E
  8
0
  6
BYBLOCK
 62
     0
 10
0.0
 20
0.0
 30
0.0
 11
-1.0
 21
0.1666666667
 31
0.0
 12
-1.0
 22
-0.1666666667
 32
0.0
 13
-1.0
 23
-0.1666666667
 33
0.0
  0
ENDBLK
  5
BE6F
  8
0
  6
BYBLOCK
 62
     0
  0
ENDSEC
  0
SECTION
  2
ENTITIES
  0
ATTDEF
  5
3930
  8
DEFPOINTS
 10
3886.6938772325320315
 20
212.4828505473720952
 30
0.0
 40
0.001
  1
K-14404W-4A
  3

  2
MODELNUMBER
 70
     0
1001
ACDBATTR
1070
     0
1070
     1
  0
ATTDEF
  5
3931
  8
DEFPOINTS
 10
3886.6938772325320315
 20
212.4811838807054869
 30
0.0
 40
0.001
  1
PURIST
  3

  2
TRADENAME
 70
     0
1001
ACDBATTR
1070
     0
1070
     1
  0
ATTDEF
  5
3932
  8
DEFPOINTS
 10
3886.6938772325320315
 20
212.4795172140387933
 30
0.0
 40
0.001
  1
BATHROOM SINK FAUCET
  3

  2
PRODUCT
 70
     0
1001
ACDBATTR
1070
     0
1070
     1
  0
ARC
  5
BEBC
  8
0
 10
3885.8436440672448953
 20
222.6916055103230008
 30
0.0
 40
0.0336041825628347
 50
95.029064718294876
 51
178.2527253869710933
  0
LINE
  5
BEBD
  8
0
 10
3881.8417838595528337
 20
220.4337926546373865
 30
0.0
 11
3885.7829529713858392
 21
220.4337926546373865
 31
0.0
  0
LINE
  5
BEBE
  8
0
 10
3885.6029529713860029
 20
212.478792618712788
 30
0.0
 11
3887.7829529712848853
 21
212.478792618712788
 31
0.0
  0
LINE
  5
BEBF
  8
0
 10
3885.7829529713858392
 20
212.828792618712896
 30
0.0
 11
3885.7829529713858392
 21
219.6237926546374126
 31
0.0
  0
LINE
  5
BEC0
  8
0
 10
3885.7829529713858392
 20
220.4337926546373865
 30
0.0
 11
3885.7829529713858392
 21
221.8787926546374081
 31
0.0
  0
LINE
  5
BEC1
  8
0
 10
3885.5729529713858028
 20
212.5087926187133007
 30
0.0
 11
3885.5729529713858028
 21
212.618792618712888
 31
0.0
  0
LINE
  5
BEC2
  8
0
 10
3885.6029529713850934
 20
212.6487926187128892
 30
0.0
 11
3887.7829529712848853
 21
212.6487926187128892
 31
0.0
  0
ARC
  5
BEC3
  8
0
 10
3885.6029529713850934
 20
212.5087926187129028
 30
0.0
 40
0.0300000000000011
 50
180.0000000000015916
 51
270.0000000021365167
  0
ARC
  5
BEC4
  8
0
 10
3885.6029529713850934
 20
212.618792618712888
 30
0.0
 40
0.0300000000000003
 50
90.0
 51
180.0
  0
ARC
  5
BEC5
  8
0
 10
3885.6029529713850934
 20
212.828792618712896
 30
0.0
 40
0.1799999999999997
 50
270.0
 51
0.0
  0
LINE
  5
BEC6
  8
0
 10
3885.7829529713858392
 20
221.8787926546374081
 30
0.0
 11
3887.602952971285049
 21
221.8787926546374081
 31
0.0
  0
LINE
  5
BEC7
  8
0
 10
3885.8143389488977846
 20
221.9200122004475872
 30
0.0
 11
3886.6712697321859196
 21
221.920092144015598
 31
0.0
  0
ARC
  5
BEC8
  8
0
 10
3885.8143898740540862
 20
221.9497643516600078
 30
0.0
 40
0.0297521947953323
 50
177.5560240044181057
 51
269.9019299954480857
  0
LINE
  5
BEC9
  8
0
 10
3885.7846647419992223
 20
221.9510330594476102
 30
0.0
 11
3885.8100555092050854
 21
222.6926301343912087
 31
0.0
  0
LINE
  5
BECA
  8
0
 10
3885.8406982884362151
 20
222.7250803288129077
 30
0.0
 11
3887.5452076542342184
 21
222.7250803288129077
 31
0.0
  0
LINE
  5
BECB
  8
0
 10
3887.602952971285049
 20
212.828792618712896
 30
0.0
 11
3887.602952971285049
 21
221.8787926546374081
 31
0.0
  0
LINE
  5
BECC
  8
0
 10
3887.8129529712850854
 20
212.5087926187133007
 30
0.0
 11
3887.8129529712850854
 21
212.618792618712888
 31
0.0
  0
ARC
  5
BECD
  8
0
 10
3887.7829529712848853
 20
212.5087926187129028
 30
0.0
 40
0.0300000000000011
 50
269.9999999978634833
 51
359.9999999999984084
  0
ARC
  5
BECE
  8
0
 10
3887.7829529712848853
 20
212.618792618712888
 30
0.0
 40
0.0300000000000003
 50
0.0
 51
90.0
  0
ARC
  5
BECF
  8
0
 10
3887.7829529712848853
 20
212.828792618712896
 30
0.0
 40
0.1799999999999997
 50
180.0
 51
270.0
  0
LINE
  5
BED0
  8
0
 10
3887.5909923060207802
 20
222.2406451633250128
 30
0.0
 11
3887.5896403555680081
 21
222.3200586486115071
 31
0.0
  0
LINE
  5
BED1
  8
0
 10
3887.577079930785203
 20
222.680010804828413
 30
0.0
 11
3887.5765171915732026
 21
222.6961259333284033
 31
0.0
  0
ARC
  5
BED2
  8
0
 10
3887.5464853958778804
 20
222.6950566809755117
 30
0.0
 40
0.0300508245007171
 50
2.0390981774972761
 51
92.436914188637644
  0
LINE
  5
BED3
  8
0
 10
3881.8417838595569265
 20
219.6237926546374126
 30
0.0
 11
3885.7829529713858392
 21
219.6237926546374126
 31
0.0
  0
ARC
  5
BED4
  8
0
 10
3884.9868098318988814
 20
220.0287926546374138
 30
0.0
 40
0.8932350746317435
 50
333.0374460237559902
 51
26.9625539762424893
  0
ARC
  5
BED5
  8
0
 10
3881.8417838595569265
 20
218.6927926546121057
 30
0.0
 40
0.93100000002533
 50
90.0000000003908269
 51
144.9999999948917946
  0
LINE
  5
BED6
  8
0
 10
3881.0791533063520546
 20
219.2267923169374058
 30
0.0
 11
3880.9755037293448368
 21
219.07962910607759
 31
0.0
  0
LINE
  5
BED7
  8
0
 10
3880.9726061728288187
 20
219.0755151122440054
 30
0.0
 11
3880.7653254204510631
 21
218.7812148174373874
 31
0.0
  0
ARC
  5
BED8
  8
0
 10
3880.7561143076491135
 20
218.7889092005927978
 30
0.0
 40
0.0120020052993173
 50
274.8732553382753849
 51
320.1267445058034014
  0
ARC
  5
BED9
  8
0
 10
3880.7578949423450467
 20
218.7893642996210133
 30
0.0
 40
0.0124370243460217
 50
238.5082161521532953
 51
266.4917838478821182
  0
LINE
  5
BEDA
  8
0
 10
3880.7513981356878503
 20
218.7787590613945099
 30
0.0
 11
3880.1067395353520624
 21
219.2301538728374055
 31
0.0
  0
ARC
  5
BEDB
  8
0
 10
3880.112461267737217
 20
219.2383552313553992
 30
0.0
 40
0.0100000251519011
 50
145.0000597644674087
 51
235.0981887872887057
  0
LINE
  5
BEDC
  8
0
 10
3880.1042697207080892
 20
219.2440910016009923
 30
0.0
 11
3880.309854835114038
 21
219.5394236624578923
 31
0.0
  0
LINE
  5
BEDD
  8
0
 10
3880.3128022103910553
 20
219.5436577053060034
 30
0.0
 11
3880.4156401504510541
 21
219.6913892303373927
 31
0.0
  0
ARC
  5
BEDE
  8
0
 10
3881.8417838595528337
 20
218.6927926546306935
 30
0.0
 40
1.7410000000067121
 50
90.0000000000521254
 51
144.9999999993833057
  0
ARC
  5
BEDF
  8
0
 10
3880.314428171920099
 20
219.5334426396327956
 30
0.0
 40
0.0075291462716624
 50
64.0664634069335506
 51
127.4030200716612029
  0
ARC
  5
BEE0
  8
0
 10
3880.9646181985440307
 20
219.0774283170601109
 30
0.0
 40
0.0082138958985369
 50
346.5307809935505929
 51
43.4116500378200811
  0
LINE
  5
BEE1
  8
0
 10
3880.3128022103910553
 20
219.5436577053060034
 30
0.0
 11
3880.9755037293448368
 21
219.07962910607759
 31
0.0
  0
ARC
  5
BEE2
  8
0
 10
3886.6671701697869139
 20
222.0414424656966048
 30
0.0
 40
0.1214195494307225
 50
271.9348801346445157
 51
294.1885455858842988
  0
LINE
  5
BEE3
  8
0
 10
3886.7169206981861862
 20
221.9306833039626952
 30
0.0
 11
3887.3210028082858116
 21
222.1996368965127999
 31
0.0
  0
ARC
  5
BEE4
  8
0
 10
3887.3699271511009101
 20
222.0890350965441939
 30
0.0
 40
0.1209394454930189
 50
93.4894189754270286
 51
113.8620451288226008
  0
LINE
  5
BEE5
  8
0
 10
3887.3625662673857732
 20
222.2097503270128129
 30
0.0
 11
3887.5630370653780119
 21
222.2100121856128112
 31
0.0
  0
ARC
  5
BEE6
  8
0
 10
3887.5614990848071102
 20
222.2394880017382945
 30
0.0
 40
0.029515913004688
 50
272.9868539203371256
 51
2.246837863908993
  0
ARC
  5
BEE7
  8
0
 10
3887.5715993011849605
 20
222.3500108094283974
 30
0.0
 40
0.0200000000000281
 50
315.6986915840444112
 51
347.8033045480615897
  0
ARC
  5
BEE8
  8
0
 10
3886.8776253637302034
 20
222.5000113900534018
 30
0.0
 40
0.7300000000391184
 50
347.8033045480615897
 51
12.1965993124234497
  0
ARC
  5
BEE9
  8
0
 10
3887.5715995480168203
 20
222.6500108051729967
 30
0.0
 40
0.0200000049731873
 50
12.1965993124282299
 51
79.1055387826386323
  0
ARC
  5
BEEA
  8
0
 10
3888.4557803571469776
 20
222.5304775738804892
 30
0.0
 40
0.8913330614566591
 50
170.342185384568694
 51
193.6548316317046954
  0
ARC
  5
BEEB
  8
0
 10
3885.9179529713360353
 20
221.9287926187128051
 30
0.0
 40
0.0599999999999987
 50
303.5573097619139276
 51
351.5997751315622963
  0
ARC
  5
BEEC
  8
0
 10
3887.4679529713362172
 20
221.9287926187128051
 30
0.0
 40
0.0600000000000023
 50
180.0
 51
236.4426902380851914
  0
LINE
  5
BEED
  8
0
 10
3887.407952971335817
 20
221.9287926187128051
 30
0.0
 11
3887.407952971335817
 21
222.1887394239128923
 31
0.0
  0
LINE
  5
BEEE
  8
0
 10
3887.407952971335817
 20
222.1887394239128923
 30
0.0
 11
3887.3979238871361304
 21
222.1987692542128059
 31
0.0
  0
LINE
  5
BEEF
  8
0
 10
3887.3979238871361304
 20
222.1987692542128059
 30
0.0
 11
3887.3190540438667995
 21
222.1987692542128059
 31
0.0
  0
LINE
  5
BEF0
  8
0
 10
3887.407952971335817
 20
222.1887630254128965
 30
0.0
 11
3887.2965795948348386
 21
222.1887630254128965
 31
0.0
  0
ARC
  5
BEF1
  8
0
 10
3886.1187343756591872
 20
223.0613834088617011
 30
0.0
 40
0.3500000000542797
 50
286.0021385875029978
 51
359.0000015726288893
  0
LINE
  5
BEF2
  8
0
 10
3886.4686810691860046
 20
223.0552750762128085
 30
0.0
 11
3886.4726099569547841
 21
223.2803612598216034
 31
0.0
  0
ARC
  5
BEF3
  8
0
 10
3886.4926068837698949
 20
223.2800122127146949
 30
0.0
 40
0.0199999728981575
 50
89.9999059900583234
 51
179.0000015726305094
  0
LINE
  5
BEF4
  8
0
 10
3886.492606916585828
 20
223.3000121856127862
 30
0.0
 11
3886.8932990260859697
 21
223.3000121856127862
 31
0.0
  0
ARC
  5
BEF5
  8
0
 10
3886.8932990260859697
 20
223.2800121856128897
 30
0.0
 40
0.0199999999999923
 50
1.000074476479363
 51
90.0031403914307475
  0
ARC
  5
BEF6
  8
0
 10
-82702.7795954832981806
 20
-1288.2609390300260657
 30
0.0
 40
86602.884895021430566
 50
0.9999255385620311
 51
1.000074476479363
  0
ARC
  5
BEF7
  8
0
 10
3887.267170959329178
 20
223.0613829432327009
 30
0.0
 40
0.3499993843109834
 50
180.9999255385619961
 51
253.9180155514171133
  0
ARC
  5
BEF8
  8
0
 10
3886.492966918016009
 20
223.320022897179598
 30
0.0
 40
0.0200139495961385
 50
180.0306649915648904
 51
268.9693351182763763
  0
LINE
  5
BEF9
  8
0
 10
3886.4729529712858493
 20
223.3200121856127964
 30
0.0
 11
3886.4729385330410878
 21
223.3400121804012883
 31
0.0
  0
ARC
  5
BEFA
  8
0
 10
3886.0676462004371388
 20
223.3397197062006967
 30
0.0
 40
0.4052924381345285
 50
0.0413467836753573
 51
89.9566321131612199
  0
LINE
  5
BEFB
  8
0
 10
3886.067952971286104
 20
223.745012028235891
 30
0.0
 11
3883.4529537216881181
 21
223.745012028235891
 31
0.0
  0
ARC
  5
BEFC
  8
0
 10
3883.452953240025181
 20
223.7550122969639119
 30
0.0
 40
0.0100002687395779
 50
180.0006379770973126
 51
270.0027596503067002
  0
LINE
  5
BEFD
  8
0
 10
3883.442952971286104
 20
223.7550121856127987
 30
0.0
 11
3883.4429529683147848
 21
224.1750100566127912
 31
0.0
  0
ARC
  5
BEFE
  8
0
 10
3883.4529553662041508
 20
224.175009945387302
 30
0.0
 40
0.0100023978892096
 50
90.0137185793721954
 51
179.9993628775019943
  0
LINE
  5
BEFF
  8
0
 10
3883.4529529712858675
 20
224.1850123429898076
 30
0.0
 11
3886.0679529122030544
 21
224.1850123429898076
 31
0.0
  0
ARC
  5
BF00
  8
0
 10
3886.0690795261712083
 20
223.3411388977442016
 30
0.0
 40
0.8438741972886949
 50
359.923500600865907
 51
90.0764927342113282
  0
LINE
  5
BF01
  8
0
 10
3886.9129529712859039
 20
223.3400121856128067
 30
0.0
 11
3886.9129355686518466
 21
223.3200121931841977
 31
0.0
  0
ARC
  5
BF02
  8
0
 10
3886.892897025782986
 20
223.3200296293620113
 30
0.0
 40
0.0200385504541364
 50
272.3431075062312061
 51
359.9501451200579254
  0
ENDSEC
  0
EOF
