  0
SECTION
  2
HEADER
  9
$ACADVER
  1
AC1009
  9
$INSBASE
 10
3897.2217629688329907
 20
213.8399226471734949
 30
0.0
  9
$EXTMIN
 10
3890.6313712400819895
 20
213.8351108014597912
 30
0.0
  9
$EXTMAX
 10
3898.3417629687819499
 20
225.7340045690991985
 30
0.0
  9
$LIMMIN
 10
0.0
 20
0.0
  9
$LIMMAX
 10
11.6929133858000007
 20
8.2677165353999982
  9
$ORTHOMODE
 70
     0
  9
$REGENMODE
 70
     1
  9
$FILLMODE
 70
     1
  9
$QTEXTMODE
 70
     0
  9
$MIRRTEXT
 70
     0
  9
$DRAGMODE
 70
     2
  9
$LTSCALE
 40
0.6431102362
  9
$OSMODE
 70
  3839
  9
$ATTMODE
 70
     1
  9
$TEXTSIZE
 40
0.2
  9
$TRACEWID
 40
0.05
  9
$TEXTSTYLE
  7
STANDARD
  9
$CLAYER
  8
0
  9
$CELTYPE
  6
BYLAYER
  9
$CECOLOR
 62
   256
  9
$DIMSCALE
 40
1.0
  9
$DIMASZ
 40
0.1875
  9
$DIMEXO
 40
0.0625
  9
$DIMDLI
 40
0.4443307087
  9
$DIMRND
 40
0.0
  9
$DIMDLE
 40
0.0
  9
$DIMEXE
 40
0.125
  9
$DIMTP
 40
0.01
  9
$DIMTM
 40
0.01
  9
$DIMTXT
 40
2.0
  9
$DIMCEN
 40
0.1052362205
  9
$DIMTSZ
 40
0.0
  9
$DIMTOL
 70
     1
  9
$DIMLIM
 70
     0
  9
$DIMTIH
 70
     1
  9
$DIMTOH
 70
     1
  9
$DIMSE1
 70
     0
  9
$DIMSE2
 70
     0
  9
$DIMTAD
 70
     0
  9
$DIMZIN
 70
     0
  9
$DIMBLK
  1

  9
$DIMASO
 70
     1
  9
$DIMSHO
 70
     1
  9
$DIMPOST
  1
\X
  9
$DIMAPOST
  1

  9
$DIMALT
 70
     1
  9
$DIMALTD
 70
     2
  9
$DIMALTF
 40
25.3999999999999986
  9
$DIMLFAC
 40
1.0
  9
$DIMTOFL
 70
     0
  9
$DIMTVP
 40
0.0
  9
$DIMTIX
 70
     0
  9
$DIMSOXD
 70
     0
  9
$DIMSAH
 70
     0
  9
$DIMBLK1
  1

  9
$DIMBLK2
  1

  9
$DIMSTYLE
  2
STANDARD
  9
$DIMCLRD
 70
     0
  9
$DIMCLRE
 70
     0
  9
$DIMCLRT
 70
     0
  9
$DIMTFAC
 40
1.0
  9
$DIMGAP
 40
0.09
  9
$LUNITS
 70
     2
  9
$LUPREC
 70
     4
  9
$SKETCHINC
 40
0.1
  9
$FILLETRAD
 40
0.0
  9
$AUNITS
 70
     0
  9
$AUPREC
 70
     0
  9
$MENU
  1
.
  9
$ELEVATION
 40
0.0
  9
$PELEVATION
 40
0.0
  9
$THICKNESS
 40
0.0
  9
$LIMCHECK
 70
     0
  9
$BLIPMODE
 70
     0
  9
$CHAMFERA
 40
0.0
  9
$CHAMFERB
 40
0.0
  9
$SKPOLY
 70
     0
  9
$TDCREATE
 40
2458060.468368056230247
  9
$TDUPDATE
 40
2459022.6821180558763444
  9
$TDINDWG
 40
0.6095209491
  9
$TDUSRTIMER
 40
0.6095209491
  9
$USRTIMER
 70
     1
  9
$ANGBASE
 50
0.0
  9
$ANGDIR
 70
     0
  9
$PDMODE
 70
     0
  9
$PDSIZE
 40
0.3125
  9
$PLINEWID
 40
0.0
  9
$COORDS
 70
     1
  9
$SPLFRAME
 70
     0
  9
$SPLINETYPE
 70
     6
  9
$SPLINESEGS
 70
     8
  9
$ATTDIA
 70
     1
  9
$ATTREQ
 70
     1
  9
$HANDLING
 70
     1
  9
$HANDSEED
  5
B1F4
  9
$SURFTAB1
 70
     6
  9
$SURFTAB2
 70
     6
  9
$SURFTYPE
 70
     6
  9
$SURFU
 70
     6
  9
$SURFV
 70
     6
  9
$UCSNAME
  2

  9
$UCSORG
 10
0.0
 20
0.0
 30
0.0
  9
$UCSXDIR
 10
1.0
 20
0.0
 30
0.0
  9
$UCSYDIR
 10
0.0
 20
1.0
 30
0.0
  9
$PUCSNAME
  2

  9
$PUCSORG
 10
0.0
 20
0.0
 30
0.0
  9
$PUCSXDIR
 10
1.0
 20
0.0
 30
0.0
  9
$PUCSYDIR
 10
0.0
 20
1.0
 30
0.0
  9
$USERI1
 70
     0
  9
$USERI2
 70
     0
  9
$USERI3
 70
     0
  9
$USERI4
 70
     0
  9
$USERI5
 70
     0
  9
$USERR1
 40
0.0
  9
$USERR2
 40
0.0
  9
$USERR3
 40
0.0
  9
$USERR4
 40
0.0
  9
$USERR5
 40
0.0
  9
$WORLDVIEW
 70
     1
  9
$SHADEDGE
 70
     3
  9
$SHADEDIF
 70
    70
  9
$TILEMODE
 70
     1
  9
$MAXACTVP
 70
    64
  9
$PLIMCHECK
 70
     0
  9
$PEXTMIN
 10
1.0000000000000000E+20
 20
1.0000000000000000E+20
 30
1.0000000000000000E+20
  9
$PEXTMAX
 10
-1.0000000000000000E+20
 20
-1.0000000000000000E+20
 30
-1.0000000000000000E+20
  9
$PLIMMIN
 10
0.0
 20
0.0
  9
$PLIMMAX
 10
12.0
 20
9.0
  9
$UNITMODE
 70
     0
  9
$VISRETAIN
 70
     1
  9
$PLINEGEN
 70
     0
  9
$PSLTSCALE
 70
     1
  0
ENDSEC
  0
SECTION
  2
TABLES
  0
TABLE
  2
VPORT
 70
     1
  0
VPORT
  2
*ACTIVE
 70
     0
 10
0.0
 20
0.0
 11
1.0
 21
1.0
 12
6.585849008258573
 22
0.0
 13
0.0
 23
0.0
 14
1.0
 24
1.0
 15
0.0
 25
0.0
 16
0.0
 26
0.0
 36
48.8294026054441375
 17
3894.4865722656259095
 27
219.7845597952610888
 37
0.0
 40
18.2720915829804298
 41
2.3528591352859132
 42
50.0
 43
0.0
 44
0.0
 50
0.0
 51
0.0
 71
     0
 72
   100
 73
     1
 74
     1
 75
     0
 76
     0
 77
     0
 78
     0
  0
ENDTAB
  0
TABLE
  2
LTYPE
 70
     2
  0
LTYPE
  2
CONTINUOUS
 70
     0
  3
Solid line
 72
    65
 73
     0
 40
0.0
  0
LTYPE
  2
PHANTOM2
 70
     0
  3
___ _ _ ___ _ _ ___ _ _ ___ _ _
 72
    65
 73
     6
 40
1.25
 49
0.625
 49
-0.125
 49
0.125
 49
-0.125
 49
0.125
 49
-0.125
  0
ENDTAB
  0
TABLE
  2
LAYER
 70
     2
  0
LAYER
  2
0
 70
     0
 62
   255
  6
CONTINUOUS
  0
LAYER
  2
DEFPOINTS
 70
     0
 62
     7
  6
CONTINUOUS
  0
ENDTAB
  0
TABLE
  2
STYLE
 70
     1
  0
STYLE
  2
STANDARD
 70
     0
 40
0.0
 41
0.8
 50
0.0
 71
     0
 42
0.2
  3
txt
  4

  0
ENDTAB
  0
TABLE
  2
VIEW
 70
     0
  0
ENDTAB
  0
TABLE
  2
UCS
 70
     0
  0
ENDTAB
  0
TABLE
  2
APPID
 70
     9
  0
APPID
  2
ACAD
 70
     0
  0
APPID
  2
ACAD_MLEADERVER
 70
     0
  0
APPID
  2
ACAD_EXEMPT_FROM_CAD_STANDARDS
 70
     0
  0
APPID
  2
ACAD_NAV_VCDISPLAY
 70
     0
  0
APPID
  2
ACAECLAYERSTANDARD
 70
     0
  0
APPID
  2
ACCMTRANSPARENCY
 70
     0
  0
APPID
  2
ACAD_DSTYLE_DIMJAG
 70
     0
  0
APPID
  2
ACAD_DSTYLE_DIMTALN
 70
     0
  0
APPID
  2
ACDBATTR
 70
     0
  0
ENDTAB
  0
TABLE
  2
DIMSTYLE
 70
     1
  0
DIMSTYLE
  2
STANDARD
 70
     0
  3

  4

  5

  6

  7

 40
1.0
 41
0.1875
 42
0.0625
 43
0.38
 44
0.125
 45
0.0
 46
0.0
 47
0.01
 48
0.01
140
0.15625
141
0.09
142
0.0
143
25.3999999999999986
144
1.0
145
0.0
146
1.0
147
0.09
 71
     1
 72
     0
 73
     1
 74
     1
 75
     0
 76
     0
 77
     0
 78
     4
170
     0
171
     2
172
     0
173
     0
174
     0
175
     0
176
     0
177
     0
178
     0
  0
ENDTAB
  0
ENDSEC
  0
SECTION
  2
BLOCKS
  0
BLOCK
  8
0
  2
$MODEL_SPACE
 70
     0
 10
0.0
 20
0.0
 30
0.0
  3
$MODEL_SPACE
  1

  0
ENDBLK
  5
21
  8
0
  0
BLOCK
 67
     1
  8
0
  2
$PAPER_SPACE
 70
     0
 10
0.0
 20
0.0
 30
0.0
  3
$PAPER_SPACE
  1

  0
ENDBLK
  5
1D
 67
     1
  8
0
  0
BLOCK
  8
0
  2
_FILLED
 70
     0
 10
0.0
 20
0.0
 30
0.0
  3
_FILLED
  1

  0
SOLID
  5
6F59
  8
0
  6
BYBLOCK
 62
     0
 10
0.0
 20
0.0
 30
0.0
 11
-1.0
 21
0.1666666667
 31
0.0
 12
-1.0
 22
-0.1666666667
 32
0.0
 13
-1.0
 23
-0.1666666667
 33
0.0
  0
ENDBLK
  5
6F5A
  8
0
  6
BYBLOCK
 62
     0
  0
BLOCK
  8
0
  2
_CLOSED
 70
     0
 10
0.0
 20
0.0
 30
0.0
  3
_CLOSED
  1

  0
LINE
  5
9506
  8
0
  6
BYBLOCK
 62
     0
 10
0.0
 20
0.0
 30
0.0
 11
-1.0
 21
0.1666666667
 31
0.0
  0
LINE
  5
9507
  8
0
  6
BYBLOCK
 62
     0
 10
-1.0
 20
0.1666666667
 30
0.0
 11
-1.0
 21
-0.1666666667
 31
0.0
  0
LINE
  5
9508
  8
0
  6
BYBLOCK
 62
     0
 10
-1.0
 20
-0.1666666667
 30
0.0
 11
0.0
 21
0.0
 31
0.0
  0
LINE
  5
9509
  8
0
  6
BYBLOCK
 62
     0
 10
-1.0
 20
0.0
 30
0.0
 11
0.0
 21
0.0
 31
0.0
  0
ENDBLK
  5
950A
  8
0
  6
BYBLOCK
 62
     0
  0
ENDSEC
  0
SECTION
  2
ENTITIES
  0
ATTDEF
  5
3930
  8
DEFPOINTS
 10
3897.2109626058390859
 20
213.8384441347930931
 30
0.0
 40
0.001
  1
K-14404T-4
  3

  2
MODELNUMBER
 70
     0
1001
ACDBATTR
1070
     0
1070
     1
  0
ATTDEF
  5
3931
  8
DEFPOINTS
 10
3897.2109626058390859
 20
213.8367774681265132
 30
0.0
 40
0.001
  1
PURIST
  3

  2
TRADENAME
 70
     0
1001
ACDBATTR
1070
     0
1070
     1
  0
ATTDEF
  5
3932
  8
DEFPOINTS
 10
3897.2109626058390859
 20
213.8351108014597912
 30
0.0
 40
0.001
  1
BATHROOM SINK FAUCET
  3

  2
PRODUCT
 70
     0
1001
ACDBATTR
1070
     0
1070
     1
  0
ARC
  5
AF9A
  8
0
 10
3896.3695139582728189
 20
224.0362116606985978
 30
0.0
 40
0.0300001145201206
 50
90.0108333305278165
 51
177.999745684456002
  0
ARC
  5
AF9B
  8
0
 10
3896.3029689550871808
 20
223.8827390252629925
 30
0.0
 40
0.0841669980301637
 50
358.7193086081579736
 51
32.6418762745431721
  0
ARC
  5
AF9C
  8
0
 10
3896.2891800644670184
 20
223.8871521584925119
 30
0.0
 40
0.0981369233741846
 50
327.2440760994057882
 51
356.3226420157276948
  0
ARC
  5
AF9D
  8
0
 10
3896.3698145897838003
 20
223.8803508957537076
 30
0.0
 40
0.0463356876949048
 50
178.7108328934438077
 51
272.3463243571761723
  0
ARC
  5
AF9E
  8
0
 10
3896.3753042053599529
 20
223.8760719500874075
 30
0.0
 40
0.052086121488113
 50
91.6081357047846438
 51
174.1360992521389903
  0
LINE
  5
AF9F
  8
0
 10
3892.370693857048991
 20
221.7949226830980933
 30
0.0
 11
3896.3117629688817942
 21
221.7949226830980933
 31
0.0
  0
LINE
  5
AFA0
  8
0
 10
3896.1317629688828674
 20
213.8399226471734949
 30
0.0
 11
3898.3117629687808403
 21
213.8399226471734949
 31
0.0
  0
LINE
  5
AFA1
  8
0
 10
3896.3117629688817942
 20
214.1899226471734892
 30
0.0
 11
3896.3117629688817942
 21
220.9849226830980058
 31
0.0
  0
LINE
  5
AFA2
  8
0
 10
3896.3117629688817942
 20
221.7949226830980933
 30
0.0
 11
3896.3117629688817942
 21
223.2399226830980012
 31
0.0
  0
LINE
  5
AFA3
  8
0
 10
3896.1017629688808483
 20
213.8699226471738939
 30
0.0
 11
3896.1017629688808483
 21
213.9799226471735096
 31
0.0
  0
LINE
  5
AFA4
  8
0
 10
3896.1317629688810484
 20
214.0099226471735108
 30
0.0
 11
3898.3117629687808403
 21
214.0099226471735108
 31
0.0
  0
ARC
  5
AFA5
  8
0
 10
3896.1317629688810484
 20
213.869922647173496
 30
0.0
 40
0.0300000000000011
 50
180.0000000000015916
 51
270.0000000021365167
  0
ARC
  5
AFA6
  8
0
 10
3896.1317629688810484
 20
213.9799226471735096
 30
0.0
 40
0.0300000000000003
 50
90.0
 51
180.0
  0
ARC
  5
AFA7
  8
0
 10
3896.1317629688810484
 20
214.1899226471734892
 30
0.0
 40
0.1799999999999997
 50
270.0
 51
0.0
  0
LINE
  5
AFA8
  8
0
 10
3896.3117629688817942
 20
223.2399226830980012
 30
0.0
 11
3898.1317629687819135
 21
223.2399226830980012
 31
0.0
  0
LINE
  5
AFA9
  8
0
 10
3896.3432435145809904
 20
223.2611430111981008
 30
0.0
 11
3897.1973207749119865
 21
223.2611430111981008
 31
0.0
  0
ARC
  5
AFAA
  8
0
 10
3896.3432944397359279
 20
223.2908951624104077
 30
0.0
 40
0.0297521947953323
 50
177.5560240044181057
 51
269.9019299954480857
  0
LINE
  5
AFAB
  8
0
 10
3896.3135693076819734
 20
223.29216387019801
 30
0.0
 11
3896.3330805811219761
 21
223.8521089312002914
 31
0.0
  0
LINE
  5
AFAC
  8
0
 10
3896.3350681036449714
 20
223.9091479258177912
 30
0.0
 11
3896.3395321236589552
 21
224.0372587826751101
 31
0.0
  0
LINE
  5
AFAD
  8
0
 10
3896.3695082859321701
 20
224.0662117746825004
 30
0.0
 11
3898.0740176517301734
 21
224.0662117746825004
 31
0.0
  0
LINE
  5
AFAE
  8
0
 10
3897.0215537303629389
 20
224.641144608998502
 30
0.0
 11
3897.4228122290819556
 21
224.641144608998502
 31
0.0
  0
LINE
  5
AFAF
  8
0
 10
3897.0020870174821539
 20
224.6214922038979864
 30
0.0
 11
3896.9981579542868531
 21
224.3964060396394871
 31
0.0
  0
ARC
  5
AFB0
  8
0
 10
3896.6482112655808123
 20
224.4025146453980994
 30
0.0
 40
0.3500000000000004
 50
286.0024471922085922
 51
358.9999568569991766
  0
ARC
  5
AFB1
  8
0
 10
3897.0215466633799224
 20
224.6216840190386961
 30
0.0
 40
0.0194605912429415
 50
89.9791934199164984
 51
180.5647503631012114
  0
ARC
  5
AFB2
  8
0
 10
3897.022462347948931
 20
224.661156368939487
 30
0.0
 40
0.0200323768398152
 50
180.2563393515694941
 51
267.4003174815886155
  0
LINE
  5
AFB3
  8
0
 10
3898.1317629687819135
 20
214.1899226471734892
 30
0.0
 11
3898.1317629687819135
 21
223.2399226830980012
 31
0.0
  0
LINE
  5
AFB4
  8
0
 10
3898.3417629687819499
 20
213.8699226471738939
 30
0.0
 11
3898.3417629687819499
 21
213.9799226471735096
 31
0.0
  0
ARC
  5
AFB5
  8
0
 10
3898.3117629687808403
 20
213.869922647173496
 30
0.0
 40
0.0300000000000011
 50
269.9999999978634833
 51
359.9999999999984084
  0
ARC
  5
AFB6
  8
0
 10
3898.3117629687808403
 20
213.9799226471735096
 30
0.0
 40
0.0300000000000003
 50
0.0
 51
90.0
  0
ARC
  5
AFB7
  8
0
 10
3898.3117629687808403
 20
214.1899226471734892
 30
0.0
 40
0.1799999999999997
 50
180.0
 51
270.0
  0
LINE
  5
AFB8
  8
0
 10
3898.1212288189822175
 20
223.58156827969799
 30
0.0
 11
3898.1184503530639631
 21
223.6611900944812135
 31
0.0
  0
LINE
  5
AFB9
  8
0
 10
3898.1058899282811581
 20
224.0211422506980057
 30
0.0
 11
3898.1053271890691576
 21
224.037257379197996
 31
0.0
  0
ARC
  5
AFBA
  8
0
 10
3898.0752953933751996
 20
224.0361881268451043
 30
0.0
 40
0.0300508245007171
 50
2.0390981774972761
 51
92.436914188637715
  0
LINE
  5
AFBB
  8
0
 10
3897.442773223623135
 20
224.6214918795895983
 30
0.0
 11
3897.4453679833759452
 21
224.3964060396394871
 31
0.0
  0
ARC
  5
AFBC
  8
0
 10
3897.7953146720819859
 20
224.4025146453980994
 30
0.0
 40
0.3500000000000004
 50
181.0000431429992034
 51
253.9975528077914078
  0
ARC
  5
AFBD
  8
0
 10
3897.4227730437569335
 20
224.6211413968227077
 30
0.0
 40
0.0200032505568736
 50
1.0039473780802071
 51
89.8877604826782033
  0
ARC
  5
AFBE
  8
0
 10
3897.4224270432450794
 20
224.6611441054243983
 30
0.0
 40
0.0200032053786066
 50
271.1033675104970939
 51
359.9962773465783243
  0
LINE
  5
AFBF
  8
0
 10
3892.3706938570539933
 20
220.9849226830980058
 30
0.0
 11
3896.3117629688817942
 21
220.9849226830980058
 31
0.0
  0
ARC
  5
AFC0
  8
0
 10
3895.5156198293939269
 20
221.3899226830980069
 30
0.0
 40
0.8932350746317435
 50
333.0374460237503058
 51
26.9625539762482909
  0
ARC
  5
AFC1
  8
0
 10
3892.3706938570539933
 20
220.0539226830726989
 30
0.0
 40
0.93100000002533
 50
90.0000000003908269
 51
144.9999999948917946
  0
LINE
  5
AFC2
  8
0
 10
3891.6080633038482119
 20
220.5879223453981126
 30
0.0
 11
3891.5044137268419036
 21
220.4407591345382116
 31
0.0
  0
LINE
  5
AFC3
  8
0
 10
3891.501516170324976
 20
220.4366451407045986
 30
0.0
 11
3891.2942354179472204
 21
220.142344845898009
 31
0.0
  0
ARC
  5
AFC4
  8
0
 10
3891.2850243051439065
 20
220.150039229053391
 30
0.0
 40
0.0120020052993173
 50
274.8732553382753849
 51
320.1267445058034014
  0
ARC
  5
AFC5
  8
0
 10
3891.286804939841204
 20
220.1504943280816065
 30
0.0
 40
0.0124370243460217
 50
238.5082161521517037
 51
266.4917838478821182
  0
LINE
  5
AFC6
  8
0
 10
3891.2803081331840076
 20
220.1398890898551883
 30
0.0
 11
3890.6356495328482197
 21
220.5912839012979987
 31
0.0
  0
ARC
  5
AFC7
  8
0
 10
3890.641371265233829
 20
220.5994852598159923
 30
0.0
 40
0.0100000251519011
 50
145.0000597644701088
 51
235.0981887872850109
  0
LINE
  5
AFC8
  8
0
 10
3890.6331797182037917
 20
220.6052210300616139
 30
0.0
 11
3890.8387648326101953
 21
220.9005536909185992
 31
0.0
  0
LINE
  5
AFC9
  8
0
 10
3890.8417122078881221
 20
220.9047877337665966
 30
0.0
 11
3890.9445501479481209
 21
221.0525192587979859
 31
0.0
  0
ARC
  5
AFCA
  8
0
 10
3892.370693857048991
 20
220.0539226830914004
 30
0.0
 40
1.7410000000067121
 50
90.0000000000521254
 51
144.9999999993767119
  0
ARC
  5
AFCB
  8
0
 10
3890.8433381694171658
 20
220.8945726680933888
 30
0.0
 40
0.0075291462716624
 50
64.0664634069335506
 51
127.4030200716651962
  0
ARC
  5
AFCC
  8
0
 10
3891.4935281960410975
 20
220.4385583455207041
 30
0.0
 40
0.0082138958985369
 50
346.5307809935505929
 51
43.4116500378165284
  0
LINE
  5
AFCD
  8
0
 10
3890.8417122078881221
 20
220.9047877337665966
 30
0.0
 11
3891.5044137268419036
 21
220.4407591345382116
 31
0.0
  0
ARC
  5
AFCE
  8
0
 10
3896.4467629688820125
 20
223.2899226830980126
 30
0.0
 40
0.0599999999999955
 50
303.4872822177920284
 51
331.3144068752915246
  0
ARC
  5
AFCF
  8
0
 10
3897.9967629688821944
 20
223.2899226830980126
 30
0.0
 40
0.0600000000000046
 50
180.0
 51
236.5127177822035094
  0
LINE
  5
AFD0
  8
0
 10
3897.9367629688817942
 20
223.2899226830980126
 30
0.0
 11
3897.9367629688817942
 21
223.5498930898980063
 31
0.0
  0
LINE
  5
AFD1
  8
0
 10
3897.9367629688817942
 20
223.5498930898980063
 30
0.0
 11
3897.9354905313812196
 21
223.5511420204979913
 31
0.0
  0
LINE
  5
AFD2
  8
0
 10
3897.9367629688817942
 20
223.5498930898980063
 30
0.0
 11
3897.882019768491773
 21
223.5498930898980063
 31
0.0
  0
ARC
  5
AFD3
  8
0
 10
3897.1969223886890177
 20
223.3811423650462018
 30
0.0
 40
0.1200000151481857
 50
270.1902157350506855
 51
293.9999496487720876
  0
LINE
  5
AFD4
  8
0
 10
3897.245730695680777
 20
223.2715168533979977
 30
0.0
 11
3897.8504784471037965
 21
223.5407672629100944
 31
0.0
  0
ARC
  5
AFD5
  8
0
 10
3897.8992879123461535
 20
223.4311391497851957
 30
0.0
 40
0.1200028628178535
 50
90.0005221472795114
 51
113.9999496487721018
  0
LINE
  5
AFD6
  8
0
 10
3897.8992868187369822
 20
223.5511420125980919
 30
0.0
 11
3898.0918470628739669
 21
223.5511437674360025
 31
0.0
  0
ARC
  5
AFD7
  8
0
 10
3898.0918467949468322
 20
223.5805436517673002
 30
0.0
 40
0.0293998843324759
 50
270.0005221472795256
 51
1.9972441483352921
  0
ARC
  5
AFD8
  8
0
 10
3898.1004092986809155
 20
223.6911422552981037
 30
0.0
 40
0.0200000000000281
 50
315.6986915840489019
 51
347.8033045480615897
  0
ARC
  5
AFD9
  8
0
 10
3897.4064353612261584
 20
223.8411428359229944
 30
0.0
 40
0.7300000000391184
 50
347.8033045480615897
 51
12.1965993124202701
  0
ARC
  5
AFDA
  8
0
 10
3898.1004095455127754
 20
223.991142251042703
 30
0.0
 40
0.0200000049731873
 50
12.1965993124250396
 51
79.1055387826383196
  0
ARC
  5
AFDB
  8
0
 10
3898.9845903546429327
 20
223.8716090197501956
 30
0.0
 40
0.8913330614566591
 50
170.3421853845719056
 51
193.6548316317015122
  0
ARC
  5
AFDC
  8
0
 10
3894.9124564139478935
 20
225.823901045588201
 30
0.0
 40
0.2978146163344064
 50
197.5689812997518118
 51
268.8643545108590729
  0
LINE
  5
AFDD
  8
0
 10
3894.9065538905178983
 20
225.5261449273980929
 30
0.0
 11
3896.5970981634482087
 21
225.5261435129764891
 31
0.0
  0
ARC
  5
AFDE
  8
0
 10
3896.5972693983330828
 20
224.6807551538942107
 30
0.0
 40
0.84538837642417
 50
358.6706635353478987
 51
90.0116053597655537
  0
LINE
  5
AFDF
  8
0
 10
3894.906553522384911
 20
225.0861449273980952
 30
0.0
 11
3896.5970977953138572
 21
225.0861435129764914
 31
0.0
  0
ARC
  5
AFE0
  8
0
 10
3894.9059728579541115
 20
225.8053892876409918
 30
0.0
 40
0.7192445946354037
 50
195.2381285974452965
 51
270.046256343258392
  0
ARC
  5
AFE1
  8
0
 10
3894.2216560779079373
 20
225.6189838824087985
 30
0.0
 40
0.0099939860525821
 50
104.4491729926500057
 51
195.2848438519729939
  0
LINE
  5
AFE2
  8
0
 10
3894.219162367881836
 20
225.6286617523981022
 30
0.0
 11
3894.6285335913048584
 21
225.7340045690991985
 31
0.0
  0
ARC
  5
AFE3
  8
0
 10
3896.5970869312450304
 20
224.6803422236075107
 30
0.0
 40
0.4058012895143974
 50
357.2774377086755067
 51
89.9984660833989238
  0
ENDSEC
  0
EOF
