  0
SECTION
  2
HEADER
  9
$ACADVER
  1
AC1009
  9
$INSBASE
 10
3886.693579317081003
 20
212.4842088014752903
 30
0.0
  9
$EXTMIN
 10
3885.5735793171311343
 20
212.4795172140387933
 30
0.0
  9
$EXTMAX
 10
3887.8135793170317811
 20
224.378290723400994
 30
0.0
  9
$LIMMIN
 10
0.0
 20
0.0
  9
$LIMMAX
 10
11.6929133858000007
 20
8.2677165353999982
  9
$ORTHOMODE
 70
     0
  9
$REGENMODE
 70
     1
  9
$FILLMODE
 70
     1
  9
$QTEXTMODE
 70
     0
  9
$MIRRTEXT
 70
     0
  9
$DRAGMODE
 70
     2
  9
$LTSCALE
 40
0.6431102362
  9
$OSMODE
 70
  3839
  9
$ATTMODE
 70
     1
  9
$TEXTSIZE
 40
0.2
  9
$TRACEWID
 40
0.05
  9
$TEXTSTYLE
  7
STANDARD
  9
$CLAYER
  8
0
  9
$CELTYPE
  6
BYLAYER
  9
$CECOLOR
 62
   256
  9
$DIMSCALE
 40
1.0
  9
$DIMASZ
 40
0.1875
  9
$DIMEXO
 40
0.0625
  9
$DIMDLI
 40
0.4443307087
  9
$DIMRND
 40
0.0
  9
$DIMDLE
 40
0.0
  9
$DIMEXE
 40
0.125
  9
$DIMTP
 40
0.01
  9
$DIMTM
 40
0.01
  9
$DIMTXT
 40
2.0
  9
$DIMCEN
 40
0.1052362205
  9
$DIMTSZ
 40
0.0
  9
$DIMTOL
 70
     1
  9
$DIMLIM
 70
     0
  9
$DIMTIH
 70
     1
  9
$DIMTOH
 70
     1
  9
$DIMSE1
 70
     0
  9
$DIMSE2
 70
     0
  9
$DIMTAD
 70
     0
  9
$DIMZIN
 70
     0
  9
$DIMBLK
  1

  9
$DIMASO
 70
     1
  9
$DIMSHO
 70
     1
  9
$DIMPOST
  1
\X
  9
$DIMAPOST
  1

  9
$DIMALT
 70
     1
  9
$DIMALTD
 70
     2
  9
$DIMALTF
 40
25.3999999999999986
  9
$DIMLFAC
 40
1.0
  9
$DIMTOFL
 70
     0
  9
$DIMTVP
 40
0.0
  9
$DIMTIX
 70
     0
  9
$DIMSOXD
 70
     0
  9
$DIMSAH
 70
     0
  9
$DIMBLK1
  1

  9
$DIMBLK2
  1

  9
$DIMSTYLE
  2
STANDARD
  9
$DIMCLRD
 70
     0
  9
$DIMCLRE
 70
     0
  9
$DIMCLRT
 70
     0
  9
$DIMTFAC
 40
1.0
  9
$DIMGAP
 40
0.09
  9
$LUNITS
 70
     2
  9
$LUPREC
 70
     4
  9
$SKETCHINC
 40
0.1
  9
$FILLETRAD
 40
0.0
  9
$AUNITS
 70
     0
  9
$AUPREC
 70
     0
  9
$MENU
  1
.
  9
$ELEVATION
 40
0.0
  9
$PELEVATION
 40
0.0
  9
$THICKNESS
 40
0.0
  9
$LIMCHECK
 70
     0
  9
$BLIPMODE
 70
     0
  9
$CHAMFERA
 40
0.0
  9
$CHAMFERB
 40
0.0
  9
$SKPOLY
 70
     0
  9
$TDCREATE
 40
2458060.468368056230247
  9
$TDUPDATE
 40
2459022.6825925931334496
  9
$TDINDWG
 40
0.610608912
  9
$TDUSRTIMER
 40
0.610608912
  9
$USRTIMER
 70
     1
  9
$ANGBASE
 50
0.0
  9
$ANGDIR
 70
     0
  9
$PDMODE
 70
     0
  9
$PDSIZE
 40
0.3125
  9
$PLINEWID
 40
0.0
  9
$COORDS
 70
     1
  9
$SPLFRAME
 70
     0
  9
$SPLINETYPE
 70
     6
  9
$SPLINESEGS
 70
     8
  9
$ATTDIA
 70
     1
  9
$ATTREQ
 70
     1
  9
$HANDLING
 70
     1
  9
$HANDSEED
  5
B04F
  9
$SURFTAB1
 70
     6
  9
$SURFTAB2
 70
     6
  9
$SURFTYPE
 70
     6
  9
$SURFU
 70
     6
  9
$SURFV
 70
     6
  9
$UCSNAME
  2

  9
$UCSORG
 10
0.0
 20
0.0
 30
0.0
  9
$UCSXDIR
 10
1.0
 20
0.0
 30
0.0
  9
$UCSYDIR
 10
0.0
 20
1.0
 30
0.0
  9
$PUCSNAME
  2

  9
$PUCSORG
 10
0.0
 20
0.0
 30
0.0
  9
$PUCSXDIR
 10
1.0
 20
0.0
 30
0.0
  9
$PUCSYDIR
 10
0.0
 20
1.0
 30
0.0
  9
$USERI1
 70
     0
  9
$USERI2
 70
     0
  9
$USERI3
 70
     0
  9
$USERI4
 70
     0
  9
$USERI5
 70
     0
  9
$USERR1
 40
0.0
  9
$USERR2
 40
0.0
  9
$USERR3
 40
0.0
  9
$USERR4
 40
0.0
  9
$USERR5
 40
0.0
  9
$WORLDVIEW
 70
     1
  9
$SHADEDGE
 70
     3
  9
$SHADEDIF
 70
    70
  9
$TILEMODE
 70
     1
  9
$MAXACTVP
 70
    64
  9
$PLIMCHECK
 70
     0
  9
$PEXTMIN
 10
1.0000000000000000E+20
 20
1.0000000000000000E+20
 30
1.0000000000000000E+20
  9
$PEXTMAX
 10
-1.0000000000000000E+20
 20
-1.0000000000000000E+20
 30
-1.0000000000000000E+20
  9
$PLIMMIN
 10
0.0
 20
0.0
  9
$PLIMMAX
 10
12.0
 20
9.0
  9
$UNITMODE
 70
     0
  9
$VISRETAIN
 70
     1
  9
$PLINEGEN
 70
     0
  9
$PSLTSCALE
 70
     1
  0
ENDSEC
  0
SECTION
  2
TABLES
  0
TABLE
  2
VPORT
 70
     1
  0
VPORT
  2
*ACTIVE
 70
     0
 10
0.0
 20
0.0
 11
1.0
 21
1.0
 12
4.7128045928344573
 22
0.0
 13
0.0
 23
0.0
 14
1.0
 24
1.0
 15
0.0
 25
0.0
 16
0.0
 26
0.0
 36
41.6816774532636174
 17
3886.6934814453129547
 27
218.4312515258789063
 37
0.0
 40
14.8245226617263501
 41
2.3528591352859132
 42
50.0
 43
0.0
 44
0.0
 50
0.0
 51
0.0
 71
     0
 72
   100
 73
     1
 74
     1
 75
     0
 76
     0
 77
     0
 78
     0
  0
ENDTAB
  0
TABLE
  2
LTYPE
 70
     2
  0
LTYPE
  2
CONTINUOUS
 70
     0
  3
Solid line
 72
    65
 73
     0
 40
0.0
  0
LTYPE
  2
PHANTOM2
 70
     0
  3
___ _ _ ___ _ _ ___ _ _ ___ _ _
 72
    65
 73
     6
 40
1.25
 49
0.625
 49
-0.125
 49
0.125
 49
-0.125
 49
0.125
 49
-0.125
  0
ENDTAB
  0
TABLE
  2
LAYER
 70
     2
  0
LAYER
  2
0
 70
     0
 62
   255
  6
CONTINUOUS
  0
LAYER
  2
DEFPOINTS
 70
     0
 62
     7
  6
CONTINUOUS
  0
ENDTAB
  0
TABLE
  2
STYLE
 70
     1
  0
STYLE
  2
STANDARD
 70
     0
 40
0.0
 41
0.8
 50
0.0
 71
     0
 42
0.2
  3
txt
  4

  0
ENDTAB
  0
TABLE
  2
VIEW
 70
     0
  0
ENDTAB
  0
TABLE
  2
UCS
 70
     0
  0
ENDTAB
  0
TABLE
  2
APPID
 70
     9
  0
APPID
  2
ACAD
 70
     0
  0
APPID
  2
ACAD_MLEADERVER
 70
     0
  0
APPID
  2
ACAD_EXEMPT_FROM_CAD_STANDARDS
 70
     0
  0
APPID
  2
ACAD_NAV_VCDISPLAY
 70
     0
  0
APPID
  2
ACAECLAYERSTANDARD
 70
     0
  0
APPID
  2
ACCMTRANSPARENCY
 70
     0
  0
APPID
  2
ACAD_DSTYLE_DIMJAG
 70
     0
  0
APPID
  2
ACAD_DSTYLE_DIMTALN
 70
     0
  0
APPID
  2
ACDBATTR
 70
     0
  0
ENDTAB
  0
TABLE
  2
DIMSTYLE
 70
     1
  0
DIMSTYLE
  2
STANDARD
 70
     0
  3

  4

  5

  6

  7

 40
1.0
 41
0.1875
 42
0.0625
 43
0.38
 44
0.125
 45
0.0
 46
0.0
 47
0.01
 48
0.01
140
0.15625
141
0.09
142
0.0
143
25.3999999999999986
144
1.0
145
0.0
146
1.0
147
0.09
 71
     1
 72
     0
 73
     1
 74
     1
 75
     0
 76
     0
 77
     0
 78
     4
170
     0
171
     2
172
     0
173
     0
174
     0
175
     0
176
     0
177
     0
178
     0
  0
ENDTAB
  0
ENDSEC
  0
SECTION
  2
BLOCKS
  0
BLOCK
  8
0
  2
$MODEL_SPACE
 70
     0
 10
0.0
 20
0.0
 30
0.0
  3
$MODEL_SPACE
  1

  0
ENDBLK
  5
21
  8
0
  0
BLOCK
 67
     1
  8
0
  2
$PAPER_SPACE
 70
     0
 10
0.0
 20
0.0
 30
0.0
  3
$PAPER_SPACE
  1

  0
ENDBLK
  5
1D
 67
     1
  8
0
  0
BLOCK
  8
0
  2
_FILLED
 70
     0
 10
0.0
 20
0.0
 30
0.0
  3
_FILLED
  1

  0
SOLID
  5
6F59
  8
0
  6
BYBLOCK
 62
     0
 10
0.0
 20
0.0
 30
0.0
 11
-1.0
 21
0.1666666667
 31
0.0
 12
-1.0
 22
-0.1666666667
 32
0.0
 13
-1.0
 23
-0.1666666667
 33
0.0
  0
ENDBLK
  5
6F5A
  8
0
  6
BYBLOCK
 62
     0
  0
BLOCK
  8
0
  2
_CLOSED
 70
     0
 10
0.0
 20
0.0
 30
0.0
  3
_CLOSED
  1

  0
LINE
  5
9506
  8
0
  6
BYBLOCK
 62
     0
 10
0.0
 20
0.0
 30
0.0
 11
-1.0
 21
0.1666666667
 31
0.0
  0
LINE
  5
9507
  8
0
  6
BYBLOCK
 62
     0
 10
-1.0
 20
0.1666666667
 30
0.0
 11
-1.0
 21
-0.1666666667
 31
0.0
  0
LINE
  5
9508
  8
0
  6
BYBLOCK
 62
     0
 10
-1.0
 20
-0.1666666667
 30
0.0
 11
0.0
 21
0.0
 31
0.0
  0
LINE
  5
9509
  8
0
  6
BYBLOCK
 62
     0
 10
-1.0
 20
0.0
 30
0.0
 11
0.0
 21
0.0
 31
0.0
  0
ENDBLK
  5
950A
  8
0
  6
BYBLOCK
 62
     0
  0
ENDSEC
  0
SECTION
  2
ENTITIES
  0
ATTDEF
  5
3930
  8
DEFPOINTS
 10
3886.6938772325320315
 20
212.4828505473720952
 30
0.0
 40
0.001
  1
K-14404T-4
  3

  2
MODELNUMBER
 70
     0
1001
ACDBATTR
1070
     0
1070
     1
  0
ATTDEF
  5
3931
  8
DEFPOINTS
 10
3886.6938772325320315
 20
212.4811838807054869
 30
0.0
 40
0.001
  1
PURIST
  3

  2
TRADENAME
 70
     0
1001
ACDBATTR
1070
     0
1070
     1
  0
ATTDEF
  5
3932
  8
DEFPOINTS
 10
3886.6938772325320315
 20
212.4795172140387933
 30
0.0
 40
0.001
  1
BATHROOM SINK FAUCET
  3

  2
PRODUCT
 70
     0
1001
ACDBATTR
1070
     0
1070
     1
  0
ARC
  5
AB6F
  8
0
 10
3886.6988469448820069
 20
219.4355279593314947
 30
0.0
 40
0.6531824356226172
 50
244.1572411163384118
 51
269.537929839836977
  0
ARC
  5
AB70
  8
0
 10
3886.688311689279999
 20
219.4355279593314947
 30
0.0
 40
0.6531824356226172
 50
270.462070160163023
 51
295.8427588836614746
  0
ARC
  5
AB71
  8
0
 10
3886.6883887876888366
 20
219.2439125893166931
 30
0.0
 40
0.4054036528596989
 50
232.6214858110529065
 51
270.7121019948241951
  0
ARC
  5
AB72
  8
0
 10
3886.5153937778709405
 20
219.0216520837217899
 30
0.0
 40
0.1237906563468106
 50
162.5291791066235874
 51
233.7970619484464976
  0
ARC
  5
AB73
  8
0
 10
3886.5638734372118961
 20
218.9787176541667009
 30
0.0
 40
0.1848188622273377
 50
108.4826069084570008
 51
154.3170326982115057
  0
ARC
  5
AB74
  8
0
 10
3886.696948037715174
 20
218.676629169290095
 30
0.0
 40
0.5144141090574896
 50
90.3828485627425522
 51
111.875405215419903
  0
ARC
  5
AB75
  8
0
 10
3886.6916656015018816
 20
219.230753815554209
 30
0.0
 40
0.3663735228555722
 50
234.4279338378711088
 51
270.3490796990859053
  0
ARC
  5
AB76
  8
0
 10
3886.5482421475371666
 20
219.0278131979711134
 30
0.0
 40
0.1178798387947407
 50
188.1664349037642125
 51
233.7486491574624949
  0
ARC
  5
AB77
  8
0
 10
3886.5248928516180058
 20
219.0244624744113082
 30
0.0
 40
0.0942913465092771
 50
129.0684283971270929
 51
188.1664349037642125
  0
ARC
  5
AB78
  8
0
 10
3886.6924638592149677
 20
218.810726144294307
 30
0.0
 40
0.3658752085760411
 50
89.8564497797701449
 51
128.3471413641863137
  0
ARC
  5
AB79
  8
0
 10
3886.693365640590855
 20
219.2099622521359947
 30
0.0
 40
0.3349233465360266
 50
233.2638448724663931
 51
270.0642037292325881
  0
ARC
  5
AB7A
  8
0
 10
3886.5564455967742106
 20
219.0178395091595007
 30
0.0
 40
0.0991960866075505
 50
182.7072589940918874
 51
230.2664240357908056
  0
ARC
  5
AB7B
  8
0
 10
3886.5678147721841924
 20
219.0033415107731969
 30
0.0
 40
0.1108895662713707
 50
113.1195079249695965
 51
174.9232293846513073
  0
ARC
  5
AB7C
  8
0
 10
3886.6840911884510206
 20
218.8332189511939987
 30
0.0
 40
0.315568396642246
 50
99.7192221490418262
 51
120.4271528782853977
  0
ARC
  5
AB7D
  8
0
 10
3886.6987530630899528
 20
219.2439443287096026
 30
0.0
 40
0.4054390631882589
 50
269.2473426354254116
 51
307.377675962500291
  0
ARC
  5
AB7E
  8
0
 10
3886.8685350927999025
 20
219.0227116727926102
 30
0.0
 40
0.1265688145017628
 50
307.0994489848882267
 51
16.5743099602351798
  0
ARC
  5
AB7F
  8
0
 10
3886.8232851969501098
 20
218.9787176541667009
 30
0.0
 40
0.1848188622273377
 50
25.6829673017885192
 51
71.517393091542985
  0
ARC
  5
AB80
  8
0
 10
3886.6902178831419405
 20
218.6766537637990098
 30
0.0
 40
0.5143885705045774
 50
68.1243272762341974
 51
89.6332159866041849
  0
ARC
  5
AB81
  8
0
 10
3886.6955085947961379
 20
219.2307227644116949
 30
0.0
 40
0.3663392134713094
 50
269.7480618437169255
 51
305.5729115514666887
  0
ARC
  5
AB82
  8
0
 10
3886.8389164866262036
 20
219.0278131979711134
 30
0.0
 40
0.1178798387947407
 50
306.2513508425375903
 51
351.8335650962358159
  0
ARC
  5
AB83
  8
0
 10
3886.8622657825458191
 20
219.0244624744113082
 30
0.0
 40
0.0942913465092771
 50
351.8335650962358159
 51
50.9315716028729284
  0
ARC
  5
AB84
  8
0
 10
3886.6946837325122033
 20
218.8106998218106867
 30
0.0
 40
0.3659027034874895
 50
51.6540598034782619
 51
90.2040654968361792
  0
ARC
  5
AB85
  8
0
 10
3886.6937939406898295
 20
219.2099604373576085
 30
0.0
 40
0.3349213256743972
 50
269.9909337972580943
 51
306.7362109750960144
  0
ARC
  5
AB86
  8
0
 10
3886.8307130373877953
 20
219.0178395091595007
 30
0.0
 40
0.0991960866075505
 50
309.7335759642091944
 51
357.2927410059079989
  0
ARC
  5
AB87
  8
0
 10
3886.8193438619778135
 20
219.0033415107731969
 30
0.0
 40
0.1108895662713707
 50
5.0767706153486261
 51
66.8804920750304035
  0
ARC
  5
AB88
  8
0
 10
3886.7030674457109853
 20
218.8332189511939987
 30
0.0
 40
0.315568396642246
 50
59.5728471217145668
 51
80.2807778506144274
  0
LINE
  5
AB89
  8
0
 10
3886.4308210516460349
 20
219.0308932190652058
 30
0.0
 11
3886.4309982461568325
 21
219.0740359805730009
 31
0.0
  0
ARC
  5
AB8A
  8
0
 10
3886.5374219136519969
 20
219.0639873969678888
 30
0.0
 40
0.1068970113506239
 50
146.581713978593001
 51
174.6060911082122118
  0
ARC
  5
AB8B
  8
0
 10
3886.5163318120448821
 20
219.0803333889456894
 30
0.0
 40
0.0993434924725581
 50
173.4028168015184974
 51
210.5254468494840978
  0
LINE
  5
AB8C
  8
0
 10
3886.6800380104100441
 20
218.9184972277998895
 30
0.0
 11
3886.6670660353311177
 21
218.9056074641999032
 31
0.0
  0
ARC
  5
AB8D
  8
0
 10
3886.6608123216069544
 20
218.9119010643852903
 30
0.0
 40
0.0088723355798629
 50
269.9790252196966094
 51
314.8178639522034814
  0
LINE
  5
AB8E
  8
0
 10
3886.6608090736322083
 20
218.9030287293998924
 30
0.0
 11
3886.6329306019938485
 21
218.9030389351227086
 31
0.0
  0
ARC
  5
AB8F
  8
0
 10
3886.632933867185784
 20
218.9119582996349891
 30
0.0
 40
0.0089193651099378
 50
225.3976668055248922
 51
269.9790252196966094
  0
LINE
  5
AB90
  8
0
 10
3886.6266708491311874
 20
218.9056077343998936
 30
0.0
 11
3886.6136546453358278
 21
218.9184972277998895
 31
0.0
  0
LINE
  5
AB91
  8
0
 10
3886.671674675390932
 20
218.9227709607476129
 30
0.0
 11
3886.6595974803308309
 21
218.9107727078998948
 31
0.0
  0
LINE
  5
AB92
  8
0
 10
3886.6595974803308309
 20
218.9107727078998948
 30
0.0
 11
3886.6341395157310217
 21
218.9107727078998948
 31
0.0
  0
LINE
  5
AB93
  8
0
 10
3886.6341395157310217
 20
218.9107727078998948
 30
0.0
 11
3886.6220600460701462
 21
218.9227721883578965
 31
0.0
  0
LINE
  5
AB94
  8
0
 10
3886.6220600460701462
 20
218.9227721883578965
 30
0.0
 11
3886.6329279224310085
 21
218.933965726099899
 31
0.0
  0
LINE
  5
AB95
  8
0
 10
3886.6647736406212061
 20
218.9296224113818141
 30
0.0
 11
3886.6595974803308309
 21
218.9244789920998926
 31
0.0
  0
LINE
  5
AB96
  8
0
 10
3886.6595974803308309
 20
218.9244789920998926
 30
0.0
 11
3886.6341395157310217
 21
218.9244789920998926
 31
0.0
  0
LINE
  5
AB97
  8
0
 10
3886.6341395157310217
 20
218.9244789920998926
 30
0.0
 11
3886.6287744159940303
 21
218.9296866372515069
 31
0.0
  0
LINE
  5
AB98
  8
0
 10
3886.6341395157310217
 20
218.9244789920998926
 30
0.0
 11
3886.6341395157310217
 21
218.9107727078998948
 31
0.0
  0
LINE
  5
AB99
  8
0
 10
3886.6595974803308309
 20
218.9244789920998926
 30
0.0
 11
3886.6595974803308309
 21
218.9107727078998948
 31
0.0
  0
LINE
  5
AB9A
  8
0
 10
3886.693579317081003
 20
218.9184972277998895
 30
0.0
 11
3886.6796414191321674
 21
218.9184967067999139
 31
0.0
  0
ARC
  5
AB9B
  8
0
 10
3886.6796410870369982
 20
218.9273809512920934
 30
0.0
 40
0.008884244498413
 50
225.2065771625048001
 51
270.0021417218850956
  0
LINE
  5
AB9C
  8
0
 10
3886.6733816681307871
 20
218.9210762327998907
 30
0.0
 11
3886.6603988932151879
 21
218.933965726099899
 31
0.0
  0
ARC
  5
AB9D
  8
0
 10
3886.6128651866379187
 20
218.9304502600348883
 30
0.0
 40
0.0119790744486375
 50
273.7787108187263811
 51
320.136782005274199
  0
LINE
  5
AB9E
  8
0
 10
3886.6800380104100441
 20
218.9494291216385022
 30
0.0
 11
3886.6670660353311177
 21
218.9365393580384875
 31
0.0
  0
ARC
  5
AB9F
  8
0
 10
3886.6608123216069544
 20
218.9428329582237893
 30
0.0
 40
0.0088723355798629
 50
269.9790252196966094
 51
314.8178639522034814
  0
LINE
  5
ABA0
  8
0
 10
3886.6608090736322083
 20
218.9339606232385051
 30
0.0
 11
3886.6329306019938485
 21
218.9339708289612929
 31
0.0
  0
ARC
  5
ABA1
  8
0
 10
3886.632933867185784
 20
218.9428901934736018
 30
0.0
 40
0.0089193651099378
 50
225.3976668055248922
 51
269.9790252196966094
  0
LINE
  5
ABA2
  8
0
 10
3886.6266708491311874
 20
218.9365396282385063
 30
0.0
 11
3886.6136546453358278
 21
218.9494291216385022
 31
0.0
  0
LINE
  5
ABA3
  8
0
 10
3886.671674675390932
 20
218.9537028545861972
 30
0.0
 11
3886.6595974803308309
 21
218.9417046017385076
 31
0.0
  0
LINE
  5
ABA4
  8
0
 10
3886.6595974803308309
 20
218.9417046017385076
 30
0.0
 11
3886.6341395157310217
 21
218.9417046017385076
 31
0.0
  0
LINE
  5
ABA5
  8
0
 10
3886.6341395157310217
 20
218.9417046017385076
 30
0.0
 11
3886.6220600460701462
 21
218.9537040821965093
 31
0.0
  0
LINE
  5
ABA6
  8
0
 10
3886.6220600460701462
 20
218.9537040821965093
 30
0.0
 11
3886.6338016281579257
 21
218.9657975066969016
 31
0.0
  0
LINE
  5
ABA7
  8
0
 10
3886.6647736406212061
 20
218.9605543052203984
 30
0.0
 11
3886.6595974803308309
 21
218.9554108859385053
 31
0.0
  0
LINE
  5
ABA8
  8
0
 10
3886.6595974803308309
 20
218.9554108859385053
 30
0.0
 11
3886.6341395157310217
 21
218.9554108859385053
 31
0.0
  0
LINE
  5
ABA9
  8
0
 10
3886.6341395157310217
 20
218.9554108859385053
 30
0.0
 11
3886.6287744159940303
 21
218.9606185310900912
 31
0.0
  0
LINE
  5
ABAA
  8
0
 10
3886.6341395157310217
 20
218.9554108859385053
 30
0.0
 11
3886.6341395157310217
 21
218.9417046017385076
 31
0.0
  0
LINE
  5
ABAB
  8
0
 10
3886.6595974803308309
 20
218.9554108859385053
 30
0.0
 11
3886.6595974803308309
 21
218.9417046017385076
 31
0.0
  0
LINE
  5
ABAC
  8
0
 10
3886.693579317081003
 20
218.9494291216385022
 30
0.0
 11
3886.6796414191321674
 21
218.9494286006384982
 31
0.0
  0
ARC
  5
ABAD
  8
0
 10
3886.6796410870369982
 20
218.9583128451307061
 30
0.0
 40
0.008884244498413
 50
225.2065771625048001
 51
270.0021417218850956
  0
LINE
  5
ABAE
  8
0
 10
3886.6733816681307871
 20
218.9520081266385034
 30
0.0
 11
3886.6595019703950129
 21
218.9657880983415055
 31
0.0
  0
ARC
  5
ABAF
  8
0
 10
3886.6128651866379187
 20
218.961382153873501
 30
0.0
 40
0.0119790744486375
 50
273.7787108187263811
 51
320.136782005274199
  0
LINE
  5
ABB0
  8
0
 10
3886.6800380104100441
 20
218.9812561182384911
 30
0.0
 11
3886.6670660353311177
 21
218.9683663546385048
 31
0.0
  0
ARC
  5
ABB1
  8
0
 10
3886.6608123216069544
 20
218.9746599548238919
 30
0.0
 40
0.0088723355798629
 50
269.9790252196966094
 51
314.8178639522034814
  0
LINE
  5
ABB2
  8
0
 10
3886.6608090736322083
 20
218.965787619838494
 30
0.0
 11
3886.6329306019938485
 21
218.9657978255613102
 31
0.0
  0
ARC
  5
ABB3
  8
0
 10
3886.632933867185784
 20
218.9747171900735907
 30
0.0
 40
0.0089193651099378
 50
225.3976668055248922
 51
269.9790252196966094
  0
LINE
  5
ABB4
  8
0
 10
3886.6266708491311874
 20
218.9683666248384952
 30
0.0
 11
3886.6136546453358278
 21
218.9812561182384911
 31
0.0
  0
LINE
  5
ABB5
  8
0
 10
3886.671674675390932
 20
218.9855298511861861
 30
0.0
 11
3886.6595974803308309
 21
218.9735315983384965
 31
0.0
  0
LINE
  5
ABB6
  8
0
 10
3886.6595974803308309
 20
218.9735315983384965
 30
0.0
 11
3886.6341395157310217
 21
218.9735315983384965
 31
0.0
  0
LINE
  5
ABB7
  8
0
 10
3886.6341395157310217
 20
218.9735315983384965
 30
0.0
 11
3886.6220600460701462
 21
218.9855310787964982
 31
0.0
  0
LINE
  5
ABB8
  8
0
 10
3886.6220600460701462
 20
218.9855310787964982
 30
0.0
 11
3886.6321105739380073
 21
218.9958827757859012
 31
0.0
  0
LINE
  5
ABB9
  8
0
 10
3886.6647736406212061
 20
218.992381301820501
 30
0.0
 11
3886.6595974803308309
 21
218.9872378825384942
 31
0.0
  0
LINE
  5
ABBA
  8
0
 10
3886.6595974803308309
 20
218.9872378825384942
 30
0.0
 11
3886.6341395157310217
 21
218.9872378825384942
 31
0.0
  0
LINE
  5
ABBB
  8
0
 10
3886.6341395157310217
 20
218.9872378825384942
 30
0.0
 11
3886.6287744159940303
 21
218.9924455276901085
 31
0.0
  0
LINE
  5
ABBC
  8
0
 10
3886.6341395157310217
 20
218.9872378825384942
 30
0.0
 11
3886.6341395157310217
 21
218.9735315983384965
 31
0.0
  0
LINE
  5
ABBD
  8
0
 10
3886.6595974803308309
 20
218.9872378825384942
 30
0.0
 11
3886.6595974803308309
 21
218.9735315983384965
 31
0.0
  0
LINE
  5
ABBE
  8
0
 10
3886.693579317081003
 20
218.9812561182384911
 30
0.0
 11
3886.6796414191321674
 21
218.9812555972384871
 31
0.0
  0
ARC
  5
ABBF
  8
0
 10
3886.6796410870369982
 20
218.990139841730695
 30
0.0
 40
0.008884244498413
 50
225.2065771625048001
 51
270.0021417218850956
  0
LINE
  5
ABC0
  8
0
 10
3886.6733816681307871
 20
218.9838351232384923
 30
0.0
 11
3886.6612826950481576
 21
218.9958471648469072
 31
0.0
  0
ARC
  5
ABC1
  8
0
 10
3886.6128651866379187
 20
218.9932091504734899
 30
0.0
 40
0.0119790744486375
 50
273.7787108187263811
 51
320.136782005274199
  0
LINE
  5
ABC2
  8
0
 10
3886.6800366706279419
 20
219.0113031152384906
 30
0.0
 11
3886.6670646955499251
 21
218.9984133516385043
 31
0.0
  0
ARC
  5
ABC3
  8
0
 10
3886.6608109818248522
 20
219.0047069518238914
 30
0.0
 40
0.0088723355798629
 50
269.9790252196966094
 51
314.8178639522034814
  0
LINE
  5
ABC4
  8
0
 10
3886.6608077338501062
 20
218.9958346168384935
 30
0.0
 11
3886.6329292622122011
 21
218.9958448225613097
 31
0.0
  0
ARC
  5
ABC5
  8
0
 10
3886.6329325274050461
 20
219.0047641870735902
 30
0.0
 40
0.0089193651099378
 50
225.3976668055248922
 51
269.9790252196966094
  0
LINE
  5
ABC6
  8
0
 10
3886.6266695093490853
 20
218.9984136218384947
 30
0.0
 11
3886.6136533055541804
 21
219.0113031152384906
 31
0.0
  0
LINE
  5
ABC7
  8
0
 10
3886.6716733356088298
 20
219.015576848186214
 30
0.0
 11
3886.659596140550093
 21
219.0035785953384959
 31
0.0
  0
LINE
  5
ABC8
  8
0
 10
3886.659596140550093
 20
219.0035785953384959
 30
0.0
 11
3886.634138175949829
 21
219.0035785953384959
 31
0.0
  0
LINE
  5
ABC9
  8
0
 10
3886.634138175949829
 20
219.0035785953384959
 30
0.0
 11
3886.6220587062889535
 21
219.0155780757964976
 31
0.0
  0
LINE
  5
ABCA
  8
0
 10
3886.6220587062889535
 20
219.0155780757964976
 30
0.0
 11
3886.6329364893581442
 21
219.0267818171060981
 31
0.0
  0
LINE
  5
ABCB
  8
0
 10
3886.664772300839104
 20
219.0224282988205005
 30
0.0
 11
3886.659596140550093
 21
219.0172848795384937
 31
0.0
  0
LINE
  5
ABCC
  8
0
 10
3886.659596140550093
 20
219.0172848795384937
 30
0.0
 11
3886.634138175949829
 21
219.0172848795384937
 31
0.0
  0
LINE
  5
ABCD
  8
0
 10
3886.634138175949829
 20
219.0172848795384937
 30
0.0
 11
3886.6287730762128376
 21
219.022492524690108
 31
0.0
  0
LINE
  5
ABCE
  8
0
 10
3886.634138175949829
 20
219.0172848795384937
 30
0.0
 11
3886.634138175949829
 21
219.0035785953384959
 31
0.0
  0
LINE
  5
ABCF
  8
0
 10
3886.659596140550093
 20
219.0172848795384937
 30
0.0
 11
3886.659596140550093
 21
219.0035785953384959
 31
0.0
  0
LINE
  5
ABD0
  8
0
 10
3886.6935779772989008
 20
219.0113031152384906
 30
0.0
 11
3886.6796400793500652
 21
219.0113025942384866
 31
0.0
  0
ARC
  5
ABD1
  8
0
 10
3886.6796397472558056
 20
219.0201868387306945
 30
0.0
 40
0.008884244498413
 50
225.2065771625048001
 51
270.0021417218850956
  0
LINE
  5
ABD2
  8
0
 10
3886.6733803283500492
 20
219.0138821202384918
 30
0.0
 11
3886.6603974016379652
 21
219.0267717642429943
 31
0.0
  0
ARC
  5
ABD3
  8
0
 10
3886.6128638468571808
 20
219.0232561474734894
 30
0.0
 40
0.0119790744486375
 50
273.7787108187263811
 51
320.136782005274199
  0
LINE
  5
ABD4
  8
0
 10
3886.6800380104100441
 20
219.0422401119384972
 30
0.0
 11
3886.6670660353311177
 21
219.0293503483385109
 31
0.0
  0
ARC
  5
ABD5
  8
0
 10
3886.6608123216069544
 20
219.0356439485238127
 30
0.0
 40
0.0088723355798629
 50
269.9790252196966094
 51
314.8178639522034814
  0
LINE
  5
ABD6
  8
0
 10
3886.6608090736322083
 20
219.0267716135385001
 30
0.0
 11
3886.6329306019938485
 21
219.0267818192612879
 31
0.0
  0
ARC
  5
ABD7
  8
0
 10
3886.632933867185784
 20
219.0357011837735968
 30
0.0
 40
0.0089193651099378
 50
225.3976668055248922
 51
269.9790252196966094
  0
LINE
  5
ABD8
  8
0
 10
3886.6266708491311874
 20
219.0293506185385013
 30
0.0
 11
3886.6136546453358278
 21
219.0422401119384972
 31
0.0
  0
LINE
  5
ABD9
  8
0
 10
3886.671674675390932
 20
219.0465138448861921
 30
0.0
 11
3886.6595974803308309
 21
219.0345155920385025
 31
0.0
  0
LINE
  5
ABDA
  8
0
 10
3886.6595974803308309
 20
219.0345155920385025
 30
0.0
 11
3886.6341395157310217
 21
219.0345155920385025
 31
0.0
  0
LINE
  5
ABDB
  8
0
 10
3886.6341395157310217
 20
219.0345155920385025
 30
0.0
 11
3886.6220600460701462
 21
219.0465150724965042
 31
0.0
  0
LINE
  5
ABDC
  8
0
 10
3886.6220600460701462
 20
219.0465150724965042
 30
0.0
 11
3886.6329378287600775
 21
219.0577188134157041
 31
0.0
  0
LINE
  5
ABDD
  8
0
 10
3886.6647736406212061
 20
219.0533652955203934
 30
0.0
 11
3886.6595974803308309
 21
219.0482218762385003
 31
0.0
  0
LINE
  5
ABDE
  8
0
 10
3886.6595974803308309
 20
219.0482218762385003
 30
0.0
 11
3886.6341395157310217
 21
219.0482218762385003
 31
0.0
  0
LINE
  5
ABDF
  8
0
 10
3886.6341395157310217
 20
219.0482218762385003
 30
0.0
 11
3886.6287744159940303
 21
219.0534295213900862
 31
0.0
  0
LINE
  5
ABE0
  8
0
 10
3886.6341395157310217
 20
219.0482218762385003
 30
0.0
 11
3886.6341395157310217
 21
219.0345155920385025
 31
0.0
  0
LINE
  5
ABE1
  8
0
 10
3886.6595974803308309
 20
219.0482218762385003
 30
0.0
 11
3886.6595974803308309
 21
219.0345155920385025
 31
0.0
  0
LINE
  5
ABE2
  8
0
 10
3886.693579317081003
 20
219.0422401119384972
 30
0.0
 11
3886.6796414191321674
 21
219.0422395909384932
 31
0.0
  0
ARC
  5
ABE3
  8
0
 10
3886.6796410870369982
 20
219.0511238354307011
 30
0.0
 40
0.008884244498413
 50
225.2065771625048001
 51
270.0021417218850956
  0
LINE
  5
ABE4
  8
0
 10
3886.6733816681307871
 20
219.0448191169384984
 30
0.0
 11
3886.6603987418129691
 21
219.0577087605522877
 31
0.0
  0
ARC
  5
ABE5
  8
0
 10
3886.6128651866379187
 20
219.054193144173496
 30
0.0
 40
0.0119790744486375
 50
273.7787108187263811
 51
320.136782005274199
  0
LINE
  5
ABE6
  8
0
 10
3886.6800380104100441
 20
219.0731771087384914
 30
0.0
 11
3886.6670660353311177
 21
219.0602873451385051
 31
0.0
  0
ARC
  5
ABE7
  8
0
 10
3886.6608123216069544
 20
219.0665809453238069
 30
0.0
 40
0.0088723355798629
 50
269.9790252196966094
 51
314.8178639522034814
  0
LINE
  5
ABE8
  8
0
 10
3886.6608090736322083
 20
219.0577086103384943
 30
0.0
 11
3886.6329306019938485
 21
219.0577188160613105
 31
0.0
  0
ARC
  5
ABE9
  8
0
 10
3886.632933867185784
 20
219.0666381805735909
 30
0.0
 40
0.0089193651099378
 50
225.3976668055248922
 51
269.9790252196966094
  0
LINE
  5
ABEA
  8
0
 10
3886.6266708491311874
 20
219.0602876153384955
 30
0.0
 11
3886.6136546453358278
 21
219.0731771087384914
 31
0.0
  0
LINE
  5
ABEB
  8
0
 10
3886.671674675390932
 20
219.0774508416861863
 30
0.0
 11
3886.6595974803308309
 21
219.0654525888384967
 31
0.0
  0
LINE
  5
ABEC
  8
0
 10
3886.6595974803308309
 20
219.0654525888384967
 30
0.0
 11
3886.6341395157310217
 21
219.0654525888384967
 31
0.0
  0
LINE
  5
ABED
  8
0
 10
3886.6341395157310217
 20
219.0654525888384967
 30
0.0
 11
3886.6220600460701462
 21
219.0774520692964984
 31
0.0
  0
LINE
  5
ABEE
  8
0
 10
3886.6220600460701462
 20
219.0774520692964984
 30
0.0
 11
3886.6329378287600775
 21
219.0886558102156982
 31
0.0
  0
LINE
  5
ABEF
  8
0
 10
3886.6647736406212061
 20
219.0843022923203876
 30
0.0
 11
3886.6595974803308309
 21
219.0791588730384944
 31
0.0
  0
LINE
  5
ABF0
  8
0
 10
3886.6595974803308309
 20
219.0791588730384944
 30
0.0
 11
3886.6341395157310217
 21
219.0791588730384944
 31
0.0
  0
LINE
  5
ABF1
  8
0
 10
3886.6341395157310217
 20
219.0791588730384944
 30
0.0
 11
3886.6287744159940303
 21
219.0843665181901088
 31
0.0
  0
LINE
  5
ABF2
  8
0
 10
3886.6341395157310217
 20
219.0791588730384944
 30
0.0
 11
3886.6341395157310217
 21
219.0654525888384967
 31
0.0
  0
LINE
  5
ABF3
  8
0
 10
3886.6595974803308309
 20
219.0791588730384944
 30
0.0
 11
3886.6595974803308309
 21
219.0654525888384967
 31
0.0
  0
LINE
  5
ABF4
  8
0
 10
3886.693579317081003
 20
219.0731771087384914
 30
0.0
 11
3886.6796414191321674
 21
219.0731765877384873
 31
0.0
  0
ARC
  5
ABF5
  8
0
 10
3886.6796410870369982
 20
219.0820608322306953
 30
0.0
 40
0.008884244498413
 50
225.2065771625048001
 51
270.0021417218850956
  0
LINE
  5
ABF6
  8
0
 10
3886.6733816681307871
 20
219.0757561137384926
 30
0.0
 11
3886.6603987418129691
 21
219.0886457573523103
 31
0.0
  0
ARC
  5
ABF7
  8
0
 10
3886.6128651866379187
 20
219.0851301409734901
 30
0.0
 40
0.0119790744486375
 50
273.7787108187263811
 51
320.136782005274199
  0
LINE
  5
ABF8
  8
0
 10
3886.6800380104100441
 20
219.104114105538514
 30
0.0
 11
3886.6670660353311177
 21
219.0912243419384993
 31
0.0
  0
ARC
  5
ABF9
  8
0
 10
3886.6608123216069544
 20
219.097517942123801
 30
0.0
 40
0.0088723355798629
 50
269.9790252196966094
 51
314.8178639522034814
  0
LINE
  5
ABFA
  8
0
 10
3886.6608090736322083
 20
219.0886456071384885
 30
0.0
 11
3886.6329306019938485
 21
219.0886558128613046
 31
0.0
  0
ARC
  5
ABFB
  8
0
 10
3886.632933867185784
 20
219.0975751773736135
 30
0.0
 40
0.0089193651099378
 50
225.3976668055248922
 51
269.9790252196966094
  0
LINE
  5
ABFC
  8
0
 10
3886.6266708491311874
 20
219.0912246121384896
 30
0.0
 11
3886.6136546453358278
 21
219.104114105538514
 31
0.0
  0
LINE
  5
ABFD
  8
0
 10
3886.671674675390932
 20
219.1083878384862089
 30
0.0
 11
3886.6595974803308309
 21
219.0963895856384909
 31
0.0
  0
LINE
  5
ABFE
  8
0
 10
3886.6595974803308309
 20
219.0963895856384909
 30
0.0
 11
3886.6341395157310217
 21
219.0963895856384909
 31
0.0
  0
LINE
  5
ABFF
  8
0
 10
3886.6341395157310217
 20
219.0963895856384909
 30
0.0
 11
3886.6220600460701462
 21
219.1083890660966063
 31
0.0
  0
LINE
  5
AC00
  8
0
 10
3886.6220600460701462
 20
219.1083890660966063
 30
0.0
 11
3886.6329378286641258
 21
219.1195928069157048
 31
0.0
  0
LINE
  5
AC01
  8
0
 10
3886.6647736406212061
 20
219.1152392891204101
 30
0.0
 11
3886.6595974803308309
 21
219.1100958698384886
 31
0.0
  0
LINE
  5
AC02
  8
0
 10
3886.6595974803308309
 20
219.1100958698384886
 30
0.0
 11
3886.6341395157310217
 21
219.1100958698384886
 31
0.0
  0
LINE
  5
AC03
  8
0
 10
3886.6341395157310217
 20
219.1100958698384886
 30
0.0
 11
3886.6287744159940303
 21
219.1153035149901882
 31
0.0
  0
LINE
  5
AC04
  8
0
 10
3886.6341395157310217
 20
219.1100958698384886
 30
0.0
 11
3886.6341395157310217
 21
219.0963895856384909
 31
0.0
  0
LINE
  5
AC05
  8
0
 10
3886.6595974803308309
 20
219.1100958698384886
 30
0.0
 11
3886.6595974803308309
 21
219.0963895856384909
 31
0.0
  0
LINE
  5
AC06
  8
0
 10
3886.693579317081003
 20
219.104114105538514
 30
0.0
 11
3886.6796414191321674
 21
219.1041135845385099
 31
0.0
  0
ARC
  5
AC07
  8
0
 10
3886.6796410870369982
 20
219.1129978290306894
 30
0.0
 40
0.008884244498413
 50
225.2065771625048001
 51
270.0021417218850956
  0
LINE
  5
AC08
  8
0
 10
3886.6733816681307871
 20
219.1066931105384867
 30
0.0
 11
3886.660398741913923
 21
219.1195827540522885
 31
0.0
  0
ARC
  5
AC09
  8
0
 10
3886.6128651866379187
 20
219.1160671377735127
 30
0.0
 40
0.0119790744486375
 50
273.7787108187263811
 51
320.136782005274199
  0
LINE
  5
AC0A
  8
0
 10
3886.6800380104100441
 20
219.1350511022384921
 30
0.0
 11
3886.6670660353311177
 21
219.1221613386385059
 31
0.0
  0
ARC
  5
AC0B
  8
0
 10
3886.6608123216069544
 20
219.1284549388238077
 30
0.0
 40
0.0088723355798629
 50
269.9790252196966094
 51
314.8178639522034814
  0
LINE
  5
AC0C
  8
0
 10
3886.6608090736322083
 20
219.1195826038384951
 30
0.0
 11
3886.6329306019938485
 21
219.1195928095613112
 31
0.0
  0
ARC
  5
AC0D
  8
0
 10
3886.632933867185784
 20
219.1285121740735917
 30
0.0
 40
0.0089193651099378
 50
225.3976668055248922
 51
269.9790252196966094
  0
LINE
  5
AC0E
  8
0
 10
3886.6266708491311874
 20
219.1221616088384962
 30
0.0
 11
3886.6136546453358278
 21
219.1350511022384921
 31
0.0
  0
LINE
  5
AC0F
  8
0
 10
3886.671674675390932
 20
219.1393248351861871
 30
0.0
 11
3886.6595974803308309
 21
219.1273265823384975
 31
0.0
  0
LINE
  5
AC10
  8
0
 10
3886.6595974803308309
 20
219.1273265823384975
 30
0.0
 11
3886.6341395157310217
 21
219.1273265823384975
 31
0.0
  0
LINE
  5
AC11
  8
0
 10
3886.6341395157310217
 20
219.1273265823384975
 30
0.0
 11
3886.6220600460701462
 21
219.1393260627964992
 31
0.0
  0
LINE
  5
AC12
  8
0
 10
3886.6220600460701462
 20
219.1393260627964992
 30
0.0
 11
3886.6260122809530912
 21
219.1433967283849995
 31
0.0
  0
LINE
  5
AC13
  8
0
 10
3886.6647736406212061
 20
219.1461762858203883
 30
0.0
 11
3886.6595974803308309
 21
219.1410328665384952
 31
0.0
  0
LINE
  5
AC14
  8
0
 10
3886.6595974803308309
 20
219.1410328665384952
 30
0.0
 11
3886.6341395157310217
 21
219.1410328665384952
 31
0.0
  0
LINE
  5
AC15
  8
0
 10
3886.6341395157310217
 20
219.1410328665384952
 30
0.0
 11
3886.630816911682814
 21
219.1442579590276125
 31
0.0
  0
LINE
  5
AC16
  8
0
 10
3886.6341395157310217
 20
219.1410328665384952
 30
0.0
 11
3886.6341395157310217
 21
219.1273265823384975
 31
0.0
  0
LINE
  5
AC17
  8
0
 10
3886.6595974803308309
 20
219.1410328665384952
 30
0.0
 11
3886.6595974803308309
 21
219.1273265823384975
 31
0.0
  0
LINE
  5
AC18
  8
0
 10
3886.693579317081003
 20
219.1350511022384921
 30
0.0
 11
3886.6796414191321674
 21
219.1350505812384881
 31
0.0
  0
ARC
  5
AC19
  8
0
 10
3886.6796410870369982
 20
219.143934825730696
 30
0.0
 40
0.008884244498413
 50
225.2065771625048001
 51
270.0021417218850956
  0
LINE
  5
AC1A
  8
0
 10
3886.6733816681307871
 20
219.1376301072384933
 30
0.0
 11
3886.6628636291270595
 21
219.1480725738259991
 31
0.0
  0
ARC
  5
AC1B
  8
0
 10
3886.6128651866379187
 20
219.1470041344734909
 30
0.0
 40
0.0119790744486375
 50
273.7787108187263811
 51
320.136782005274199
  0
LINE
  5
AC1C
  8
0
 10
3886.6136546453358278
 20
218.9494291216385022
 30
0.0
 11
3886.5866607127259158
 21
218.9494291216385022
 31
0.0
  0
LINE
  5
AC1D
  8
0
 10
3886.6136546453358278
 20
218.9812561182384911
 30
0.0
 11
3886.5866607127259158
 21
218.9812561182384911
 31
0.0
  0
LINE
  5
AC1E
  8
0
 10
3886.6136533055541804
 20
219.0113031152384906
 30
0.0
 11
3886.5862184413499563
 21
219.0113025942384866
 31
0.0
  0
LINE
  5
AC1F
  8
0
 10
3886.6136546453358278
 20
219.0422401119384972
 30
0.0
 11
3886.5862184413499563
 21
219.0422395909384932
 31
0.0
  0
LINE
  5
AC20
  8
0
 10
3886.6136546453358278
 20
219.0731771087384914
 30
0.0
 11
3886.5866607127259158
 21
219.0731771087384914
 31
0.0
  0
LINE
  5
AC21
  8
0
 10
3886.6136546453358278
 20
219.104114105538514
 30
0.0
 11
3886.5862184413499563
 21
219.1041135845385099
 31
0.0
  0
LINE
  5
AC22
  8
0
 10
3886.6249590898960378
 20
218.9382347238077102
 30
0.0
 11
3886.6128866613321406
 21
218.9262412062998919
 31
0.0
  0
LINE
  5
AC23
  8
0
 10
3886.6128866613321406
 20
218.9262412062998919
 30
0.0
 11
3886.5874286967309672
 21
218.9262412062998919
 31
0.0
  0
LINE
  5
AC24
  8
0
 10
3886.6180491863160569
 20
218.9450773607233032
 30
0.0
 11
3886.6128866613321406
 21
218.9399474904998897
 31
0.0
  0
LINE
  5
AC25
  8
0
 10
3886.6128866613321406
 20
218.9399474904998897
 30
0.0
 11
3886.5874286967309672
 21
218.9399474904998897
 31
0.0
  0
LINE
  5
AC26
  8
0
 10
3886.6128866613321406
 20
218.9399474904998897
 30
0.0
 11
3886.6128866613321406
 21
218.9262412062998919
 31
0.0
  0
LINE
  5
AC27
  8
0
 10
3886.6136546453358278
 20
218.9184972277998895
 30
0.0
 11
3886.5862197811311489
 21
218.9184967067999139
 31
0.0
  0
LINE
  5
AC28
  8
0
 10
3886.6254077398521076
 20
218.969617437977206
 30
0.0
 11
3886.6128866613321406
 21
218.9571782030998861
 31
0.0
  0
LINE
  5
AC29
  8
0
 10
3886.6128866613321406
 20
218.9571782030998861
 30
0.0
 11
3886.5874286967309672
 21
218.9571782030998861
 31
0.0
  0
LINE
  5
AC2A
  8
0
 10
3886.6184977885282024
 20
218.9764601221718863
 30
0.0
 11
3886.6128866613321406
 21
218.9708844872999123
 31
0.0
  0
LINE
  5
AC2B
  8
0
 10
3886.6128866613321406
 20
218.9708844872999123
 30
0.0
 11
3886.5874286967309672
 21
218.9708844872999123
 31
0.0
  0
LINE
  5
AC2C
  8
0
 10
3886.6128866613321406
 20
218.9708844872999123
 30
0.0
 11
3886.6128866613321406
 21
218.9571782030998861
 31
0.0
  0
LINE
  5
AC2D
  8
0
 10
3886.6249638563908775
 20
219.0001134526476108
 30
0.0
 11
3886.6128866613321406
 21
218.9881151997998927
 31
0.0
  0
LINE
  5
AC2E
  8
0
 10
3886.6128866613321406
 20
218.9881151997998927
 30
0.0
 11
3886.5874286967309672
 21
218.9881151997998927
 31
0.0
  0
LINE
  5
AC2F
  8
0
 10
3886.6180628216211517
 20
219.006964903281812
 30
0.0
 11
3886.6128866613321406
 21
219.0018214839998905
 31
0.0
  0
LINE
  5
AC30
  8
0
 10
3886.6128866613321406
 20
219.0018214839998905
 30
0.0
 11
3886.5874286967309672
 21
219.0018214839998905
 31
0.0
  0
LINE
  5
AC31
  8
0
 10
3886.6128866613321406
 20
219.0018214839998905
 30
0.0
 11
3886.6128866613321406
 21
218.9881151997998927
 31
0.0
  0
LINE
  5
AC32
  8
0
 10
3886.6249638563908775
 20
219.0310504494476049
 30
0.0
 11
3886.6128866613321406
 21
219.0190521965998869
 31
0.0
  0
LINE
  5
AC33
  8
0
 10
3886.6128866613321406
 20
219.0190521965998869
 30
0.0
 11
3886.5874286967309672
 21
219.0190521965998869
 31
0.0
  0
LINE
  5
AC34
  8
0
 10
3886.6180628216211517
 20
219.0379019000818062
 30
0.0
 11
3886.6128866613321406
 21
219.0327584807999131
 31
0.0
  0
LINE
  5
AC35
  8
0
 10
3886.6128866613321406
 20
219.0327584807999131
 30
0.0
 11
3886.5874286967309672
 21
219.0327584807999131
 31
0.0
  0
LINE
  5
AC36
  8
0
 10
3886.6128866613321406
 20
219.0327584807999131
 30
0.0
 11
3886.6128866613321406
 21
219.0190521965998869
 31
0.0
  0
LINE
  5
AC37
  8
0
 10
3886.6249638563908775
 20
219.0619874461476115
 30
0.0
 11
3886.6128866613321406
 21
219.0499891932998935
 31
0.0
  0
LINE
  5
AC38
  8
0
 10
3886.6128866613321406
 20
219.0499891932998935
 30
0.0
 11
3886.5874286967309672
 21
219.0499891932998935
 31
0.0
  0
LINE
  5
AC39
  8
0
 10
3886.6180628216211517
 20
219.068838896781898
 30
0.0
 11
3886.6128866613321406
 21
219.0636954774998912
 31
0.0
  0
LINE
  5
AC3A
  8
0
 10
3886.6128866613321406
 20
219.0636954774998912
 30
0.0
 11
3886.5874286967309672
 21
219.0636954774998912
 31
0.0
  0
LINE
  5
AC3B
  8
0
 10
3886.6128866613321406
 20
219.0636954774998912
 30
0.0
 11
3886.6128866613321406
 21
219.0499891932998935
 31
0.0
  0
LINE
  5
AC3C
  8
0
 10
3886.6249638563908775
 20
219.1238614397475999
 30
0.0
 11
3886.6128866613321406
 21
219.1118631868999103
 31
0.0
  0
LINE
  5
AC3D
  8
0
 10
3886.6128866613321406
 20
219.1118631868999103
 30
0.0
 11
3886.5874286967309672
 21
219.1118631868999103
 31
0.0
  0
LINE
  5
AC3E
  8
0
 10
3886.6180628216211517
 20
219.1307128903818011
 30
0.0
 11
3886.6128866613321406
 21
219.125569471099908
 31
0.0
  0
LINE
  5
AC3F
  8
0
 10
3886.6128866613321406
 20
219.125569471099908
 30
0.0
 11
3886.5874286967309672
 21
219.125569471099908
 31
0.0
  0
LINE
  5
AC40
  8
0
 10
3886.6128866613321406
 20
219.125569471099908
 30
0.0
 11
3886.6128866613321406
 21
219.1118631868999103
 31
0.0
  0
ARC
  5
AC41
  8
0
 10
3886.5766551923920815
 20
218.9157956786476973
 30
0.0
 40
0.0054224132569383
 50
179.9949335976342866
 51
295.0786661877302208
  0
LINE
  5
AC42
  8
0
 10
3886.5789535484541375
 20
218.9108844542643908
 30
0.0
 11
3886.5866607127259158
 21
218.9184972277998895
 31
0.0
  0
LINE
  5
AC43
  8
0
 10
3886.571232779156162
 20
218.9157961581267955
 30
0.0
 11
3886.5782553119929617
 21
218.9227721883578965
 31
0.0
  0
LINE
  5
AC44
  8
0
 10
3886.5782553119929617
 20
218.9227721883578965
 30
0.0
 11
3886.5673874356311899
 21
218.933965726099899
 31
0.0
  0
LINE
  5
AC45
  8
0
 10
3886.5595063792347901
 20
218.9339679448530092
 30
0.0
 11
3886.5712327791311509
 21
218.9293875182594036
 31
0.0
  0
LINE
  5
AC46
  8
0
 10
3886.5712327791311509
 20
218.9293875182594036
 30
0.0
 11
3886.571232779156162
 21
218.9157961581267955
 31
0.0
  0
LINE
  5
AC47
  8
0
 10
3886.5348932598822103
 20
218.9289860189300043
 30
0.0
 11
3886.5399164648470105
 21
218.933965726099899
 31
0.0
  0
ARC
  5
AC48
  8
0
 10
3886.5874501714251892
 20
218.9304502600348883
 30
0.0
 40
0.0119790744486375
 50
219.863217994725801
 51
266.2212891812735052
  0
LINE
  5
AC49
  8
0
 10
3886.5206751862219789
 20
218.9494286006793971
 30
0.0
 11
3886.5332493227310806
 21
218.9365393580384875
 31
0.0
  0
ARC
  5
AC4A
  8
0
 10
3886.5395030364561535
 20
218.9428329582237893
 30
0.0
 40
0.0088723355798629
 50
225.1821360477964902
 51
270.0209747803033906
  0
LINE
  5
AC4B
  8
0
 10
3886.5395062844308995
 20
218.9339606232385051
 30
0.0
 11
3886.5673847560678951
 21
218.9339708289612929
 31
0.0
  0
ARC
  5
AC4C
  8
0
 10
3886.5673814908759596
 20
218.9428901934736018
 30
0.0
 40
0.0089193651099378
 50
270.0209747803033906
 51
314.6023331944750794
  0
LINE
  5
AC4D
  8
0
 10
3886.5736445089310109
 20
218.9365396282385063
 30
0.0
 11
3886.5866607127259158
 21
218.9494291216385022
 31
0.0
  0
LINE
  5
AC4E
  8
0
 10
3886.5286406826708117
 20
218.9537028545861972
 30
0.0
 11
3886.5407178777309127
 21
218.9417046017385076
 31
0.0
  0
LINE
  5
AC4F
  8
0
 10
3886.5407178777309127
 20
218.9417046017385076
 30
0.0
 11
3886.5661758423311767
 21
218.9417046017385076
 31
0.0
  0
LINE
  5
AC50
  8
0
 10
3886.5661758423311767
 20
218.9417046017385076
 30
0.0
 11
3886.5782553119929617
 21
218.9537040821965093
 31
0.0
  0
LINE
  5
AC51
  8
0
 10
3886.5782553119929617
 20
218.9537040821965093
 30
0.0
 11
3886.5665137299051821
 21
218.9657975066969016
 31
0.0
  0
LINE
  5
AC52
  8
0
 10
3886.5355417174409922
 20
218.9605543052203984
 30
0.0
 11
3886.5407178777309127
 21
218.9554108859385053
 31
0.0
  0
LINE
  5
AC53
  8
0
 10
3886.5407178777309127
 20
218.9554108859385053
 30
0.0
 11
3886.5661758423311767
 21
218.9554108859385053
 31
0.0
  0
LINE
  5
AC54
  8
0
 10
3886.5661758423311767
 20
218.9554108859385053
 30
0.0
 11
3886.5715409420681681
 21
218.9606185310900912
 31
0.0
  0
LINE
  5
AC55
  8
0
 10
3886.5661758423311767
 20
218.9554108859385053
 30
0.0
 11
3886.5661758423311767
 21
218.9417046017385076
 31
0.0
  0
LINE
  5
AC56
  8
0
 10
3886.5407178777309127
 20
218.9554108859385053
 30
0.0
 11
3886.5407178777309127
 21
218.9417046017385076
 31
0.0
  0
ARC
  5
AC57
  8
0
 10
3886.5206742710252001
 20
218.9583128451307061
 30
0.0
 40
0.008884244498413
 50
269.997858278115018
 51
314.7934228374951999
  0
LINE
  5
AC58
  8
0
 10
3886.5269336899309565
 20
218.9520081266385034
 30
0.0
 11
3886.5408133876671855
 21
218.9657880983415055
 31
0.0
  0
ARC
  5
AC59
  8
0
 10
3886.5874501714251892
 20
218.961382153873501
 30
0.0
 40
0.0119790744486375
 50
219.863217994725801
 51
266.2212891812735052
  0
LINE
  5
AC5A
  8
0
 10
3886.5206752767999205
 20
218.9803763241613126
 30
0.0
 11
3886.5335028894860443
 21
218.9681241629839974
 31
0.0
  0
ARC
  5
AC5B
  8
0
 10
3886.5395030364561535
 20
218.9746599548238919
 30
0.0
 40
0.0088723355798629
 50
225.1821360477964902
 51
270.0209747803033906
  0
LINE
  5
AC5C
  8
0
 10
3886.5395062844308995
 20
218.965787619838494
 30
0.0
 11
3886.5673847560678951
 21
218.9657978255613102
 31
0.0
  0
ARC
  5
AC5D
  8
0
 10
3886.5673814908759596
 20
218.9747171900735907
 30
0.0
 40
0.0089193651099378
 50
270.0209747803033906
 51
314.6023331944750794
  0
LINE
  5
AC5E
  8
0
 10
3886.5736445089310109
 20
218.9683666248384952
 30
0.0
 11
3886.5866607127259158
 21
218.9812561182384911
 31
0.0
  0
LINE
  5
AC5F
  8
0
 10
3886.5286406826708117
 20
218.9855298511861861
 30
0.0
 11
3886.5407178777309127
 21
218.9735315983384965
 31
0.0
  0
LINE
  5
AC60
  8
0
 10
3886.5407178777309127
 20
218.9735315983384965
 30
0.0
 11
3886.5661758423311767
 21
218.9735315983384965
 31
0.0
  0
LINE
  5
AC61
  8
0
 10
3886.5661758423311767
 20
218.9735315983384965
 30
0.0
 11
3886.5782553119929617
 21
218.9855310787964982
 31
0.0
  0
LINE
  5
AC62
  8
0
 10
3886.5782553119929617
 20
218.9855310787964982
 30
0.0
 11
3886.5682047841260101
 21
218.9958827757859012
 31
0.0
  0
LINE
  5
AC63
  8
0
 10
3886.5355417174409922
 20
218.992381301820501
 30
0.0
 11
3886.5407178777309127
 21
218.9872378825384942
 31
0.0
  0
LINE
  5
AC64
  8
0
 10
3886.5407178777309127
 20
218.9872378825384942
 30
0.0
 11
3886.5661758423311767
 21
218.9872378825384942
 31
0.0
  0
LINE
  5
AC65
  8
0
 10
3886.5661758423311767
 20
218.9872378825384942
 30
0.0
 11
3886.5715409420681681
 21
218.9924455276901085
 31
0.0
  0
LINE
  5
AC66
  8
0
 10
3886.5661758423311767
 20
218.9872378825384942
 30
0.0
 11
3886.5661758423311767
 21
218.9735315983384965
 31
0.0
  0
LINE
  5
AC67
  8
0
 10
3886.5407178777309127
 20
218.9872378825384942
 30
0.0
 11
3886.5407178777309127
 21
218.9735315983384965
 31
0.0
  0
ARC
  5
AC68
  8
0
 10
3886.5117994497809377
 20
219.0038278469440058
 30
0.0
 40
0.0250749721056272
 50
290.7304268966350946
 51
307.1252629160339893
  0
LINE
  5
AC69
  8
0
 10
3886.5269336899309565
 20
218.9838351232384923
 30
0.0
 11
3886.5390326630140407
 21
218.9958471648469072
 31
0.0
  0
ARC
  5
AC6A
  8
0
 10
3886.5874501714251892
 20
218.9932091504734899
 30
0.0
 40
0.0119790744486375
 50
219.863217994725801
 51
266.2212891812735052
  0
LINE
  5
AC6B
  8
0
 10
3886.5206766165811132
 20
219.0104233211613121
 30
0.0
 11
3886.5332506625131828
 21
218.9984133516385043
 31
0.0
  0
ARC
  5
AC6C
  8
0
 10
3886.5395043762368914
 20
219.0047069518238914
 30
0.0
 40
0.0088723355798629
 50
225.1821360477964902
 51
270.0209747803033906
  0
LINE
  5
AC6D
  8
0
 10
3886.5395076242120922
 20
218.9958346168384935
 30
0.0
 11
3886.5673860958499972
 21
218.9958448225613097
 31
0.0
  0
ARC
  5
AC6E
  8
0
 10
3886.5673828306580617
 20
219.0047641870735902
 30
0.0
 40
0.0089193651099378
 50
270.0209747803033906
 51
314.6023331944750794
  0
LINE
  5
AC6F
  8
0
 10
3886.5736458487131131
 20
218.9984136218384947
 30
0.0
 11
3886.586662052508018
 21
219.0113031152384906
 31
0.0
  0
LINE
  5
AC70
  8
0
 10
3886.5286420224529138
 20
219.015576848186214
 30
0.0
 11
3886.5407192175130149
 21
219.0035785953384959
 31
0.0
  0
LINE
  5
AC71
  8
0
 10
3886.5407192175130149
 20
219.0035785953384959
 30
0.0
 11
3886.5661771821128241
 21
219.0035785953384959
 31
0.0
  0
LINE
  5
AC72
  8
0
 10
3886.5661771821128241
 20
219.0035785953384959
 30
0.0
 11
3886.5782566517741543
 21
219.0155780757964976
 31
0.0
  0
LINE
  5
AC73
  8
0
 10
3886.5782566517741543
 20
219.0155780757964976
 30
0.0
 11
3886.5673788687049637
 21
219.0267818171060981
 31
0.0
  0
LINE
  5
AC74
  8
0
 10
3886.5355430572230944
 20
219.0224282988205005
 30
0.0
 11
3886.5407192175130149
 21
219.0172848795384937
 31
0.0
  0
LINE
  5
AC75
  8
0
 10
3886.5407192175130149
 20
219.0172848795384937
 30
0.0
 11
3886.5661771821128241
 21
219.0172848795384937
 31
0.0
  0
LINE
  5
AC76
  8
0
 10
3886.5661771821128241
 20
219.0172848795384937
 30
0.0
 11
3886.5715422818498155
 21
219.022492524690108
 31
0.0
  0
LINE
  5
AC77
  8
0
 10
3886.5661771821128241
 20
219.0172848795384937
 30
0.0
 11
3886.5661771821128241
 21
219.0035785953384959
 31
0.0
  0
LINE
  5
AC78
  8
0
 10
3886.5407192175130149
 20
219.0172848795384937
 30
0.0
 11
3886.5407192175130149
 21
219.0035785953384959
 31
0.0
  0
ARC
  5
AC79
  8
0
 10
3886.5192894701990554
 20
219.0203246907869072
 30
0.0
 40
0.009998064590083
 50
277.9750282682027773
 51
319.8806615444967179
  0
LINE
  5
AC7A
  8
0
 10
3886.5269350297130586
 20
219.0138821202384918
 30
0.0
 11
3886.5399179564237784
 21
219.0267717642429943
 31
0.0
  0
ARC
  5
AC7B
  8
0
 10
3886.5874515112059271
 20
219.0232561474734894
 30
0.0
 40
0.0119790744486375
 50
219.863217994725801
 51
266.2212891812735052
  0
LINE
  5
AC7C
  8
0
 10
3886.5206752767999205
 20
219.0413603178612902
 30
0.0
 11
3886.5332493227310806
 21
219.0293503483385109
 31
0.0
  0
ARC
  5
AC7D
  8
0
 10
3886.5395030364561535
 20
219.0356439485238127
 30
0.0
 40
0.0088723355798629
 50
225.1821360477964902
 51
270.0209747803033906
  0
LINE
  5
AC7E
  8
0
 10
3886.5395062844308995
 20
219.0267716135385001
 30
0.0
 11
3886.5673847560678951
 21
219.0267818192612879
 31
0.0
  0
ARC
  5
AC7F
  8
0
 10
3886.5673814908759596
 20
219.0357011837735968
 30
0.0
 40
0.0089193651099378
 50
270.0209747803033906
 51
314.6023331944750794
  0
LINE
  5
AC80
  8
0
 10
3886.5736445089310109
 20
219.0293506185385013
 30
0.0
 11
3886.5866607127259158
 21
219.0422401119384972
 31
0.0
  0
LINE
  5
AC81
  8
0
 10
3886.5286406826708117
 20
219.0465138448861921
 30
0.0
 11
3886.5407178777309127
 21
219.0345155920385025
 31
0.0
  0
LINE
  5
AC82
  8
0
 10
3886.5407178777309127
 20
219.0345155920385025
 30
0.0
 11
3886.5661758423311767
 21
219.0345155920385025
 31
0.0
  0
LINE
  5
AC83
  8
0
 10
3886.5661758423311767
 20
219.0345155920385025
 30
0.0
 11
3886.5782553119929617
 21
219.0465150724965042
 31
0.0
  0
LINE
  5
AC84
  8
0
 10
3886.5782553119929617
 20
219.0465150724965042
 30
0.0
 11
3886.5673775293030303
 21
219.0577188134157041
 31
0.0
  0
LINE
  5
AC85
  8
0
 10
3886.5355417174409922
 20
219.0533652955203934
 30
0.0
 11
3886.5407178777309127
 21
219.0482218762385003
 31
0.0
  0
LINE
  5
AC86
  8
0
 10
3886.5407178777309127
 20
219.0482218762385003
 30
0.0
 11
3886.5661758423311767
 21
219.0482218762385003
 31
0.0
  0
LINE
  5
AC87
  8
0
 10
3886.5661758423311767
 20
219.0482218762385003
 30
0.0
 11
3886.5715409420681681
 21
219.0534295213900862
 31
0.0
  0
LINE
  5
AC88
  8
0
 10
3886.5661758423311767
 20
219.0482218762385003
 30
0.0
 11
3886.5661758423311767
 21
219.0345155920385025
 31
0.0
  0
LINE
  5
AC89
  8
0
 10
3886.5407178777309127
 20
219.0482218762385003
 30
0.0
 11
3886.5407178777309127
 21
219.0345155920385025
 31
0.0
  0
ARC
  5
AC8A
  8
0
 10
3886.5192166809401897
 20
219.0513909694550136
 30
0.0
 40
0.0101361468653803
 50
278.2736105299115934
 51
319.5820792827622085
  0
LINE
  5
AC8B
  8
0
 10
3886.5269336899309565
 20
219.0448191169384984
 30
0.0
 11
3886.5399166162487745
 21
219.0577087605522877
 31
0.0
  0
ARC
  5
AC8C
  8
0
 10
3886.5874501714251892
 20
219.054193144173496
 30
0.0
 40
0.0119790744486375
 50
219.863217994725801
 51
266.2212891812735052
  0
LINE
  5
AC8D
  8
0
 10
3886.5206752767999205
 20
219.0722973146613128
 30
0.0
 11
3886.5332493227310806
 21
219.0602873451385051
 31
0.0
  0
ARC
  5
AC8E
  8
0
 10
3886.5395030364561535
 20
219.0665809453238069
 30
0.0
 40
0.0088723355798629
 50
225.1821360477964902
 51
270.0209747803033906
  0
LINE
  5
AC8F
  8
0
 10
3886.5395062844308995
 20
219.0577086103384943
 30
0.0
 11
3886.5673847560678951
 21
219.0577188160613105
 31
0.0
  0
ARC
  5
AC90
  8
0
 10
3886.5673814908759596
 20
219.0666381805735909
 30
0.0
 40
0.0089193651099378
 50
270.0209747803033906
 51
314.6023331944750794
  0
LINE
  5
AC91
  8
0
 10
3886.5736445089310109
 20
219.0602876153384955
 30
0.0
 11
3886.5866607127259158
 21
219.0731771087384914
 31
0.0
  0
LINE
  5
AC92
  8
0
 10
3886.5286406826708117
 20
219.0774508416861863
 30
0.0
 11
3886.5407178777309127
 21
219.0654525888384967
 31
0.0
  0
LINE
  5
AC93
  8
0
 10
3886.5407178777309127
 20
219.0654525888384967
 30
0.0
 11
3886.5661758423311767
 21
219.0654525888384967
 31
0.0
  0
LINE
  5
AC94
  8
0
 10
3886.5661758423311767
 20
219.0654525888384967
 30
0.0
 11
3886.5782553119929617
 21
219.0774520692964984
 31
0.0
  0
LINE
  5
AC95
  8
0
 10
3886.5782553119929617
 20
219.0774520692964984
 30
0.0
 11
3886.5673775293030303
 21
219.0886558102156982
 31
0.0
  0
LINE
  5
AC96
  8
0
 10
3886.5355417174409922
 20
219.0843022923203876
 30
0.0
 11
3886.5407178777309127
 21
219.0791588730384944
 31
0.0
  0
LINE
  5
AC97
  8
0
 10
3886.5407178777309127
 20
219.0791588730384944
 30
0.0
 11
3886.5661758423311767
 21
219.0791588730384944
 31
0.0
  0
LINE
  5
AC98
  8
0
 10
3886.5661758423311767
 20
219.0791588730384944
 30
0.0
 11
3886.5715409420681681
 21
219.0843665181901088
 31
0.0
  0
LINE
  5
AC99
  8
0
 10
3886.5661758423311767
 20
219.0791588730384944
 30
0.0
 11
3886.5661758423311767
 21
219.0654525888384967
 31
0.0
  0
LINE
  5
AC9A
  8
0
 10
3886.5407178777309127
 20
219.0791588730384944
 30
0.0
 11
3886.5407178777309127
 21
219.0654525888384967
 31
0.0
  0
ARC
  5
AC9B
  8
0
 10
3886.518159410582939
 20
219.0842410102133897
 30
0.0
 40
0.0122057956011742
 50
281.8951072246917988
 51
315.9605825880046837
  0
LINE
  5
AC9C
  8
0
 10
3886.5269336899309565
 20
219.0757561137384926
 30
0.0
 11
3886.5399166162487745
 21
219.0886457573523103
 31
0.0
  0
ARC
  5
AC9D
  8
0
 10
3886.5874501714251892
 20
219.0851301409734901
 30
0.0
 40
0.0119790744486375
 50
219.863217994725801
 51
266.2212891812735052
  0
LINE
  5
AC9E
  8
0
 10
3886.5206794159807941
 20
219.1037145853674133
 30
0.0
 11
3886.5332493227310806
 21
219.0912243419384993
 31
0.0
  0
ARC
  5
AC9F
  8
0
 10
3886.5395030364561535
 20
219.097517942123801
 30
0.0
 40
0.0088723355798629
 50
225.1821360477964902
 51
270.0209747803033906
  0
LINE
  5
ACA0
  8
0
 10
3886.5395062844308995
 20
219.0886456071384885
 30
0.0
 11
3886.5673847560678951
 21
219.0886558128613046
 31
0.0
  0
ARC
  5
ACA1
  8
0
 10
3886.5673814908759596
 20
219.0975751773736135
 30
0.0
 40
0.0089193651099378
 50
270.0209747803033906
 51
314.6023331944750794
  0
LINE
  5
ACA2
  8
0
 10
3886.5736445089310109
 20
219.0912246121384896
 30
0.0
 11
3886.5866607127259158
 21
219.104114105538514
 31
0.0
  0
LINE
  5
ACA3
  8
0
 10
3886.5289900195411974
 20
219.1080407850465122
 30
0.0
 11
3886.5407178777309127
 21
219.0963895856384909
 31
0.0
  0
LINE
  5
ACA4
  8
0
 10
3886.5407178777309127
 20
219.0963895856384909
 30
0.0
 11
3886.5661758423311767
 21
219.0963895856384909
 31
0.0
  0
LINE
  5
ACA5
  8
0
 10
3886.5661758423311767
 20
219.0963895856384909
 30
0.0
 11
3886.5782553119929617
 21
219.1083890660966063
 31
0.0
  0
LINE
  5
ACA6
  8
0
 10
3886.5782553119929617
 20
219.1083890660966063
 30
0.0
 11
3886.567377529398982
 21
219.1195928069157048
 31
0.0
  0
LINE
  5
ACA7
  8
0
 10
3886.5379090304732017
 20
219.1128869501646079
 30
0.0
 11
3886.5407178777309127
 21
219.1100958698384886
 31
0.0
  0
LINE
  5
ACA8
  8
0
 10
3886.5407178777309127
 20
219.1100958698384886
 30
0.0
 11
3886.5661758423311767
 21
219.1100958698384886
 31
0.0
  0
LINE
  5
ACA9
  8
0
 10
3886.5661758423311767
 20
219.1100958698384886
 30
0.0
 11
3886.5715409420681681
 21
219.1153035149901882
 31
0.0
  0
LINE
  5
ACAA
  8
0
 10
3886.5661758423311767
 20
219.1100958698384886
 30
0.0
 11
3886.5661758423311767
 21
219.0963895856384909
 31
0.0
  0
LINE
  5
ACAB
  8
0
 10
3886.5407178777309127
 20
219.1100958698384886
 30
0.0
 11
3886.5407178777309127
 21
219.0963895856384909
 31
0.0
  0
ARC
  5
ACAC
  8
0
 10
3886.5874501714251892
 20
219.1160671377735127
 30
0.0
 40
0.0119790744486375
 50
219.863217994725801
 51
266.2212891812735052
  0
LINE
  5
ACAD
  8
0
 10
3886.5515138380510507
 20
219.1195869995515864
 30
0.0
 11
3886.5673847560678951
 21
219.1195928095613112
 31
0.0
  0
ARC
  5
ACAE
  8
0
 10
3886.5673814908759596
 20
219.1285121740735917
 30
0.0
 40
0.0089193651099378
 50
270.0209747803033906
 51
314.6023331944750794
  0
LINE
  5
ACAF
  8
0
 10
3886.5736445089310109
 20
219.1221616088384962
 30
0.0
 11
3886.5841174642177975
 21
219.1325326117948862
 31
0.0
  0
LINE
  5
ACB0
  8
0
 10
3886.5753562681670701
 20
218.9382347238077102
 30
0.0
 11
3886.5874286967309672
 21
218.9262412062998919
 31
0.0
  0
LINE
  5
ACB1
  8
0
 10
3886.58226617174887
 20
218.9450773607235021
 30
0.0
 11
3886.5874286967309672
 21
218.9399474904998897
 31
0.0
  0
LINE
  5
ACB2
  8
0
 10
3886.5874286967309672
 20
218.9399474904998897
 30
0.0
 11
3886.5874286967309672
 21
218.9262412062998919
 31
0.0
  0
LINE
  5
ACB3
  8
0
 10
3886.5749076182110002
 20
218.9696174379776039
 30
0.0
 11
3886.5874286967309672
 21
218.9571782030998861
 31
0.0
  0
LINE
  5
ACB4
  8
0
 10
3886.5818175695349055
 20
218.9764601221718863
 30
0.0
 11
3886.5874286967309672
 21
218.9708844872999123
 31
0.0
  0
LINE
  5
ACB5
  8
0
 10
3886.5874286967309672
 20
218.9708844872999123
 30
0.0
 11
3886.5874286967309672
 21
218.9571782030998861
 31
0.0
  0
LINE
  5
ACB6
  8
0
 10
3886.5753515016708661
 20
219.0001134526476108
 30
0.0
 11
3886.5874286967309672
 21
218.9881151997998927
 31
0.0
  0
LINE
  5
ACB7
  8
0
 10
3886.5822525364419562
 20
219.006964903281812
 30
0.0
 11
3886.5874286967309672
 21
219.0018214839998905
 31
0.0
  0
LINE
  5
ACB8
  8
0
 10
3886.5874286967309672
 20
219.0018214839998905
 30
0.0
 11
3886.5874286967309672
 21
218.9881151997998927
 31
0.0
  0
LINE
  5
ACB9
  8
0
 10
3886.5753515016708661
 20
219.0310504494476049
 30
0.0
 11
3886.5874286967309672
 21
219.0190521965998869
 31
0.0
  0
LINE
  5
ACBA
  8
0
 10
3886.5822525364419562
 20
219.0379019000818062
 30
0.0
 11
3886.5874286967309672
 21
219.0327584807999131
 31
0.0
  0
LINE
  5
ACBB
  8
0
 10
3886.5874286967309672
 20
219.0327584807999131
 30
0.0
 11
3886.5874286967309672
 21
219.0190521965998869
 31
0.0
  0
LINE
  5
ACBC
  8
0
 10
3886.5753515016708661
 20
219.0619874461476115
 30
0.0
 11
3886.5874286967309672
 21
219.0499891932998935
 31
0.0
  0
LINE
  5
ACBD
  8
0
 10
3886.5822525364419562
 20
219.068838896781898
 30
0.0
 11
3886.5874286967309672
 21
219.0636954774998912
 31
0.0
  0
LINE
  5
ACBE
  8
0
 10
3886.5874286967309672
 20
219.0636954774998912
 30
0.0
 11
3886.5874286967309672
 21
219.0499891932998935
 31
0.0
  0
LINE
  5
ACBF
  8
0
 10
3886.5753515016708661
 20
219.1238614397475999
 30
0.0
 11
3886.5874286967309672
 21
219.1118631868999103
 31
0.0
  0
LINE
  5
ACC0
  8
0
 10
3886.5822525364419562
 20
219.1307128903818011
 30
0.0
 11
3886.5874286967309672
 21
219.125569471099908
 31
0.0
  0
LINE
  5
ACC1
  8
0
 10
3886.5874286967309672
 20
219.125569471099908
 30
0.0
 11
3886.5874286967309672
 21
219.1118631868999103
 31
0.0
  0
ARC
  5
ACC2
  8
0
 10
3886.5339065897169348
 20
218.9345954981226896
 30
0.0
 40
0.005695592579206
 50
176.5283143394538001
 51
279.9759029524134917
  0
LINE
  5
ACC3
  8
0
 10
3886.5282214494309301
 20
218.9349403962999077
 30
0.0
 11
3886.5282214494309301
 21
218.941535366576602
 31
0.0
  0
ARC
  5
ACC4
  8
0
 10
3886.5047564498581778
 20
218.9572922858033905
 30
0.0
 40
0.0084608911808288
 50
180.7725729313482077
 51
248.2409512105967906
  0
LINE
  5
ACC5
  8
0
 10
3886.5016199626311391
 20
218.9494342244998961
 30
0.0
 11
3886.5206751862219789
 21
218.9494286006793971
 31
0.0
  0
LINE
  5
ACC6
  8
0
 10
3886.4962963278321695
 20
218.9571782030998861
 30
0.0
 11
3886.5194663630632022
 21
218.9570547500105135
 31
0.0
  0
LINE
  5
ACC7
  8
0
 10
3886.5194663630632022
 20
218.9570547500105135
 30
0.0
 11
3886.53245361761401
 21
218.9691263641263106
 31
0.0
  0
LINE
  5
ACC8
  8
0
 10
3886.4901980040931448
 20
218.9764887566722109
 30
0.0
 11
3886.4962963278321695
 21
218.9708844872999123
 31
0.0
  0
LINE
  5
ACC9
  8
0
 10
3886.4962963278321695
 20
218.9708844872999123
 30
0.0
 11
3886.5194663630632022
 21
218.9699893845385077
 31
0.0
  0
LINE
  5
ACCA
  8
0
 10
3886.5194663630632022
 20
218.9699893845385077
 30
0.0
 11
3886.5254595455439812
 21
218.9758066795041884
 31
0.0
  0
LINE
  5
ACCB
  8
0
 10
3886.5194663630632022
 20
218.9699893845385077
 30
0.0
 11
3886.5194663630632022
 21
218.9570547500105135
 31
0.0
  0
LINE
  5
ACCC
  8
0
 10
3886.4962963278321695
 20
218.9708844872999123
 30
0.0
 11
3886.4962963278321695
 21
218.9571782030998861
 31
0.0
  0
ARC
  5
ACCD
  8
0
 10
3886.4853629958452075
 20
218.9762613114249064
 30
0.0
 40
0.00809391887453
 50
173.4503019502323866
 51
248.4298811204292008
  0
LINE
  5
ACCE
  8
0
 10
3886.4823873507320968
 20
218.9687342230830041
 30
0.0
 11
3886.4941039083978467
 21
218.9803665969415931
 31
0.0
  0
LINE
  5
ACCF
  8
0
 10
3886.4735678683841797
 20
218.9958346168384935
 30
0.0
 11
3886.4865398434621966
 21
218.9829448532385072
 31
0.0
  0
ARC
  5
ACD0
  8
0
 10
3886.4927935571868147
 20
218.9892384534238943
 30
0.0
 40
0.0088723355798629
 50
225.1821360477964902
 51
270.0209747803033906
  0
LINE
  5
ACD1
  8
0
 10
3886.492796805162925
 20
218.9803661184384964
 30
0.0
 11
3886.5206752767999205
 21
218.9803763241613126
 31
0.0
  0
LINE
  5
ACD2
  8
0
 10
3886.4819312034028371
 20
219.0001083497861885
 30
0.0
 11
3886.4940083984629382
 21
218.9881100969384988
 31
0.0
  0
LINE
  5
ACD3
  8
0
 10
3886.4940083984629382
 20
218.9881100969384988
 30
0.0
 11
3886.5194663630632022
 21
218.9881100969384988
 31
0.0
  0
LINE
  5
ACD4
  8
0
 10
3886.5194663630632022
 20
218.9881100969384988
 30
0.0
 11
3886.5315458327240776
 21
219.0001095773965005
 31
0.0
  0
LINE
  5
ACD5
  8
0
 10
3886.4888322381730177
 20
219.0069598004205034
 30
0.0
 11
3886.4940083984629382
 21
219.0018163811384966
 31
0.0
  0
LINE
  5
ACD6
  8
0
 10
3886.4940083984629382
 20
219.0018163811384966
 30
0.0
 11
3886.5194663630632022
 21
219.0018163811384966
 31
0.0
  0
LINE
  5
ACD7
  8
0
 10
3886.5194663630632022
 20
219.0018163811384966
 30
0.0
 11
3886.5245359150558215
 21
219.0067371522613087
 31
0.0
  0
LINE
  5
ACD8
  8
0
 10
3886.5194663630632022
 20
219.0018163811384966
 30
0.0
 11
3886.5194663630632022
 21
218.9881100969384988
 31
0.0
  0
LINE
  5
ACD9
  8
0
 10
3886.4940083984629382
 20
219.0018163811384966
 30
0.0
 11
3886.4940083984629382
 21
218.9881100969384988
 31
0.0
  0
ARC
  5
ACDA
  8
0
 10
3886.4739380613391404
 20
219.0047585811759063
 30
0.0
 40
0.0089316393970375
 50
267.6245602287626753
 51
314.7332347226234219
  0
LINE
  5
ACDB
  8
0
 10
3886.4802242106629819
 20
218.9984136218384947
 30
0.0
 11
3886.4923231837451567
 21
219.0104256634469095
 31
0.0
  0
LINE
  5
ACDC
  8
0
 10
3886.4743832084441237
 20
219.0258848912721987
 30
0.0
 11
3886.4865411832452082
 21
219.0129918502385067
 31
0.0
  0
ARC
  5
ACDD
  8
0
 10
3886.4927948969689169
 20
219.0192854504238937
 30
0.0
 40
0.0088723355798629
 50
225.1821360477964902
 51
270.0209747803033906
  0
LINE
  5
ACDE
  8
0
 10
3886.4927981449441177
 20
219.0104131154384959
 30
0.0
 11
3886.5206766165811132
 21
219.0104233211613121
 31
0.0
  0
LINE
  5
ACDF
  8
0
 10
3886.4819325431849393
 20
219.0301553467861879
 30
0.0
 11
3886.4940097382450404
 21
219.0181570939384983
 31
0.0
  0
LINE
  5
ACE0
  8
0
 10
3886.4940097382450404
 20
219.0181570939384983
 30
0.0
 11
3886.5194677028448496
 21
219.0181570939384983
 31
0.0
  0
LINE
  5
ACE1
  8
0
 10
3886.5194677028448496
 20
219.0181570939384983
 30
0.0
 11
3886.5319677820111792
 21
219.0305743986621962
 31
0.0
  0
LINE
  5
ACE2
  8
0
 10
3886.4888335779551198
 20
219.0370067974205028
 30
0.0
 11
3886.4940097382450404
 21
219.031863378138496
 31
0.0
  0
LINE
  5
ACE3
  8
0
 10
3886.4940097382450404
 20
219.031863378138496
 30
0.0
 11
3886.5194677028448496
 21
219.031863378138496
 31
0.0
  0
LINE
  5
ACE4
  8
0
 10
3886.5194677028448496
 20
219.031863378138496
 30
0.0
 11
3886.5249980732878612
 21
219.0372314436424972
 31
0.0
  0
LINE
  5
ACE5
  8
0
 10
3886.5194677028448496
 20
219.031863378138496
 30
0.0
 11
3886.5194677028448496
 21
219.0181570939384983
 31
0.0
  0
LINE
  5
ACE6
  8
0
 10
3886.4940097382450404
 20
219.031863378138496
 30
0.0
 11
3886.4940097382450404
 21
219.0181570939384983
 31
0.0
  0
ARC
  5
ACE7
  8
0
 10
3886.4739402933491874
 20
219.0348032753560972
 30
0.0
 40
0.0089293755911456
 50
272.8431532571457865
 51
314.7395672694964901
  0
LINE
  5
ACE8
  8
0
 10
3886.4802255504450841
 20
219.0284606188384942
 30
0.0
 11
3886.4932084771558038
 21
219.0413502628429967
 31
0.0
  0
LINE
  5
ACE9
  8
0
 10
3886.4735678683841797
 20
219.0568186105384996
 30
0.0
 11
3886.4865398434621966
 21
219.0439288469385133
 31
0.0
  0
ARC
  5
ACEA
  8
0
 10
3886.4927935571868147
 20
219.0502224471237867
 30
0.0
 40
0.0088723355798629
 50
225.1821360477964902
 51
270.0209747803033906
  0
LINE
  5
ACEB
  8
0
 10
3886.492796805162925
 20
219.0413501121385025
 30
0.0
 11
3886.5206752767999205
 21
219.0413603178612902
 31
0.0
  0
LINE
  5
ACEC
  8
0
 10
3886.4819312034028371
 20
219.0610923434861945
 30
0.0
 11
3886.4940083984629382
 21
219.0490940906385049
 31
0.0
  0
LINE
  5
ACED
  8
0
 10
3886.4940083984629382
 20
219.0490940906385049
 30
0.0
 11
3886.5194663630632022
 21
219.0490940906385049
 31
0.0
  0
LINE
  5
ACEE
  8
0
 10
3886.5194663630632022
 20
219.0490940906385049
 30
0.0
 11
3886.5319670990261329
 21
219.0615120478088045
 31
0.0
  0
LINE
  5
ACEF
  8
0
 10
3886.4888322381730177
 20
219.0679437941203958
 30
0.0
 11
3886.4940083984629382
 21
219.0628003748385026
 31
0.0
  0
LINE
  5
ACF0
  8
0
 10
3886.4940083984629382
 20
219.0628003748385026
 30
0.0
 11
3886.5194663630632022
 21
219.0628003748385026
 31
0.0
  0
LINE
  5
ACF1
  8
0
 10
3886.5194663630632022
 20
219.0628003748385026
 30
0.0
 11
3886.524997398053074
 21
219.0681690853861028
 31
0.0
  0
LINE
  5
ACF2
  8
0
 10
3886.5194663630632022
 20
219.0628003748385026
 30
0.0
 11
3886.5194663630632022
 21
219.0490940906385049
 31
0.0
  0
LINE
  5
ACF3
  8
0
 10
3886.4940083984629382
 20
219.0628003748385026
 30
0.0
 11
3886.4940083984629382
 21
219.0490940906385049
 31
0.0
  0
ARC
  5
ACF4
  8
0
 10
3886.4739380613391404
 20
219.0657425748759124
 30
0.0
 40
0.0089316393970366
 50
267.6245602287626753
 51
314.7332347226234219
  0
LINE
  5
ACF5
  8
0
 10
3886.4802242106629819
 20
219.0593976155385008
 30
0.0
 11
3886.4932071369808
 21
219.0722872591522901
 31
0.0
  0
LINE
  5
ACF6
  8
0
 10
3886.4846748796621796
 20
219.0767189881030959
 30
0.0
 11
3886.4865398434621966
 21
219.0748658437385075
 31
0.0
  0
ARC
  5
ACF7
  8
0
 10
3886.4927935571868147
 20
219.0811594439238092
 30
0.0
 40
0.0088723355798629
 50
225.1821360477964902
 51
270.0209747803033906
  0
LINE
  5
ACF8
  8
0
 10
3886.492796805162925
 20
219.0722871089384967
 30
0.0
 11
3886.5206752767999205
 21
219.0722973146613128
 31
0.0
  0
LINE
  5
ACF9
  8
0
 10
3886.4908483455787973
 20
219.0831704847338131
 30
0.0
 11
3886.4940083984629382
 21
219.0800310874384991
 31
0.0
  0
LINE
  5
ACFA
  8
0
 10
3886.4940083984629382
 20
219.0800310874384991
 30
0.0
 11
3886.5194663630632022
 21
219.0800310874384991
 31
0.0
  0
LINE
  5
ACFB
  8
0
 10
3886.5194663630632022
 20
219.0800310874384991
 30
0.0
 11
3886.5319919574958476
 21
219.0924737384682999
 31
0.0
  0
LINE
  5
ACFC
  8
0
 10
3886.5035879534380001
 20
219.0937373716384968
 30
0.0
 11
3886.5194663630632022
 21
219.0937373716384968
 31
0.0
  0
LINE
  5
ACFD
  8
0
 10
3886.5194663630632022
 20
219.0937373716384968
 30
0.0
 11
3886.525159228991015
 21
219.0992631637207069
 31
0.0
  0
LINE
  5
ACFE
  8
0
 10
3886.5194663630632022
 20
219.0937373716384968
 30
0.0
 11
3886.5194663630632022
 21
219.0800310874384991
 31
0.0
  0
LINE
  5
ACFF
  8
0
 10
3886.4940083984629382
 20
219.0861008915464936
 30
0.0
 11
3886.4940083984629382
 21
219.0800310874384991
 31
0.0
  0
LINE
  5
AD00
  8
0
 10
3886.4735678683841797
 20
218.9958346168384935
 30
0.0
 11
3886.4642794151309317
 21
218.9958397196998874
 31
0.0
  0
ARC
  5
AD01
  8
0
 10
3886.4771183988291341
 20
219.0028659563218127
 30
0.0
 40
0.0146358294418854
 50
177.1890843888535017
 51
208.6900363190462997
  0
LINE
  5
AD02
  8
0
 10
3886.4625001790309398
 20
219.0035836981998898
 30
0.0
 11
3886.4625001790309398
 21
219.0172899823998875
 31
0.0
  0
LINE
  5
AD03
  8
0
 10
3886.4625001790309398
 20
219.0172899823998875
 30
0.0
 11
3886.4594373802938208
 21
219.0268114241715125
 31
0.0
  0
LINE
  5
AD04
  8
0
 10
3886.4594373802938208
 20
219.0268114241715125
 30
0.0
 11
3886.4743832084441237
 21
219.0258848912721987
 31
0.0
  0
LINE
  5
AD05
  8
0
 10
3886.4774847242488249
 20
219.0529265782267885
 30
0.0
 11
3886.4727542043310677
 21
219.0482269791999101
 31
0.0
  0
LINE
  5
AD06
  8
0
 10
3886.4727542043310677
 20
219.0482269791999101
 30
0.0
 11
3886.4664156073349659
 21
219.0482269791999101
 31
0.0
  0
LINE
  5
AD07
  8
0
 10
3886.4773219036310365
 20
218.9771845441999005
 30
0.0
 11
3886.4772511850610499
 21
218.9921746436318131
 31
0.0
  0
LINE
  5
AD08
  8
0
 10
3886.693579317081003
 20
218.9399474904998897
 30
0.0
 11
3886.6808503347319856
 21
218.9399474904998897
 31
0.0
  0
LINE
  5
AD09
  8
0
 10
3886.6808503347319856
 20
218.9399474904998897
 30
0.0
 11
3886.6756696167981318
 21
218.9450943449384965
 31
0.0
  0
LINE
  5
AD0A
  8
0
 10
3886.693579317081003
 20
218.9262412062998919
 30
0.0
 11
3886.6808503347319856
 21
218.9262412062998919
 31
0.0
  0
LINE
  5
AD0B
  8
0
 10
3886.6808503347319856
 20
218.9262412062998919
 30
0.0
 11
3886.6808503347319856
 21
218.9399474904998897
 31
0.0
  0
LINE
  5
AD0C
  8
0
 10
3886.6808503347319856
 20
218.9262412062998919
 30
0.0
 11
3886.6687750599580795
 21
218.9382375515124863
 31
0.0
  0
LINE
  5
AD0D
  8
0
 10
3886.693579317081003
 20
218.9708844872999123
 30
0.0
 11
3886.6808503347319856
 21
218.9708844872999123
 31
0.0
  0
LINE
  5
AD0E
  8
0
 10
3886.6808503347319856
 20
218.9708844872999123
 30
0.0
 11
3886.6752247189160698
 21
218.9764733315680871
 31
0.0
  0
LINE
  5
AD0F
  8
0
 10
3886.693579317081003
 20
218.9571782030998861
 30
0.0
 11
3886.6808503347319856
 21
218.9571782030998861
 31
0.0
  0
LINE
  5
AD10
  8
0
 10
3886.6808503347319856
 20
218.9571782030998861
 30
0.0
 11
3886.6808503347319856
 21
218.9708844872999123
 31
0.0
  0
LINE
  5
AD11
  8
0
 10
3886.6808503347319856
 20
218.9571782030998861
 30
0.0
 11
3886.6683271770161809
 21
218.9696195036842994
 31
0.0
  0
LINE
  5
AD12
  8
0
 10
3886.693579317081003
 20
219.0018214839998905
 30
0.0
 11
3886.6808503347319856
 21
219.0018214839998905
 31
0.0
  0
LINE
  5
AD13
  8
0
 10
3886.6808503347319856
 20
219.0018214839998905
 30
0.0
 11
3886.6756696167981318
 21
219.0069683384384973
 31
0.0
  0
LINE
  5
AD14
  8
0
 10
3886.693579317081003
 20
218.9881151997998927
 30
0.0
 11
3886.6808503347319856
 21
218.9881151997998927
 31
0.0
  0
LINE
  5
AD15
  8
0
 10
3886.6808503347319856
 20
218.9881151997998927
 30
0.0
 11
3886.6808503347319856
 21
219.0018214839998905
 31
0.0
  0
LINE
  5
AD16
  8
0
 10
3886.6808503347319856
 20
218.9881151997998927
 30
0.0
 11
3886.6687750599580795
 21
219.0001115450124871
 31
0.0
  0
LINE
  5
AD17
  8
0
 10
3886.693579317081003
 20
219.0636954775999072
 30
0.0
 11
3886.6808503347319856
 21
219.0636954775999072
 31
0.0
  0
LINE
  5
AD18
  8
0
 10
3886.6808503347319856
 20
219.0636954775999072
 30
0.0
 11
3886.6756696167981318
 21
219.0688423320385141
 31
0.0
  0
LINE
  5
AD19
  8
0
 10
3886.693579317081003
 20
219.0499891933999095
 30
0.0
 11
3886.6808503347319856
 21
219.0499891933999095
 31
0.0
  0
LINE
  5
AD1A
  8
0
 10
3886.6808503347319856
 20
219.0499891933999095
 30
0.0
 11
3886.6808503347319856
 21
219.0636954775999072
 31
0.0
  0
LINE
  5
AD1B
  8
0
 10
3886.6808503347319856
 20
219.0499891933999095
 30
0.0
 11
3886.6687750599580795
 21
219.0619855386125039
 31
0.0
  0
LINE
  5
AD1C
  8
0
 10
3886.693579317081003
 20
219.0946324742999138
 30
0.0
 11
3886.6808503347319856
 21
219.0946324742999138
 31
0.0
  0
LINE
  5
AD1D
  8
0
 10
3886.6808503347319856
 20
219.0946324742999138
 30
0.0
 11
3886.6756696167981318
 21
219.099779328738407
 31
0.0
  0
LINE
  5
AD1E
  8
0
 10
3886.693579317081003
 20
219.0809261900998877
 30
0.0
 11
3886.6808503347319856
 21
219.0809261900998877
 31
0.0
  0
LINE
  5
AD1F
  8
0
 10
3886.6808503347319856
 20
219.0809261900998877
 30
0.0
 11
3886.6808503347319856
 21
219.0946324742999138
 31
0.0
  0
LINE
  5
AD20
  8
0
 10
3886.6808503347319856
 20
219.0809261900998877
 30
0.0
 11
3886.6687750599580795
 21
219.0929225353125105
 31
0.0
  0
LINE
  5
AD21
  8
0
 10
3886.693579317081003
 20
219.125569471099908
 30
0.0
 11
3886.6808503347319856
 21
219.125569471099908
 31
0.0
  0
LINE
  5
AD22
  8
0
 10
3886.6808503347319856
 20
219.125569471099908
 30
0.0
 11
3886.6756696167981318
 21
219.1307163255384012
 31
0.0
  0
LINE
  5
AD23
  8
0
 10
3886.693579317081003
 20
219.1118631868999103
 30
0.0
 11
3886.6808503347319856
 21
219.1118631868999103
 31
0.0
  0
LINE
  5
AD24
  8
0
 10
3886.6808503347319856
 20
219.1118631868999103
 30
0.0
 11
3886.6808503347319856
 21
219.125569471099908
 31
0.0
  0
LINE
  5
AD25
  8
0
 10
3886.6808503347319856
 20
219.1118631868999103
 30
0.0
 11
3886.6687750599580795
 21
219.1238595321125047
 31
0.0
  0
LINE
  5
AD26
  8
0
 10
3886.7071206237537808
 20
218.9184972277998895
 30
0.0
 11
3886.7200925988317977
 21
218.9056074641999032
 31
0.0
  0
ARC
  5
AD27
  8
0
 10
3886.7263463125568705
 20
218.9119010643852903
 30
0.0
 40
0.0088723355798629
 50
225.1821360477964902
 51
270.0209747803033906
  0
LINE
  5
AD28
  8
0
 10
3886.7263495605320713
 20
218.9030287293998924
 30
0.0
 11
3886.7542280321690669
 21
218.9030389351227086
 31
0.0
  0
ARC
  5
AD29
  8
0
 10
3886.7542247669780409
 20
218.9119582996349891
 30
0.0
 40
0.0089193651099378
 50
270.0209747803033906
 51
314.6023331944750794
  0
LINE
  5
AD2A
  8
0
 10
3886.7604877850321827
 20
218.9056077343998936
 30
0.0
 11
3886.7735039888270876
 21
218.9184972277998895
 31
0.0
  0
LINE
  5
AD2B
  8
0
 10
3886.7154839587728929
 20
218.9227709607476129
 30
0.0
 11
3886.727561153832994
 21
218.9107727078998948
 31
0.0
  0
LINE
  5
AD2C
  8
0
 10
3886.727561153832994
 20
218.9107727078998948
 30
0.0
 11
3886.7530191184318937
 21
218.9107727078998948
 31
0.0
  0
LINE
  5
AD2D
  8
0
 10
3886.7530191184318937
 20
218.9107727078998948
 30
0.0
 11
3886.7650985880941334
 21
218.9227721883578965
 31
0.0
  0
LINE
  5
AD2E
  8
0
 10
3886.7650985880941334
 20
218.9227721883578965
 30
0.0
 11
3886.7542307117328164
 21
218.933965726099899
 31
0.0
  0
LINE
  5
AD2F
  8
0
 10
3886.7223849935430735
 20
218.9296224113818141
 30
0.0
 11
3886.727561153832994
 21
218.9244789920998926
 31
0.0
  0
LINE
  5
AD30
  8
0
 10
3886.727561153832994
 20
218.9244789920998926
 30
0.0
 11
3886.7530191184318937
 21
218.9244789920998926
 31
0.0
  0
LINE
  5
AD31
  8
0
 10
3886.7530191184318937
 20
218.9244789920998926
 30
0.0
 11
3886.7583842181697946
 21
218.9296866372515069
 31
0.0
  0
LINE
  5
AD32
  8
0
 10
3886.7530191184318937
 20
218.9244789920998926
 30
0.0
 11
3886.7530191184318937
 21
218.9107727078998948
 31
0.0
  0
LINE
  5
AD33
  8
0
 10
3886.727561153832994
 20
218.9244789920998926
 30
0.0
 11
3886.727561153832994
 21
218.9107727078998948
 31
0.0
  0
LINE
  5
AD34
  8
0
 10
3886.6935793170819124
 20
218.9184972277998895
 30
0.0
 11
3886.7075172150321123
 21
218.9184967067999139
 31
0.0
  0
ARC
  5
AD35
  8
0
 10
3886.7075175471259172
 20
218.9273809512920934
 30
0.0
 40
0.008884244498413
 50
269.997858278115018
 51
314.7934228374951999
  0
LINE
  5
AD36
  8
0
 10
3886.7137769660330378
 20
218.9210762327998907
 30
0.0
 11
3886.7267597409481823
 21
218.933965726099899
 31
0.0
  0
ARC
  5
AD37
  8
0
 10
3886.7742934475249967
 20
218.9304502600348883
 30
0.0
 40
0.0119790744486375
 50
219.863217994725801
 51
266.2212891812735052
  0
LINE
  5
AD38
  8
0
 10
3886.7071206237537808
 20
218.9494291216385022
 30
0.0
 11
3886.7200925988317977
 21
218.9365393580384875
 31
0.0
  0
ARC
  5
AD39
  8
0
 10
3886.7263463125568705
 20
218.9428329582237893
 30
0.0
 40
0.0088723355798629
 50
225.1821360477964902
 51
270.0209747803033906
  0
LINE
  5
AD3A
  8
0
 10
3886.7263495605320713
 20
218.9339606232385051
 30
0.0
 11
3886.7542280321690669
 21
218.9339708289612929
 31
0.0
  0
ARC
  5
AD3B
  8
0
 10
3886.7542247669780409
 20
218.9428901934736018
 30
0.0
 40
0.0089193651099378
 50
270.0209747803033906
 51
314.6023331944750794
  0
LINE
  5
AD3C
  8
0
 10
3886.7604877850321827
 20
218.9365396282385063
 30
0.0
 11
3886.7735039888270876
 21
218.9494291216385022
 31
0.0
  0
LINE
  5
AD3D
  8
0
 10
3886.7154839587728929
 20
218.9537028545861972
 30
0.0
 11
3886.727561153832994
 21
218.9417046017385076
 31
0.0
  0
LINE
  5
AD3E
  8
0
 10
3886.727561153832994
 20
218.9417046017385076
 30
0.0
 11
3886.7530191184318937
 21
218.9417046017385076
 31
0.0
  0
LINE
  5
AD3F
  8
0
 10
3886.7530191184318937
 20
218.9417046017385076
 30
0.0
 11
3886.7650985880941334
 21
218.9537040821965093
 31
0.0
  0
LINE
  5
AD40
  8
0
 10
3886.7650985880941334
 20
218.9537040821965093
 30
0.0
 11
3886.7533570060058992
 21
218.9657975066969016
 31
0.0
  0
LINE
  5
AD41
  8
0
 10
3886.7223849935430735
 20
218.9605543052203984
 30
0.0
 11
3886.727561153832994
 21
218.9554108859385053
 31
0.0
  0
LINE
  5
AD42
  8
0
 10
3886.727561153832994
 20
218.9554108859385053
 30
0.0
 11
3886.7530191184318937
 21
218.9554108859385053
 31
0.0
  0
LINE
  5
AD43
  8
0
 10
3886.7530191184318937
 20
218.9554108859385053
 30
0.0
 11
3886.7583842181697946
 21
218.9606185310900912
 31
0.0
  0
LINE
  5
AD44
  8
0
 10
3886.7530191184318937
 20
218.9554108859385053
 30
0.0
 11
3886.7530191184318937
 21
218.9417046017385076
 31
0.0
  0
LINE
  5
AD45
  8
0
 10
3886.727561153832994
 20
218.9554108859385053
 30
0.0
 11
3886.727561153832994
 21
218.9417046017385076
 31
0.0
  0
LINE
  5
AD46
  8
0
 10
3886.6935793170819124
 20
218.9494291216385022
 30
0.0
 11
3886.7075172150321123
 21
218.9494286006384982
 31
0.0
  0
ARC
  5
AD47
  8
0
 10
3886.7075175471259172
 20
218.9583128451307061
 30
0.0
 40
0.008884244498413
 50
269.997858278115018
 51
314.7934228374951999
  0
LINE
  5
AD48
  8
0
 10
3886.7137769660330378
 20
218.9520081266385034
 30
0.0
 11
3886.7276566637679025
 21
218.9657880983415055
 31
0.0
  0
ARC
  5
AD49
  8
0
 10
3886.7742934475249967
 20
218.961382153873501
 30
0.0
 40
0.0119790744486375
 50
219.863217994725801
 51
266.2212891812735052
  0
LINE
  5
AD4A
  8
0
 10
3886.7071206237537808
 20
218.9812561182384911
 30
0.0
 11
3886.7200925988317977
 21
218.9683663546385048
 31
0.0
  0
ARC
  5
AD4B
  8
0
 10
3886.7263463125568705
 20
218.9746599548238919
 30
0.0
 40
0.0088723355798629
 50
225.1821360477964902
 51
270.0209747803033906
  0
LINE
  5
AD4C
  8
0
 10
3886.7263495605320713
 20
218.965787619838494
 30
0.0
 11
3886.7542280321690669
 21
218.9657978255613102
 31
0.0
  0
ARC
  5
AD4D
  8
0
 10
3886.7542247669780409
 20
218.9747171900735907
 30
0.0
 40
0.0089193651099378
 50
270.0209747803033906
 51
314.6023331944750794
  0
LINE
  5
AD4E
  8
0
 10
3886.7604877850321827
 20
218.9683666248384952
 30
0.0
 11
3886.7735039888270876
 21
218.9812561182384911
 31
0.0
  0
LINE
  5
AD4F
  8
0
 10
3886.7154839587728929
 20
218.9855298511861861
 30
0.0
 11
3886.727561153832994
 21
218.9735315983384965
 31
0.0
  0
LINE
  5
AD50
  8
0
 10
3886.727561153832994
 20
218.9735315983384965
 30
0.0
 11
3886.7530191184318937
 21
218.9735315983384965
 31
0.0
  0
LINE
  5
AD51
  8
0
 10
3886.7530191184318937
 20
218.9735315983384965
 30
0.0
 11
3886.7650985880941334
 21
218.9855310787964982
 31
0.0
  0
LINE
  5
AD52
  8
0
 10
3886.7650985880941334
 20
218.9855310787964982
 30
0.0
 11
3886.7550480602258176
 21
218.9958827757859012
 31
0.0
  0
LINE
  5
AD53
  8
0
 10
3886.7223849935430735
 20
218.992381301820501
 30
0.0
 11
3886.727561153832994
 21
218.9872378825384942
 31
0.0
  0
LINE
  5
AD54
  8
0
 10
3886.727561153832994
 20
218.9872378825384942
 30
0.0
 11
3886.7530191184318937
 21
218.9872378825384942
 31
0.0
  0
LINE
  5
AD55
  8
0
 10
3886.7530191184318937
 20
218.9872378825384942
 30
0.0
 11
3886.7583842181697946
 21
218.9924455276901085
 31
0.0
  0
LINE
  5
AD56
  8
0
 10
3886.7530191184318937
 20
218.9872378825384942
 30
0.0
 11
3886.7530191184318937
 21
218.9735315983384965
 31
0.0
  0
LINE
  5
AD57
  8
0
 10
3886.727561153832994
 20
218.9872378825384942
 30
0.0
 11
3886.727561153832994
 21
218.9735315983384965
 31
0.0
  0
LINE
  5
AD58
  8
0
 10
3886.6935793170819124
 20
218.9812561182384911
 30
0.0
 11
3886.7075172150321123
 21
218.9812555972384871
 31
0.0
  0
ARC
  5
AD59
  8
0
 10
3886.7075175471259172
 20
218.990139841730695
 30
0.0
 40
0.008884244498413
 50
269.997858278115018
 51
314.7934228374951999
  0
LINE
  5
AD5A
  8
0
 10
3886.7137769660330378
 20
218.9838351232384923
 30
0.0
 11
3886.7258759391152125
 21
218.9958471648469072
 31
0.0
  0
ARC
  5
AD5B
  8
0
 10
3886.7742934475249967
 20
218.9932091504734899
 30
0.0
 40
0.0119790744486375
 50
219.863217994725801
 51
266.2212891812735052
  0
LINE
  5
AD5C
  8
0
 10
3886.7071219635349735
 20
219.0113031152384906
 30
0.0
 11
3886.7200939386138998
 21
218.9984133516385043
 31
0.0
  0
ARC
  5
AD5D
  8
0
 10
3886.7263476523380632
 20
219.0047069518238914
 30
0.0
 40
0.0088723355798629
 50
225.1821360477964902
 51
270.0209747803033906
  0
LINE
  5
AD5E
  8
0
 10
3886.7263509003141735
 20
218.9958346168384935
 30
0.0
 11
3886.754229371951169
 21
218.9958448225613097
 31
0.0
  0
ARC
  5
AD5F
  8
0
 10
3886.7542261067587788
 20
219.0047641870735902
 30
0.0
 40
0.0089193651099378
 50
270.0209747803033906
 51
314.6023331944750794
  0
LINE
  5
AD60
  8
0
 10
3886.7604891248138301
 20
218.9984136218384947
 30
0.0
 11
3886.7735053286091897
 21
219.0113031152384906
 31
0.0
  0
LINE
  5
AD61
  8
0
 10
3886.7154852985540856
 20
219.015576848186214
 30
0.0
 11
3886.7275624936141867
 21
219.0035785953384959
 31
0.0
  0
LINE
  5
AD62
  8
0
 10
3886.7275624936141867
 20
219.0035785953384959
 30
0.0
 11
3886.7530204582139959
 21
219.0035785953384959
 31
0.0
  0
LINE
  5
AD63
  8
0
 10
3886.7530204582139959
 20
219.0035785953384959
 30
0.0
 11
3886.7650999278748714
 21
219.0155780757964976
 31
0.0
  0
LINE
  5
AD64
  8
0
 10
3886.7650999278748714
 20
219.0155780757964976
 30
0.0
 11
3886.754222144805226
 21
219.0267818171060981
 31
0.0
  0
LINE
  5
AD65
  8
0
 10
3886.7223863333251757
 20
219.0224282988205005
 30
0.0
 11
3886.7275624936141867
 21
219.0172848795384937
 31
0.0
  0
LINE
  5
AD66
  8
0
 10
3886.7275624936141867
 20
219.0172848795384937
 30
0.0
 11
3886.7530204582139959
 21
219.0172848795384937
 31
0.0
  0
LINE
  5
AD67
  8
0
 10
3886.7530204582139959
 20
219.0172848795384937
 30
0.0
 11
3886.7583855579509873
 21
219.022492524690108
 31
0.0
  0
LINE
  5
AD68
  8
0
 10
3886.7530204582139959
 20
219.0172848795384937
 30
0.0
 11
3886.7530204582139959
 21
219.0035785953384959
 31
0.0
  0
LINE
  5
AD69
  8
0
 10
3886.7275624936141867
 20
219.0172848795384937
 30
0.0
 11
3886.7275624936141867
 21
219.0035785953384959
 31
0.0
  0
LINE
  5
AD6A
  8
0
 10
3886.6935806568640146
 20
219.0113031152384906
 30
0.0
 11
3886.7075185548142144
 21
219.0113025942384866
 31
0.0
  0
ARC
  5
AD6B
  8
0
 10
3886.7075188869080193
 20
219.0201868387306945
 30
0.0
 40
0.008884244498413
 50
269.997858278115018
 51
314.7934228374951999
  0
LINE
  5
AD6C
  8
0
 10
3886.7137783058137757
 20
219.0138821202384918
 30
0.0
 11
3886.7267612325249502
 21
219.0267717642429943
 31
0.0
  0
ARC
  5
AD6D
  8
0
 10
3886.7742947873070989
 20
219.0232561474734894
 30
0.0
 40
0.0119790744486375
 50
219.863217994725801
 51
266.2212891812735052
  0
LINE
  5
AD6E
  8
0
 10
3886.7071206237537808
 20
219.0422401119384972
 30
0.0
 11
3886.7200925988317977
 21
219.0293503483385109
 31
0.0
  0
ARC
  5
AD6F
  8
0
 10
3886.7263463125568705
 20
219.0356439485238127
 30
0.0
 40
0.0088723355798629
 50
225.1821360477964902
 51
270.0209747803033906
  0
LINE
  5
AD70
  8
0
 10
3886.7263495605320713
 20
219.0267716135385001
 30
0.0
 11
3886.7542280321690669
 21
219.0267818192612879
 31
0.0
  0
ARC
  5
AD71
  8
0
 10
3886.7542247669780409
 20
219.0357011837735968
 30
0.0
 40
0.0089193651099378
 50
270.0209747803033906
 51
314.6023331944750794
  0
LINE
  5
AD72
  8
0
 10
3886.7604877850321827
 20
219.0293506185385013
 30
0.0
 11
3886.7735039888270876
 21
219.0422401119384972
 31
0.0
  0
LINE
  5
AD73
  8
0
 10
3886.7154839587728929
 20
219.0465138448861921
 30
0.0
 11
3886.727561153832994
 21
219.0345155920385025
 31
0.0
  0
LINE
  5
AD74
  8
0
 10
3886.727561153832994
 20
219.0345155920385025
 30
0.0
 11
3886.7530191184318937
 21
219.0345155920385025
 31
0.0
  0
LINE
  5
AD75
  8
0
 10
3886.7530191184318937
 20
219.0345155920385025
 30
0.0
 11
3886.7650985880941334
 21
219.0465150724965042
 31
0.0
  0
LINE
  5
AD76
  8
0
 10
3886.7650985880941334
 20
219.0465150724965042
 30
0.0
 11
3886.7542208054042021
 21
219.0577188134157041
 31
0.0
  0
LINE
  5
AD77
  8
0
 10
3886.7223849935430735
 20
219.0533652955203934
 30
0.0
 11
3886.727561153832994
 21
219.0482218762385003
 31
0.0
  0
LINE
  5
AD78
  8
0
 10
3886.727561153832994
 20
219.0482218762385003
 30
0.0
 11
3886.7530191184318937
 21
219.0482218762385003
 31
0.0
  0
LINE
  5
AD79
  8
0
 10
3886.7530191184318937
 20
219.0482218762385003
 30
0.0
 11
3886.7583842181697946
 21
219.0534295213900862
 31
0.0
  0
LINE
  5
AD7A
  8
0
 10
3886.7530191184318937
 20
219.0482218762385003
 30
0.0
 11
3886.7530191184318937
 21
219.0345155920385025
 31
0.0
  0
LINE
  5
AD7B
  8
0
 10
3886.727561153832994
 20
219.0482218762385003
 30
0.0
 11
3886.727561153832994
 21
219.0345155920385025
 31
0.0
  0
LINE
  5
AD7C
  8
0
 10
3886.6935793170819124
 20
219.0422401119384972
 30
0.0
 11
3886.7075172150321123
 21
219.0422395909384932
 31
0.0
  0
ARC
  5
AD7D
  8
0
 10
3886.7075175471259172
 20
219.0511238354307011
 30
0.0
 40
0.008884244498413
 50
269.997858278115018
 51
314.7934228374951999
  0
LINE
  5
AD7E
  8
0
 10
3886.7137769660330378
 20
219.0448191169384984
 30
0.0
 11
3886.7267598923499463
 21
219.0577087605522877
 31
0.0
  0
ARC
  5
AD7F
  8
0
 10
3886.7742934475249967
 20
219.054193144173496
 30
0.0
 40
0.0119790744486375
 50
219.863217994725801
 51
266.2212891812735052
  0
LINE
  5
AD80
  8
0
 10
3886.7071206237537808
 20
219.0731771087384914
 30
0.0
 11
3886.7200925988317977
 21
219.0602873451385051
 31
0.0
  0
ARC
  5
AD81
  8
0
 10
3886.7263463125568705
 20
219.0665809453238069
 30
0.0
 40
0.0088723355798629
 50
225.1821360477964902
 51
270.0209747803033906
  0
LINE
  5
AD82
  8
0
 10
3886.7263495605320713
 20
219.0577086103384943
 30
0.0
 11
3886.7542280321690669
 21
219.0577188160613105
 31
0.0
  0
ARC
  5
AD83
  8
0
 10
3886.7542247669780409
 20
219.0666381805735909
 30
0.0
 40
0.0089193651099378
 50
270.0209747803033906
 51
314.6023331944750794
  0
LINE
  5
AD84
  8
0
 10
3886.7604877850321827
 20
219.0602876153384955
 30
0.0
 11
3886.7735039888270876
 21
219.0731771087384914
 31
0.0
  0
LINE
  5
AD85
  8
0
 10
3886.7154839587728929
 20
219.0774508416861863
 30
0.0
 11
3886.727561153832994
 21
219.0654525888384967
 31
0.0
  0
LINE
  5
AD86
  8
0
 10
3886.727561153832994
 20
219.0654525888384967
 30
0.0
 11
3886.7530191184318937
 21
219.0654525888384967
 31
0.0
  0
LINE
  5
AD87
  8
0
 10
3886.7530191184318937
 20
219.0654525888384967
 30
0.0
 11
3886.7650985880941334
 21
219.0774520692964984
 31
0.0
  0
LINE
  5
AD88
  8
0
 10
3886.7650985880941334
 20
219.0774520692964984
 30
0.0
 11
3886.7542208054042021
 21
219.0886558102156982
 31
0.0
  0
LINE
  5
AD89
  8
0
 10
3886.7223849935430735
 20
219.0843022923203876
 30
0.0
 11
3886.727561153832994
 21
219.0791588730384944
 31
0.0
  0
LINE
  5
AD8A
  8
0
 10
3886.727561153832994
 20
219.0791588730384944
 30
0.0
 11
3886.7530191184318937
 21
219.0791588730384944
 31
0.0
  0
LINE
  5
AD8B
  8
0
 10
3886.7530191184318937
 20
219.0791588730384944
 30
0.0
 11
3886.7583842181697946
 21
219.0843665181901088
 31
0.0
  0
LINE
  5
AD8C
  8
0
 10
3886.7530191184318937
 20
219.0791588730384944
 30
0.0
 11
3886.7530191184318937
 21
219.0654525888384967
 31
0.0
  0
LINE
  5
AD8D
  8
0
 10
3886.727561153832994
 20
219.0791588730384944
 30
0.0
 11
3886.727561153832994
 21
219.0654525888384967
 31
0.0
  0
LINE
  5
AD8E
  8
0
 10
3886.6935793170819124
 20
219.0731771087384914
 30
0.0
 11
3886.7075172150321123
 21
219.0731765877384873
 31
0.0
  0
ARC
  5
AD8F
  8
0
 10
3886.7075175471259172
 20
219.0820608322306953
 30
0.0
 40
0.008884244498413
 50
269.997858278115018
 51
314.7934228374951999
  0
LINE
  5
AD90
  8
0
 10
3886.7137769660330378
 20
219.0757561137384926
 30
0.0
 11
3886.7267598923499463
 21
219.0886457573523103
 31
0.0
  0
ARC
  5
AD91
  8
0
 10
3886.7742934475249967
 20
219.0851301409734901
 30
0.0
 40
0.0119790744486375
 50
219.863217994725801
 51
266.2212891812735052
  0
LINE
  5
AD92
  8
0
 10
3886.7071206237537808
 20
219.104114105538514
 30
0.0
 11
3886.7200925988317977
 21
219.0912243419384993
 31
0.0
  0
ARC
  5
AD93
  8
0
 10
3886.7263463125568705
 20
219.097517942123801
 30
0.0
 40
0.0088723355798629
 50
225.1821360477964902
 51
270.0209747803033906
  0
LINE
  5
AD94
  8
0
 10
3886.7263495605320713
 20
219.0886456071384885
 30
0.0
 11
3886.7542280321690669
 21
219.0886558128613046
 31
0.0
  0
ARC
  5
AD95
  8
0
 10
3886.7542247669780409
 20
219.0975751773736135
 30
0.0
 40
0.0089193651099378
 50
270.0209747803033906
 51
314.6023331944750794
  0
LINE
  5
AD96
  8
0
 10
3886.7604877850321827
 20
219.0912246121384896
 30
0.0
 11
3886.7735039888270876
 21
219.104114105538514
 31
0.0
  0
LINE
  5
AD97
  8
0
 10
3886.7154839587728929
 20
219.1083878384862089
 30
0.0
 11
3886.727561153832994
 21
219.0963895856384909
 31
0.0
  0
LINE
  5
AD98
  8
0
 10
3886.727561153832994
 20
219.0963895856384909
 30
0.0
 11
3886.7530191184318937
 21
219.0963895856384909
 31
0.0
  0
LINE
  5
AD99
  8
0
 10
3886.7530191184318937
 20
219.0963895856384909
 30
0.0
 11
3886.7650985880941334
 21
219.1083890660966063
 31
0.0
  0
LINE
  5
AD9A
  8
0
 10
3886.7650985880941334
 20
219.1083890660966063
 30
0.0
 11
3886.7542208055001538
 21
219.1195928069157048
 31
0.0
  0
LINE
  5
AD9B
  8
0
 10
3886.7223849935430735
 20
219.1152392891204101
 30
0.0
 11
3886.727561153832994
 21
219.1100958698384886
 31
0.0
  0
LINE
  5
AD9C
  8
0
 10
3886.727561153832994
 20
219.1100958698384886
 30
0.0
 11
3886.7530191184318937
 21
219.1100958698384886
 31
0.0
  0
LINE
  5
AD9D
  8
0
 10
3886.7530191184318937
 20
219.1100958698384886
 30
0.0
 11
3886.7583842181697946
 21
219.1153035149901882
 31
0.0
  0
LINE
  5
AD9E
  8
0
 10
3886.7530191184318937
 20
219.1100958698384886
 30
0.0
 11
3886.7530191184318937
 21
219.0963895856384909
 31
0.0
  0
LINE
  5
AD9F
  8
0
 10
3886.727561153832994
 20
219.1100958698384886
 30
0.0
 11
3886.727561153832994
 21
219.0963895856384909
 31
0.0
  0
LINE
  5
ADA0
  8
0
 10
3886.6935793170819124
 20
219.104114105538514
 30
0.0
 11
3886.7075172150321123
 21
219.1041135845385099
 31
0.0
  0
ARC
  5
ADA1
  8
0
 10
3886.7075175471259172
 20
219.1129978290306894
 30
0.0
 40
0.008884244498413
 50
269.997858278115018
 51
314.7934228374951999
  0
LINE
  5
ADA2
  8
0
 10
3886.7137769660330378
 20
219.1066931105384867
 30
0.0
 11
3886.7267598922499019
 21
219.1195827540522885
 31
0.0
  0
ARC
  5
ADA3
  8
0
 10
3886.7742934475249967
 20
219.1160671377735127
 30
0.0
 40
0.0119790744486375
 50
219.863217994725801
 51
266.2212891812735052
  0
LINE
  5
ADA4
  8
0
 10
3886.7071206237537808
 20
219.1350511022384921
 30
0.0
 11
3886.7200925988317977
 21
219.1221613386385059
 31
0.0
  0
ARC
  5
ADA5
  8
0
 10
3886.7263463125568705
 20
219.1284549388238077
 30
0.0
 40
0.0088723355798629
 50
225.1821360477964902
 51
270.0209747803033906
  0
LINE
  5
ADA6
  8
0
 10
3886.7263495605320713
 20
219.1195826038384951
 30
0.0
 11
3886.7542280321690669
 21
219.1195928095613112
 31
0.0
  0
ARC
  5
ADA7
  8
0
 10
3886.7542247669780409
 20
219.1285121740735917
 30
0.0
 40
0.0089193651099378
 50
270.0209747803033906
 51
314.6023331944750794
  0
LINE
  5
ADA8
  8
0
 10
3886.7604877850321827
 20
219.1221616088384962
 30
0.0
 11
3886.7735039888270876
 21
219.1350511022384921
 31
0.0
  0
LINE
  5
ADA9
  8
0
 10
3886.7154839587728929
 20
219.1393248351861871
 30
0.0
 11
3886.727561153832994
 21
219.1273265823384975
 31
0.0
  0
LINE
  5
ADAA
  8
0
 10
3886.727561153832994
 20
219.1273265823384975
 30
0.0
 11
3886.7530191184318937
 21
219.1273265823384975
 31
0.0
  0
LINE
  5
ADAB
  8
0
 10
3886.7530191184318937
 20
219.1273265823384975
 30
0.0
 11
3886.7650985880941334
 21
219.1393260627964992
 31
0.0
  0
LINE
  5
ADAC
  8
0
 10
3886.7650985880941334
 20
219.1393260627964992
 30
0.0
 11
3886.7611463532111884
 21
219.1433967283849995
 31
0.0
  0
LINE
  5
ADAD
  8
0
 10
3886.7223849935430735
 20
219.1461762858203883
 30
0.0
 11
3886.727561153832994
 21
219.1410328665384952
 31
0.0
  0
LINE
  5
ADAE
  8
0
 10
3886.727561153832994
 20
219.1410328665384952
 30
0.0
 11
3886.7530191184318937
 21
219.1410328665384952
 31
0.0
  0
LINE
  5
ADAF
  8
0
 10
3886.7530191184318937
 20
219.1410328665384952
 30
0.0
 11
3886.7563417224810109
 21
219.1442579590276125
 31
0.0
  0
LINE
  5
ADB0
  8
0
 10
3886.7530191184318937
 20
219.1410328665384952
 30
0.0
 11
3886.7530191184318937
 21
219.1273265823384975
 31
0.0
  0
LINE
  5
ADB1
  8
0
 10
3886.727561153832994
 20
219.1410328665384952
 30
0.0
 11
3886.727561153832994
 21
219.1273265823384975
 31
0.0
  0
LINE
  5
ADB2
  8
0
 10
3886.6935793170819124
 20
219.1350511022384921
 30
0.0
 11
3886.7075172150321123
 21
219.1350505812384881
 31
0.0
  0
ARC
  5
ADB3
  8
0
 10
3886.7075175471259172
 20
219.143934825730696
 30
0.0
 40
0.008884244498413
 50
269.997858278115018
 51
314.7934228374951999
  0
LINE
  5
ADB4
  8
0
 10
3886.7137769660330378
 20
219.1376301072384933
 30
0.0
 11
3886.7242950050372201
 21
219.1480725738259991
 31
0.0
  0
ARC
  5
ADB5
  8
0
 10
3886.7742934475249967
 20
219.1470041344734909
 30
0.0
 40
0.0119790744486375
 50
219.863217994725801
 51
266.2212891812735052
  0
LINE
  5
ADB6
  8
0
 10
3886.7735039888270876
 20
218.9494291216385022
 30
0.0
 11
3886.8004979214369996
 21
218.9494291216385022
 31
0.0
  0
LINE
  5
ADB7
  8
0
 10
3886.7735039888270876
 20
218.9812561182384911
 30
0.0
 11
3886.8004979214369996
 21
218.9812561182384911
 31
0.0
  0
LINE
  5
ADB8
  8
0
 10
3886.7735053286091897
 20
219.0113031152384906
 30
0.0
 11
3886.8009401928138686
 21
219.0113025942384866
 31
0.0
  0
LINE
  5
ADB9
  8
0
 10
3886.7735039888270876
 20
219.0422401119384972
 30
0.0
 11
3886.8009401928138686
 21
219.0422395909384932
 31
0.0
  0
LINE
  5
ADBA
  8
0
 10
3886.7735039888270876
 20
219.0731771087384914
 30
0.0
 11
3886.8004979214369996
 21
219.0731771087384914
 31
0.0
  0
LINE
  5
ADBB
  8
0
 10
3886.7735039888270876
 20
219.104114105538514
 30
0.0
 11
3886.8009401928138686
 21
219.1041135845385099
 31
0.0
  0
LINE
  5
ADBC
  8
0
 10
3886.7621995442677871
 20
218.9382347238075965
 30
0.0
 11
3886.774271972832139
 21
218.9262412062998919
 31
0.0
  0
LINE
  5
ADBD
  8
0
 10
3886.774271972832139
 20
218.9262412062998919
 30
0.0
 11
3886.7997299374328577
 21
218.9262412062998919
 31
0.0
  0
LINE
  5
ADBE
  8
0
 10
3886.7691094478500418
 20
218.9450773607235874
 30
0.0
 11
3886.774271972832139
 21
218.9399474904998897
 31
0.0
  0
LINE
  5
ADBF
  8
0
 10
3886.774271972832139
 20
218.9399474904998897
 30
0.0
 11
3886.7997299374328577
 21
218.9399474904998897
 31
0.0
  0
LINE
  5
ADC0
  8
0
 10
3886.774271972832139
 20
218.9399474904998897
 30
0.0
 11
3886.774271972832139
 21
218.9262412062998919
 31
0.0
  0
LINE
  5
ADC1
  8
0
 10
3886.7735039888270876
 20
218.9184972277998895
 30
0.0
 11
3886.8009388530331307
 21
218.9184967067999139
 31
0.0
  0
LINE
  5
ADC2
  8
0
 10
3886.761750894312172
 20
218.9696174379772913
 30
0.0
 11
3886.774271972832139
 21
218.9571782030998861
 31
0.0
  0
LINE
  5
ADC3
  8
0
 10
3886.774271972832139
 20
218.9571782030998861
 30
0.0
 11
3886.7997299374328577
 21
218.9571782030998861
 31
0.0
  0
LINE
  5
ADC4
  8
0
 10
3886.7686608456369868
 20
218.9764601221723979
 30
0.0
 11
3886.774271972833958
 21
218.9708844872999123
 31
0.0
  0
LINE
  5
ADC5
  8
0
 10
3886.774271972832139
 20
218.9708844872999123
 30
0.0
 11
3886.7997299374328577
 21
218.9708844872999123
 31
0.0
  0
LINE
  5
ADC6
  8
0
 10
3886.774271972832139
 20
218.9708844872999123
 30
0.0
 11
3886.774271972832139
 21
218.9571782030998861
 31
0.0
  0
LINE
  5
ADC7
  8
0
 10
3886.7621947777729474
 20
219.0001134526476108
 30
0.0
 11
3886.774271972832139
 21
218.9881151997998927
 31
0.0
  0
LINE
  5
ADC8
  8
0
 10
3886.774271972832139
 20
218.9881151997998927
 30
0.0
 11
3886.7997299374328577
 21
218.9881151997998927
 31
0.0
  0
LINE
  5
ADC9
  8
0
 10
3886.769095812543128
 20
219.006964903281812
 30
0.0
 11
3886.774271972832139
 21
219.0018214839998905
 31
0.0
  0
LINE
  5
ADCA
  8
0
 10
3886.774271972832139
 20
219.0018214839998905
 30
0.0
 11
3886.7997299374328577
 21
219.0018214839998905
 31
0.0
  0
LINE
  5
ADCB
  8
0
 10
3886.774271972832139
 20
219.0018214839998905
 30
0.0
 11
3886.774271972832139
 21
218.9881151997998927
 31
0.0
  0
LINE
  5
ADCC
  8
0
 10
3886.7621947777729474
 20
219.0310504494476049
 30
0.0
 11
3886.774271972832139
 21
219.0190521965998869
 31
0.0
  0
LINE
  5
ADCD
  8
0
 10
3886.774271972832139
 20
219.0190521965998869
 30
0.0
 11
3886.7997299374328577
 21
219.0190521965998869
 31
0.0
  0
LINE
  5
ADCE
  8
0
 10
3886.769095812543128
 20
219.0379019000818062
 30
0.0
 11
3886.774271972832139
 21
219.0327584807999131
 31
0.0
  0
LINE
  5
ADCF
  8
0
 10
3886.774271972832139
 20
219.0327584807999131
 30
0.0
 11
3886.7997299374328577
 21
219.0327584807999131
 31
0.0
  0
LINE
  5
ADD0
  8
0
 10
3886.774271972832139
 20
219.0327584807999131
 30
0.0
 11
3886.774271972832139
 21
219.0190521965998869
 31
0.0
  0
LINE
  5
ADD1
  8
0
 10
3886.7621947777729474
 20
219.0619874461476115
 30
0.0
 11
3886.774271972832139
 21
219.0499891932998935
 31
0.0
  0
LINE
  5
ADD2
  8
0
 10
3886.774271972832139
 20
219.0499891932998935
 30
0.0
 11
3886.7997299374328577
 21
219.0499891932998935
 31
0.0
  0
LINE
  5
ADD3
  8
0
 10
3886.769095812543128
 20
219.068838896781898
 30
0.0
 11
3886.774271972832139
 21
219.0636954774998912
 31
0.0
  0
LINE
  5
ADD4
  8
0
 10
3886.774271972832139
 20
219.0636954774998912
 30
0.0
 11
3886.7997299374328577
 21
219.0636954774998912
 31
0.0
  0
LINE
  5
ADD5
  8
0
 10
3886.774271972832139
 20
219.0636954774998912
 30
0.0
 11
3886.774271972832139
 21
219.0499891932998935
 31
0.0
  0
LINE
  5
ADD6
  8
0
 10
3886.7621947777729474
 20
219.1238614397475999
 30
0.0
 11
3886.774271972832139
 21
219.1118631868999103
 31
0.0
  0
LINE
  5
ADD7
  8
0
 10
3886.774271972832139
 20
219.1118631868999103
 30
0.0
 11
3886.7997299374328577
 21
219.1118631868999103
 31
0.0
  0
LINE
  5
ADD8
  8
0
 10
3886.769095812543128
 20
219.1307128903818011
 30
0.0
 11
3886.774271972832139
 21
219.125569471099908
 31
0.0
  0
LINE
  5
ADD9
  8
0
 10
3886.774271972832139
 20
219.125569471099908
 30
0.0
 11
3886.7997299374328577
 21
219.125569471099908
 31
0.0
  0
LINE
  5
ADDA
  8
0
 10
3886.774271972832139
 20
219.125569471099908
 30
0.0
 11
3886.774271972832139
 21
219.1118631868999103
 31
0.0
  0
ARC
  5
ADDB
  8
0
 10
3886.8105034417721981
 20
218.9157956786476973
 30
0.0
 40
0.0054224132569383
 50
244.9213338122698076
 51
0.0050664023656298
  0
LINE
  5
ADDC
  8
0
 10
3886.8082050857101422
 20
218.9108844542643908
 30
0.0
 11
3886.8004979214369996
 21
218.9184972277998895
 31
0.0
  0
LINE
  5
ADDD
  8
0
 10
3886.8159258550072082
 20
218.9157961581267955
 30
0.0
 11
3886.8089033221708632
 21
218.9227721883578965
 31
0.0
  0
LINE
  5
ADDE
  8
0
 10
3886.8089033221708632
 20
218.9227721883578965
 30
0.0
 11
3886.8197711985330898
 21
218.933965726099899
 31
0.0
  0
LINE
  5
ADDF
  8
0
 10
3886.8276522549281253
 20
218.9339679448530092
 30
0.0
 11
3886.8159258550322193
 21
218.9293875182594036
 31
0.0
  0
LINE
  5
ADE0
  8
0
 10
3886.8159258550322193
 20
218.9293875182594036
 30
0.0
 11
3886.8159258550072082
 21
218.9157961581267955
 31
0.0
  0
LINE
  5
ADE1
  8
0
 10
3886.8522653742811599
 20
218.9289860189300043
 30
0.0
 11
3886.8472421693159049
 21
218.933965726099899
 31
0.0
  0
ARC
  5
ADE2
  8
0
 10
3886.7997084627390905
 20
218.9304502600348883
 30
0.0
 40
0.0119790744486375
 50
273.7787108187263811
 51
320.136782005274199
  0
LINE
  5
ADE3
  8
0
 10
3886.8664834479409365
 20
218.9494286006793971
 30
0.0
 11
3886.8539093114318348
 21
218.9365393580384875
 31
0.0
  0
ARC
  5
ADE4
  8
0
 10
3886.8476555977081262
 20
218.9428329582237893
 30
0.0
 40
0.0088723355798629
 50
269.9790252196966094
 51
314.8178639522034814
  0
LINE
  5
ADE5
  8
0
 10
3886.8476523497320159
 20
218.9339606232385051
 30
0.0
 11
3886.8197738780959298
 21
218.9339708289612929
 31
0.0
  0
ARC
  5
ADE6
  8
0
 10
3886.8197771432869558
 20
218.9428901934736018
 30
0.0
 40
0.0089193651099378
 50
225.3976668055248922
 51
269.9790252196966094
  0
LINE
  5
ADE7
  8
0
 10
3886.813514125232814
 20
218.9365396282385063
 30
0.0
 11
3886.8004979214369996
 21
218.9494291216385022
 31
0.0
  0
LINE
  5
ADE8
  8
0
 10
3886.8585179514911943
 20
218.9537028545861972
 30
0.0
 11
3886.8464407564320027
 21
218.9417046017385076
 31
0.0
  0
LINE
  5
ADE9
  8
0
 10
3886.8464407564320027
 20
218.9417046017385076
 30
0.0
 11
3886.8209827918321935
 21
218.9417046017385076
 31
0.0
  0
LINE
  5
ADEA
  8
0
 10
3886.8209827918321935
 20
218.9417046017385076
 30
0.0
 11
3886.8089033221708632
 21
218.9537040821965093
 31
0.0
  0
LINE
  5
ADEB
  8
0
 10
3886.8089033221708632
 20
218.9537040821965093
 30
0.0
 11
3886.8206449042590975
 21
218.9657975066969016
 31
0.0
  0
LINE
  5
ADEC
  8
0
 10
3886.8516169167219232
 20
218.9605543052203984
 30
0.0
 11
3886.8464407564320027
 21
218.9554108859385053
 31
0.0
  0
LINE
  5
ADED
  8
0
 10
3886.8464407564320027
 20
218.9554108859385053
 30
0.0
 11
3886.8209827918321935
 21
218.9554108859385053
 31
0.0
  0
LINE
  5
ADEE
  8
0
 10
3886.8209827918321935
 20
218.9554108859385053
 30
0.0
 11
3886.8156176920961116
 21
218.9606185310900912
 31
0.0
  0
LINE
  5
ADEF
  8
0
 10
3886.8209827918321935
 20
218.9554108859385053
 30
0.0
 11
3886.8209827918321935
 21
218.9417046017385076
 31
0.0
  0
LINE
  5
ADF0
  8
0
 10
3886.8464407564320027
 20
218.9554108859385053
 30
0.0
 11
3886.8464407564320027
 21
218.9417046017385076
 31
0.0
  0
ARC
  5
ADF1
  8
0
 10
3886.8664843631390795
 20
218.9583128451307061
 30
0.0
 40
0.008884244498413
 50
225.2065771625048001
 51
270.0021417218850956
  0
LINE
  5
ADF2
  8
0
 10
3886.8602249442319589
 20
218.9520081266385034
 30
0.0
 11
3886.8463452464961847
 21
218.9657880983415055
 31
0.0
  0
ARC
  5
ADF3
  8
0
 10
3886.7997084627390905
 20
218.961382153873501
 30
0.0
 40
0.0119790744486375
 50
273.7787108187263811
 51
320.136782005274199
  0
LINE
  5
ADF4
  8
0
 10
3886.8664833573639044
 20
218.9803763241613126
 30
0.0
 11
3886.8536557446777806
 21
218.9681241629839974
 31
0.0
  0
ARC
  5
ADF5
  8
0
 10
3886.8476555977081262
 20
218.9746599548238919
 30
0.0
 40
0.0088723355798629
 50
269.9790252196966094
 51
314.8178639522034814
  0
LINE
  5
ADF6
  8
0
 10
3886.8476523497320159
 20
218.965787619838494
 30
0.0
 11
3886.8197738780959298
 21
218.9657978255613102
 31
0.0
  0
ARC
  5
ADF7
  8
0
 10
3886.8197771432869558
 20
218.9747171900735907
 30
0.0
 40
0.0089193651099378
 50
225.3976668055248922
 51
269.9790252196966094
  0
LINE
  5
ADF8
  8
0
 10
3886.813514125232814
 20
218.9683666248384952
 30
0.0
 11
3886.8004979214369996
 21
218.9812561182384911
 31
0.0
  0
LINE
  5
ADF9
  8
0
 10
3886.8585179514911943
 20
218.9855298511861861
 30
0.0
 11
3886.8464407564320027
 21
218.9735315983384965
 31
0.0
  0
LINE
  5
ADFA
  8
0
 10
3886.8464407564320027
 20
218.9735315983384965
 30
0.0
 11
3886.8209827918321935
 21
218.9735315983384965
 31
0.0
  0
LINE
  5
ADFB
  8
0
 10
3886.8209827918321935
 20
218.9735315983384965
 30
0.0
 11
3886.8089033221708632
 21
218.9855310787964982
 31
0.0
  0
LINE
  5
ADFC
  8
0
 10
3886.8089033221708632
 20
218.9855310787964982
 30
0.0
 11
3886.8189538500378148
 21
218.9958827757859012
 31
0.0
  0
LINE
  5
ADFD
  8
0
 10
3886.8516169167219232
 20
218.992381301820501
 30
0.0
 11
3886.8464407564320027
 21
218.9872378825384942
 31
0.0
  0
LINE
  5
ADFE
  8
0
 10
3886.8464407564320027
 20
218.9872378825384942
 30
0.0
 11
3886.8209827918321935
 21
218.9872378825384942
 31
0.0
  0
LINE
  5
ADFF
  8
0
 10
3886.8209827918321935
 20
218.9872378825384942
 30
0.0
 11
3886.8156176920961116
 21
218.9924455276901085
 31
0.0
  0
LINE
  5
AE00
  8
0
 10
3886.8209827918321935
 20
218.9872378825384942
 30
0.0
 11
3886.8209827918321935
 21
218.9735315983384965
 31
0.0
  0
LINE
  5
AE01
  8
0
 10
3886.8464407564320027
 20
218.9872378825384942
 30
0.0
 11
3886.8464407564320027
 21
218.9735315983384965
 31
0.0
  0
ARC
  5
AE02
  8
0
 10
3886.8753591843828872
 20
219.0038278469440058
 30
0.0
 40
0.0250749721056272
 50
232.874737083966096
 51
249.2695731033649054
  0
LINE
  5
AE03
  8
0
 10
3886.8602249442319589
 20
218.9838351232384923
 30
0.0
 11
3886.8481259711497842
 21
218.9958471648469072
 31
0.0
  0
ARC
  5
AE04
  8
0
 10
3886.7997084627390905
 20
218.9932091504734899
 30
0.0
 40
0.0119790744486375
 50
273.7787108187263811
 51
320.136782005274199
  0
LINE
  5
AE05
  8
0
 10
3886.8664820175831665
 20
219.0104233211613121
 30
0.0
 11
3886.8539079716510969
 21
218.9984133516385043
 31
0.0
  0
ARC
  5
AE06
  8
0
 10
3886.847654257926024
 20
219.0047069518238914
 30
0.0
 40
0.0088723355798629
 50
269.9790252196966094
 51
314.8178639522034814
  0
LINE
  5
AE07
  8
0
 10
3886.8476510099508232
 20
218.9958346168384935
 30
0.0
 11
3886.8197725383138277
 21
218.9958448225613097
 31
0.0
  0
ARC
  5
AE08
  8
0
 10
3886.8197758035062179
 20
219.0047641870735902
 30
0.0
 40
0.0089193651099378
 50
225.3976668055248922
 51
269.9790252196966094
  0
LINE
  5
AE09
  8
0
 10
3886.8135127854511666
 20
218.9984136218384947
 30
0.0
 11
3886.8004965816548975
 21
219.0113031152384906
 31
0.0
  0
LINE
  5
AE0A
  8
0
 10
3886.8585166117109111
 20
219.015576848186214
 30
0.0
 11
3886.84643941665081
 21
219.0035785953384959
 31
0.0
  0
LINE
  5
AE0B
  8
0
 10
3886.84643941665081
 20
219.0035785953384959
 30
0.0
 11
3886.8209814520500913
 21
219.0035785953384959
 31
0.0
  0
LINE
  5
AE0C
  8
0
 10
3886.8209814520500913
 20
219.0035785953384959
 30
0.0
 11
3886.8089019823892158
 21
219.0155780757964976
 31
0.0
  0
LINE
  5
AE0D
  8
0
 10
3886.8089019823892158
 20
219.0155780757964976
 30
0.0
 11
3886.8197797654588612
 21
219.0267818171060981
 31
0.0
  0
LINE
  5
AE0E
  8
0
 10
3886.851615576939821
 20
219.0224282988205005
 30
0.0
 11
3886.84643941665081
 21
219.0172848795384937
 31
0.0
  0
LINE
  5
AE0F
  8
0
 10
3886.84643941665081
 20
219.0172848795384937
 30
0.0
 11
3886.8209814520500913
 21
219.0172848795384937
 31
0.0
  0
LINE
  5
AE10
  8
0
 10
3886.8209814520500913
 20
219.0172848795384937
 30
0.0
 11
3886.8156163523140094
 21
219.022492524690108
 31
0.0
  0
LINE
  5
AE11
  8
0
 10
3886.8209814520500913
 20
219.0172848795384937
 30
0.0
 11
3886.8209814520500913
 21
219.0035785953384959
 31
0.0
  0
LINE
  5
AE12
  8
0
 10
3886.84643941665081
 20
219.0172848795384937
 30
0.0
 11
3886.84643941665081
 21
219.0035785953384959
 31
0.0
  0
ARC
  5
AE13
  8
0
 10
3886.86786916396386
 20
219.0203246907869072
 30
0.0
 40
0.009998064590083
 50
220.1193384555020032
 51
262.024971731797109
  0
LINE
  5
AE14
  8
0
 10
3886.860223604451221
 20
219.0138821202384918
 30
0.0
 11
3886.847240677739137
 21
219.0267717642429943
 31
0.0
  0
ARC
  5
AE15
  8
0
 10
3886.7997071229569883
 20
219.0232561474734894
 30
0.0
 40
0.0119790744486375
 50
273.7787108187263811
 51
320.136782005274199
  0
LINE
  5
AE16
  8
0
 10
3886.8664833573639044
 20
219.0413603178612902
 30
0.0
 11
3886.8539093114318348
 21
219.0293503483385109
 31
0.0
  0
ARC
  5
AE17
  8
0
 10
3886.8476555977081262
 20
219.0356439485238127
 30
0.0
 40
0.0088723355798629
 50
269.9790252196966094
 51
314.8178639522034814
  0
LINE
  5
AE18
  8
0
 10
3886.8476523497320159
 20
219.0267716135385001
 30
0.0
 11
3886.8197738780959298
 21
219.0267818192612879
 31
0.0
  0
ARC
  5
AE19
  8
0
 10
3886.8197771432869558
 20
219.0357011837735968
 30
0.0
 40
0.0089193651099378
 50
225.3976668055248922
 51
269.9790252196966094
  0
LINE
  5
AE1A
  8
0
 10
3886.813514125232814
 20
219.0293506185385013
 30
0.0
 11
3886.8004979214369996
 21
219.0422401119384972
 31
0.0
  0
LINE
  5
AE1B
  8
0
 10
3886.8585179514911943
 20
219.0465138448861921
 30
0.0
 11
3886.8464407564320027
 21
219.0345155920385025
 31
0.0
  0
LINE
  5
AE1C
  8
0
 10
3886.8464407564320027
 20
219.0345155920385025
 30
0.0
 11
3886.8209827918321935
 21
219.0345155920385025
 31
0.0
  0
LINE
  5
AE1D
  8
0
 10
3886.8209827918321935
 20
219.0345155920385025
 30
0.0
 11
3886.8089033221708632
 21
219.0465150724965042
 31
0.0
  0
LINE
  5
AE1E
  8
0
 10
3886.8089033221708632
 20
219.0465150724965042
 30
0.0
 11
3886.8197811048607946
 21
219.0577188134157041
 31
0.0
  0
LINE
  5
AE1F
  8
0
 10
3886.8516169167219232
 20
219.0533652955203934
 30
0.0
 11
3886.8464407564320027
 21
219.0482218762385003
 31
0.0
  0
LINE
  5
AE20
  8
0
 10
3886.8464407564320027
 20
219.0482218762385003
 30
0.0
 11
3886.8209827918321935
 21
219.0482218762385003
 31
0.0
  0
LINE
  5
AE21
  8
0
 10
3886.8209827918321935
 20
219.0482218762385003
 30
0.0
 11
3886.8156176920961116
 21
219.0534295213900862
 31
0.0
  0
LINE
  5
AE22
  8
0
 10
3886.8209827918321935
 20
219.0482218762385003
 30
0.0
 11
3886.8209827918321935
 21
219.0345155920385025
 31
0.0
  0
LINE
  5
AE23
  8
0
 10
3886.8464407564320027
 20
219.0482218762385003
 30
0.0
 11
3886.8464407564320027
 21
219.0345155920385025
 31
0.0
  0
ARC
  5
AE24
  8
0
 10
3886.86794195322409
 20
219.0513909694550136
 30
0.0
 40
0.0101361468653803
 50
220.4179207172377062
 51
261.7263894700882929
  0
LINE
  5
AE25
  8
0
 10
3886.8602249442319589
 20
219.0448191169384984
 30
0.0
 11
3886.8472420179141409
 21
219.0577087605522877
 31
0.0
  0
ARC
  5
AE26
  8
0
 10
3886.7997084627390905
 20
219.054193144173496
 30
0.0
 40
0.0119790744486375
 50
273.7787108187263811
 51
320.136782005274199
  0
LINE
  5
AE27
  8
0
 10
3886.8664833573639044
 20
219.0722973146613128
 30
0.0
 11
3886.8539093114318348
 21
219.0602873451385051
 31
0.0
  0
ARC
  5
AE28
  8
0
 10
3886.8476555977081262
 20
219.0665809453238069
 30
0.0
 40
0.0088723355798629
 50
269.9790252196966094
 51
314.8178639522034814
  0
LINE
  5
AE29
  8
0
 10
3886.8476523497320159
 20
219.0577086103384943
 30
0.0
 11
3886.8197738780959298
 21
219.0577188160613105
 31
0.0
  0
ARC
  5
AE2A
  8
0
 10
3886.8197771432869558
 20
219.0666381805735909
 30
0.0
 40
0.0089193651099378
 50
225.3976668055248922
 51
269.9790252196966094
  0
LINE
  5
AE2B
  8
0
 10
3886.813514125232814
 20
219.0602876153384955
 30
0.0
 11
3886.8004979214369996
 21
219.0731771087384914
 31
0.0
  0
LINE
  5
AE2C
  8
0
 10
3886.8585179514911943
 20
219.0774508416861863
 30
0.0
 11
3886.8464407564320027
 21
219.0654525888384967
 31
0.0
  0
LINE
  5
AE2D
  8
0
 10
3886.8464407564320027
 20
219.0654525888384967
 30
0.0
 11
3886.8209827918321935
 21
219.0654525888384967
 31
0.0
  0
LINE
  5
AE2E
  8
0
 10
3886.8209827918321935
 20
219.0654525888384967
 30
0.0
 11
3886.8089033221708632
 21
219.0774520692964984
 31
0.0
  0
LINE
  5
AE2F
  8
0
 10
3886.8089033221708632
 20
219.0774520692964984
 30
0.0
 11
3886.8197811048607946
 21
219.0886558102156982
 31
0.0
  0
LINE
  5
AE30
  8
0
 10
3886.8516169167219232
 20
219.0843022923203876
 30
0.0
 11
3886.8464407564320027
 21
219.0791588730384944
 31
0.0
  0
LINE
  5
AE31
  8
0
 10
3886.8464407564320027
 20
219.0791588730384944
 30
0.0
 11
3886.8209827918321935
 21
219.0791588730384944
 31
0.0
  0
LINE
  5
AE32
  8
0
 10
3886.8209827918321935
 20
219.0791588730384944
 30
0.0
 11
3886.8156176920961116
 21
219.0843665181901088
 31
0.0
  0
LINE
  5
AE33
  8
0
 10
3886.8209827918321935
 20
219.0791588730384944
 30
0.0
 11
3886.8209827918321935
 21
219.0654525888384967
 31
0.0
  0
LINE
  5
AE34
  8
0
 10
3886.8464407564320027
 20
219.0791588730384944
 30
0.0
 11
3886.8464407564320027
 21
219.0654525888384967
 31
0.0
  0
ARC
  5
AE35
  8
0
 10
3886.8689992235799764
 20
219.0842410102133897
 30
0.0
 40
0.0122057956011742
 50
224.0394174119952879
 51
258.1048927753080875
  0
LINE
  5
AE36
  8
0
 10
3886.8602249442319589
 20
219.0757561137384926
 30
0.0
 11
3886.8472420179141409
 21
219.0886457573523103
 31
0.0
  0
ARC
  5
AE37
  8
0
 10
3886.7997084627390905
 20
219.0851301409734901
 30
0.0
 40
0.0119790744486375
 50
273.7787108187263811
 51
320.136782005274199
  0
LINE
  5
AE38
  8
0
 10
3886.8664792181830308
 20
219.1037145853674133
 30
0.0
 11
3886.8539093114318348
 21
219.0912243419384993
 31
0.0
  0
ARC
  5
AE39
  8
0
 10
3886.8476555977081262
 20
219.097517942123801
 30
0.0
 40
0.0088723355798629
 50
269.9790252196966094
 51
314.8178639522034814
  0
LINE
  5
AE3A
  8
0
 10
3886.8476523497320159
 20
219.0886456071384885
 30
0.0
 11
3886.8197738780959298
 21
219.0886558128613046
 31
0.0
  0
ARC
  5
AE3B
  8
0
 10
3886.8197771432869558
 20
219.0975751773736135
 30
0.0
 40
0.0089193651099378
 50
225.3976668055248922
 51
269.9790252196966094
  0
LINE
  5
AE3C
  8
0
 10
3886.813514125232814
 20
219.0912246121384896
 30
0.0
 11
3886.8004979214369996
 21
219.104114105538514
 31
0.0
  0
LINE
  5
AE3D
  8
0
 10
3886.8581686146230822
 20
219.1080407850465122
 30
0.0
 11
3886.8464407564320027
 21
219.0963895856384909
 31
0.0
  0
LINE
  5
AE3E
  8
0
 10
3886.8464407564320027
 20
219.0963895856384909
 30
0.0
 11
3886.8209827918321935
 21
219.0963895856384909
 31
0.0
  0
LINE
  5
AE3F
  8
0
 10
3886.8209827918321935
 20
219.0963895856384909
 30
0.0
 11
3886.8089033221708632
 21
219.1083890660966063
 31
0.0
  0
LINE
  5
AE40
  8
0
 10
3886.8089033221708632
 20
219.1083890660966063
 30
0.0
 11
3886.8197811047639334
 21
219.1195928069157048
 31
0.0
  0
LINE
  5
AE41
  8
0
 10
3886.8492496036910779
 20
219.1128869501646079
 30
0.0
 11
3886.8464407564320027
 21
219.1100958698384886
 31
0.0
  0
LINE
  5
AE42
  8
0
 10
3886.8464407564320027
 20
219.1100958698384886
 30
0.0
 11
3886.8209827918321935
 21
219.1100958698384886
 31
0.0
  0
LINE
  5
AE43
  8
0
 10
3886.8209827918321935
 20
219.1100958698384886
 30
0.0
 11
3886.8156176920961116
 21
219.1153035149901882
 31
0.0
  0
LINE
  5
AE44
  8
0
 10
3886.8209827918321935
 20
219.1100958698384886
 30
0.0
 11
3886.8209827918321935
 21
219.0963895856384909
 31
0.0
  0
LINE
  5
AE45
  8
0
 10
3886.8464407564320027
 20
219.1100958698384886
 30
0.0
 11
3886.8464407564320027
 21
219.0963895856384909
 31
0.0
  0
ARC
  5
AE46
  8
0
 10
3886.7997084627390905
 20
219.1160671377735127
 30
0.0
 40
0.0119790744486375
 50
273.7787108187263811
 51
320.136782005274199
  0
LINE
  5
AE47
  8
0
 10
3886.8356447961127742
 20
219.1195869995515864
 30
0.0
 11
3886.8197738780959298
 21
219.1195928095613112
 31
0.0
  0
ARC
  5
AE48
  8
0
 10
3886.8197771432869558
 20
219.1285121740735917
 30
0.0
 40
0.0089193651099378
 50
225.3976668055248922
 51
269.9790252196966094
  0
LINE
  5
AE49
  8
0
 10
3886.813514125232814
 20
219.1221616088384962
 30
0.0
 11
3886.8030411699460274
 21
219.1325326117948862
 31
0.0
  0
LINE
  5
AE4A
  8
0
 10
3886.8118023659972096
 20
218.9382347238077102
 30
0.0
 11
3886.7997299374328577
 21
218.9262412062998919
 31
0.0
  0
LINE
  5
AE4B
  8
0
 10
3886.8048924624158644
 20
218.9450773607233032
 30
0.0
 11
3886.7997299374328577
 21
218.9399474904998897
 31
0.0
  0
LINE
  5
AE4C
  8
0
 10
3886.7997299374328577
 20
218.9399474904998897
 30
0.0
 11
3886.7997299374328577
 21
218.9262412062998919
 31
0.0
  0
LINE
  5
AE4D
  8
0
 10
3886.8122510159541889
 20
218.9696174379776039
 30
0.0
 11
3886.7997299374328577
 21
218.9571782030998861
 31
0.0
  0
LINE
  5
AE4E
  8
0
 10
3886.8053410646280099
 20
218.9764601221723979
 30
0.0
 11
3886.7997299374328577
 21
218.9708844872999123
 31
0.0
  0
LINE
  5
AE4F
  8
0
 10
3886.7997299374328577
 20
218.9708844872999123
 30
0.0
 11
3886.7997299374328577
 21
218.9571782030998861
 31
0.0
  0
LINE
  5
AE50
  8
0
 10
3886.8118071324920493
 20
219.0001134526476108
 30
0.0
 11
3886.7997299374328577
 21
218.9881151997998927
 31
0.0
  0
LINE
  5
AE51
  8
0
 10
3886.8049060977218687
 20
219.006964903281812
 30
0.0
 11
3886.7997299374328577
 21
219.0018214839998905
 31
0.0
  0
LINE
  5
AE52
  8
0
 10
3886.7997299374328577
 20
219.0018214839998905
 30
0.0
 11
3886.7997299374328577
 21
218.9881151997998927
 31
0.0
  0
LINE
  5
AE53
  8
0
 10
3886.8118071324920493
 20
219.0310504494476049
 30
0.0
 11
3886.7997299374328577
 21
219.0190521965998869
 31
0.0
  0
LINE
  5
AE54
  8
0
 10
3886.8049060977218687
 20
219.0379019000818062
 30
0.0
 11
3886.7997299374328577
 21
219.0327584807999131
 31
0.0
  0
LINE
  5
AE55
  8
0
 10
3886.7997299374328577
 20
219.0327584807999131
 30
0.0
 11
3886.7997299374328577
 21
219.0190521965998869
 31
0.0
  0
LINE
  5
AE56
  8
0
 10
3886.8118071324920493
 20
219.0619874461476115
 30
0.0
 11
3886.7997299374328577
 21
219.0499891932998935
 31
0.0
  0
LINE
  5
AE57
  8
0
 10
3886.8049060977218687
 20
219.068838896781898
 30
0.0
 11
3886.7997299374328577
 21
219.0636954774998912
 31
0.0
  0
LINE
  5
AE58
  8
0
 10
3886.7997299374328577
 20
219.0636954774998912
 30
0.0
 11
3886.7997299374328577
 21
219.0499891932998935
 31
0.0
  0
LINE
  5
AE59
  8
0
 10
3886.8118071324920493
 20
219.1238614397475999
 30
0.0
 11
3886.7997299374328577
 21
219.1118631868999103
 31
0.0
  0
LINE
  5
AE5A
  8
0
 10
3886.8049060977218687
 20
219.1307128903818011
 30
0.0
 11
3886.7997299374328577
 21
219.125569471099908
 31
0.0
  0
LINE
  5
AE5B
  8
0
 10
3886.7997299374328577
 20
219.125569471099908
 30
0.0
 11
3886.7997299374328577
 21
219.1118631868999103
 31
0.0
  0
ARC
  5
AE5C
  8
0
 10
3886.8532520444459806
 20
218.9345954981226896
 30
0.0
 40
0.005695592579206
 50
260.024097047586281
 51
3.4716856605461301
  0
LINE
  5
AE5D
  8
0
 10
3886.8589371847319853
 20
218.9349403962999077
 30
0.0
 11
3886.8589371847319853
 21
218.941535366576602
 31
0.0
  0
ARC
  5
AE5E
  8
0
 10
3886.8824021843051923
 20
218.9572922858033905
 30
0.0
 40
0.0084608911808288
 50
291.7590487894030957
 51
359.2274270686518207
  0
LINE
  5
AE5F
  8
0
 10
3886.8855386715331406
 20
218.9494342244998961
 30
0.0
 11
3886.8664834479409365
 21
218.9494286006793971
 31
0.0
  0
LINE
  5
AE60
  8
0
 10
3886.8908623063321102
 20
218.9571782030998861
 30
0.0
 11
3886.8676922711010775
 21
218.9570547500105135
 31
0.0
  0
LINE
  5
AE61
  8
0
 10
3886.8676922711010775
 20
218.9570547500105135
 30
0.0
 11
3886.8547050165489054
 21
218.9691263641263106
 31
0.0
  0
LINE
  5
AE62
  8
0
 10
3886.8969606300702253
 20
218.9764887566722109
 30
0.0
 11
3886.8908623063321102
 21
218.9708844872999123
 31
0.0
  0
LINE
  5
AE63
  8
0
 10
3886.8908623063321102
 20
218.9708844872999123
 30
0.0
 11
3886.8676922711010775
 21
218.9699893845385077
 31
0.0
  0
LINE
  5
AE64
  8
0
 10
3886.8676922711010775
 20
218.9699893845385077
 30
0.0
 11
3886.8616990886189342
 21
218.9758066795041884
 31
0.0
  0
LINE
  5
AE65
  8
0
 10
3886.8676922711010775
 20
218.9699893845385077
 30
0.0
 11
3886.8676922711010775
 21
218.9570547500105135
 31
0.0
  0
LINE
  5
AE66
  8
0
 10
3886.8908623063321102
 20
218.9708844872999123
 30
0.0
 11
3886.8908623063321102
 21
218.9571782030998861
 31
0.0
  0
ARC
  5
AE67
  8
0
 10
3886.9017956383190722
 20
218.9762613114249064
 30
0.0
 40
0.00809391887453
 50
291.5701188795702024
 51
6.5496980497675761
  0
LINE
  5
AE68
  8
0
 10
3886.9047712834321828
 20
218.9687342230830041
 30
0.0
 11
3886.8930547257650687
 21
218.9803665969415931
 31
0.0
  0
LINE
  5
AE69
  8
0
 10
3886.9135907657791904
 20
218.9958346168384935
 30
0.0
 11
3886.9006187907011736
 21
218.9829448532385072
 31
0.0
  0
ARC
  5
AE6A
  8
0
 10
3886.8943650769761007
 20
218.9892384534238943
 30
0.0
 40
0.0088723355798629
 50
269.9790252196966094
 51
314.8178639522034814
  0
LINE
  5
AE6B
  8
0
 10
3886.8943618289999904
 20
218.9803661184384964
 30
0.0
 11
3886.8664833573639044
 21
218.9803763241613126
 31
0.0
  0
LINE
  5
AE6C
  8
0
 10
3886.9052274307600783
 20
219.0001083497861885
 30
0.0
 11
3886.8931502357008867
 21
218.9881100969384988
 31
0.0
  0
LINE
  5
AE6D
  8
0
 10
3886.8931502357008867
 20
218.9881100969384988
 30
0.0
 11
3886.8676922711010775
 21
218.9881100969384988
 31
0.0
  0
LINE
  5
AE6E
  8
0
 10
3886.8676922711010775
 20
218.9881100969384988
 30
0.0
 11
3886.855612801440202
 21
219.0001095773965005
 31
0.0
  0
LINE
  5
AE6F
  8
0
 10
3886.8983263959898977
 20
219.0069598004205034
 30
0.0
 11
3886.8931502357008867
 21
219.0018163811384966
 31
0.0
  0
LINE
  5
AE70
  8
0
 10
3886.8931502357008867
 20
219.0018163811384966
 30
0.0
 11
3886.8676922711010775
 21
219.0018163811384966
 31
0.0
  0
LINE
  5
AE71
  8
0
 10
3886.8676922711010775
 20
219.0018163811384966
 30
0.0
 11
3886.8626227191080034
 21
219.0067371522613087
 31
0.0
  0
LINE
  5
AE72
  8
0
 10
3886.8676922711010775
 20
219.0018163811384966
 30
0.0
 11
3886.8676922711010775
 21
218.9881100969384988
 31
0.0
  0
LINE
  5
AE73
  8
0
 10
3886.8931502357008867
 20
219.0018163811384966
 30
0.0
 11
3886.8931502357008867
 21
218.9881100969384988
 31
0.0
  0
ARC
  5
AE74
  8
0
 10
3886.9132205728251392
 20
219.0047585811759063
 30
0.0
 40
0.0089316393970375
 50
225.2667652773766065
 51
272.3754397712373247
  0
LINE
  5
AE75
  8
0
 10
3886.906934423500843
 20
218.9984136218384947
 30
0.0
 11
3886.8948354504182134
 21
219.0104256634469095
 31
0.0
  0
LINE
  5
AE76
  8
0
 10
3886.9127754257187917
 20
219.0258848912721987
 30
0.0
 11
3886.9006174509190714
 21
219.0129918502385067
 31
0.0
  0
ARC
  5
AE77
  8
0
 10
3886.894363737194908
 20
219.0192854504238937
 30
0.0
 40
0.0088723355798629
 50
269.9790252196966094
 51
314.8178639522034814
  0
LINE
  5
AE78
  8
0
 10
3886.8943604892187977
 20
219.0104131154384959
 30
0.0
 11
3886.8664820175831665
 21
219.0104233211613121
 31
0.0
  0
LINE
  5
AE79
  8
0
 10
3886.9052260909788856
 20
219.0301553467861879
 30
0.0
 11
3886.8931488959187845
 21
219.0181570939384983
 31
0.0
  0
LINE
  5
AE7A
  8
0
 10
3886.8931488959187845
 20
219.0181570939384983
 30
0.0
 11
3886.8676909313189753
 21
219.0181570939384983
 31
0.0
  0
LINE
  5
AE7B
  8
0
 10
3886.8676909313189753
 20
219.0181570939384983
 30
0.0
 11
3886.8551908521521909
 21
219.0305743986621962
 31
0.0
  0
LINE
  5
AE7C
  8
0
 10
3886.8983250562091598
 20
219.0370067974205028
 30
0.0
 11
3886.8931488959187845
 21
219.031863378138496
 31
0.0
  0
LINE
  5
AE7D
  8
0
 10
3886.8931488959187845
 20
219.031863378138496
 30
0.0
 11
3886.8676909313189753
 21
219.031863378138496
 31
0.0
  0
LINE
  5
AE7E
  8
0
 10
3886.8676909313189753
 20
219.031863378138496
 30
0.0
 11
3886.8621605608759637
 21
219.0372314436424972
 31
0.0
  0
LINE
  5
AE7F
  8
0
 10
3886.8676909313189753
 20
219.031863378138496
 30
0.0
 11
3886.8676909313189753
 21
219.0181570939384983
 31
0.0
  0
LINE
  5
AE80
  8
0
 10
3886.8931488959187845
 20
219.031863378138496
 30
0.0
 11
3886.8931488959187845
 21
219.0181570939384983
 31
0.0
  0
ARC
  5
AE81
  8
0
 10
3886.9132183408141827
 20
219.0348032753560972
 30
0.0
 40
0.0089293755911456
 50
225.2604327305035099
 51
267.1568467428542135
  0
LINE
  5
AE82
  8
0
 10
3886.9069330837191956
 20
219.0284606188384942
 30
0.0
 11
3886.8939501570080211
 21
219.0413502628429967
 31
0.0
  0
LINE
  5
AE83
  8
0
 10
3886.9135907657791904
 20
219.0568186105384996
 30
0.0
 11
3886.9006187907011736
 21
219.0439288469385133
 31
0.0
  0
ARC
  5
AE84
  8
0
 10
3886.8943650769761007
 20
219.0502224471237867
 30
0.0
 40
0.0088723355798629
 50
269.9790252196966094
 51
314.8178639522034814
  0
LINE
  5
AE85
  8
0
 10
3886.8943618289999904
 20
219.0413501121385025
 30
0.0
 11
3886.8664833573639044
 21
219.0413603178612902
 31
0.0
  0
LINE
  5
AE86
  8
0
 10
3886.9052274307600783
 20
219.0610923434861945
 30
0.0
 11
3886.8931502357008867
 21
219.0490940906385049
 31
0.0
  0
LINE
  5
AE87
  8
0
 10
3886.8931502357008867
 20
219.0490940906385049
 30
0.0
 11
3886.8676922711010775
 21
219.0490940906385049
 31
0.0
  0
LINE
  5
AE88
  8
0
 10
3886.8676922711010775
 20
219.0490940906385049
 30
0.0
 11
3886.8551915351381467
 21
219.0615120478088045
 31
0.0
  0
LINE
  5
AE89
  8
0
 10
3886.8983263959898977
 20
219.0679437941203958
 30
0.0
 11
3886.8931502357008867
 21
219.0628003748385026
 31
0.0
  0
LINE
  5
AE8A
  8
0
 10
3886.8931502357008867
 20
219.0628003748385026
 30
0.0
 11
3886.8676922711010775
 21
219.0628003748385026
 31
0.0
  0
LINE
  5
AE8B
  8
0
 10
3886.8676922711010775
 20
219.0628003748385026
 30
0.0
 11
3886.8621612361112057
 21
219.0681690853861028
 31
0.0
  0
LINE
  5
AE8C
  8
0
 10
3886.8676922711010775
 20
219.0628003748385026
 30
0.0
 11
3886.8676922711010775
 21
219.0490940906385049
 31
0.0
  0
LINE
  5
AE8D
  8
0
 10
3886.8931502357008867
 20
219.0628003748385026
 30
0.0
 11
3886.8931502357008867
 21
219.0490940906385049
 31
0.0
  0
ARC
  5
AE8E
  8
0
 10
3886.9132205728251392
 20
219.0657425748759124
 30
0.0
 40
0.0089316393970366
 50
225.2667652773766065
 51
272.3754397712373247
  0
LINE
  5
AE8F
  8
0
 10
3886.906934423500843
 20
219.0593976155385008
 30
0.0
 11
3886.8939514971830249
 21
219.0722872591522901
 31
0.0
  0
LINE
  5
AE90
  8
0
 10
3886.9024837545011906
 20
219.0767189881030959
 30
0.0
 11
3886.9006187907011736
 21
219.0748658437385075
 31
0.0
  0
ARC
  5
AE91
  8
0
 10
3886.8943650769761007
 20
219.0811594439238092
 30
0.0
 40
0.0088723355798629
 50
269.9790252196966094
 51
314.8178639522034814
  0
LINE
  5
AE92
  8
0
 10
3886.8943618289999904
 20
219.0722871089384967
 30
0.0
 11
3886.8664833573639044
 21
219.0722973146613128
 31
0.0
  0
LINE
  5
AE93
  8
0
 10
3886.8963102885841181
 20
219.0831704847338131
 30
0.0
 11
3886.8931502357008867
 21
219.0800310874384991
 31
0.0
  0
LINE
  5
AE94
  8
0
 10
3886.8931502357008867
 20
219.0800310874384991
 30
0.0
 11
3886.8676922711010775
 21
219.0800310874384991
 31
0.0
  0
LINE
  5
AE95
  8
0
 10
3886.8676922711010775
 20
219.0800310874384991
 30
0.0
 11
3886.8551666766679773
 21
219.0924737384682999
 31
0.0
  0
LINE
  5
AE96
  8
0
 10
3886.8835706807258248
 20
219.0937373716384968
 30
0.0
 11
3886.8676922711010775
 21
219.0937373716384968
 31
0.0
  0
LINE
  5
AE97
  8
0
 10
3886.8676922711010775
 20
219.0937373716384968
 30
0.0
 11
3886.8619994051728099
 21
219.0992631637207069
 31
0.0
  0
LINE
  5
AE98
  8
0
 10
3886.8676922711010775
 20
219.0937373716384968
 30
0.0
 11
3886.8676922711010775
 21
219.0800310874384991
 31
0.0
  0
LINE
  5
AE99
  8
0
 10
3886.8931502357008867
 20
219.0861008915464936
 30
0.0
 11
3886.8931502357008867
 21
219.0800310874384991
 31
0.0
  0
LINE
  5
AE9A
  8
0
 10
3886.9135907657791904
 20
218.9958346168384935
 30
0.0
 11
3886.9228792190319837
 21
218.9958397196998874
 31
0.0
  0
ARC
  5
AE9B
  8
0
 10
3886.9100402353351456
 20
219.0028659563218127
 30
0.0
 40
0.0146358294418854
 50
331.3099636809536719
 51
2.8109156111465019
  0
LINE
  5
AE9C
  8
0
 10
3886.9246584551319756
 20
219.0035836981998898
 30
0.0
 11
3886.9246584551319756
 21
219.0172899823998875
 31
0.0
  0
LINE
  5
AE9D
  8
0
 10
3886.9246584551319756
 20
219.0172899823998875
 30
0.0
 11
3886.9277212538690947
 21
219.0268114241713135
 31
0.0
  0
LINE
  5
AE9E
  8
0
 10
3886.9277212538690947
 20
219.0268114241713135
 30
0.0
 11
3886.9127754257187917
 21
219.0258848912721987
 31
0.0
  0
LINE
  5
AE9F
  8
0
 10
3886.9096739099140905
 20
219.0529265782267885
 30
0.0
 11
3886.9144044298332119
 21
219.0482269791999101
 31
0.0
  0
LINE
  5
AEA0
  8
0
 10
3886.9144044298332119
 20
219.0482269791999101
 30
0.0
 11
3886.9207430268279495
 21
219.0482269791999101
 31
0.0
  0
LINE
  5
AEA1
  8
0
 10
3886.9098367305327884
 20
218.9771845441999005
 30
0.0
 11
3886.909907449102775
 21
218.9921746436318131
 31
0.0
  0
LINE
  5
AEA2
  8
0
 10
3886.6935793170819124
 20
218.9399474904998897
 30
0.0
 11
3886.7063082994318393
 21
218.9399474904998897
 31
0.0
  0
LINE
  5
AEA3
  8
0
 10
3886.7063082994318393
 20
218.9399474904998897
 30
0.0
 11
3886.7114890173661479
 21
218.9450943449384965
 31
0.0
  0
LINE
  5
AEA4
  8
0
 10
3886.6935793170819124
 20
218.9262412062998919
 30
0.0
 11
3886.7063082994318393
 21
218.9262412062998919
 31
0.0
  0
LINE
  5
AEA5
  8
0
 10
3886.7063082994318393
 20
218.9262412062998919
 30
0.0
 11
3886.7063082994318393
 21
218.9399474904998897
 31
0.0
  0
LINE
  5
AEA6
  8
0
 10
3886.7063082994318393
 20
218.9262412062998919
 30
0.0
 11
3886.7183835742062001
 21
218.9382375515124863
 31
0.0
  0
LINE
  5
AEA7
  8
0
 10
3886.6935793170819124
 20
218.9708844872999123
 30
0.0
 11
3886.7063082994318393
 21
218.9708844872999123
 31
0.0
  0
LINE
  5
AEA8
  8
0
 10
3886.7063082994318393
 20
218.9708844872999123
 30
0.0
 11
3886.7119339152482098
 21
218.9764733315680871
 31
0.0
  0
LINE
  5
AEA9
  8
0
 10
3886.6935793170819124
 20
218.9571782030998861
 30
0.0
 11
3886.7063082994318393
 21
218.9571782030998861
 31
0.0
  0
LINE
  5
AEAA
  8
0
 10
3886.7063082994318393
 20
218.9571782030998861
 30
0.0
 11
3886.7063082994318393
 21
218.9708844872999123
 31
0.0
  0
LINE
  5
AEAB
  8
0
 10
3886.7063082994318393
 20
218.9571782030998861
 30
0.0
 11
3886.7188314571471892
 21
218.9696195036842994
 31
0.0
  0
LINE
  5
AEAC
  8
0
 10
3886.6935793170819124
 20
219.0018214839998905
 30
0.0
 11
3886.7063082994318393
 21
219.0018214839998905
 31
0.0
  0
LINE
  5
AEAD
  8
0
 10
3886.7063082994318393
 20
219.0018214839998905
 30
0.0
 11
3886.7114890173661479
 21
219.0069683384384973
 31
0.0
  0
LINE
  5
AEAE
  8
0
 10
3886.6935793170819124
 20
218.9881151997998927
 30
0.0
 11
3886.7063082994318393
 21
218.9881151997998927
 31
0.0
  0
LINE
  5
AEAF
  8
0
 10
3886.7063082994318393
 20
218.9881151997998927
 30
0.0
 11
3886.7063082994318393
 21
219.0018214839998905
 31
0.0
  0
LINE
  5
AEB0
  8
0
 10
3886.7063082994318393
 20
218.9881151997998927
 30
0.0
 11
3886.7183835742062001
 21
219.0001115450124871
 31
0.0
  0
LINE
  5
AEB1
  8
0
 10
3886.6935793170819124
 20
219.0636954775999072
 30
0.0
 11
3886.7063082994318393
 21
219.0636954775999072
 31
0.0
  0
LINE
  5
AEB2
  8
0
 10
3886.7063082994318393
 20
219.0636954775999072
 30
0.0
 11
3886.7114890173661479
 21
219.0688423320385141
 31
0.0
  0
LINE
  5
AEB3
  8
0
 10
3886.6935793170819124
 20
219.0499891933999095
 30
0.0
 11
3886.7063082994318393
 21
219.0499891933999095
 31
0.0
  0
LINE
  5
AEB4
  8
0
 10
3886.7063082994318393
 20
219.0499891933999095
 30
0.0
 11
3886.7063082994318393
 21
219.0636954775999072
 31
0.0
  0
LINE
  5
AEB5
  8
0
 10
3886.7063082994318393
 20
219.0499891933999095
 30
0.0
 11
3886.7183835742062001
 21
219.0619855386125039
 31
0.0
  0
LINE
  5
AEB6
  8
0
 10
3886.6935793170819124
 20
219.0946324742999138
 30
0.0
 11
3886.7063082994318393
 21
219.0946324742999138
 31
0.0
  0
LINE
  5
AEB7
  8
0
 10
3886.7063082994318393
 20
219.0946324742999138
 30
0.0
 11
3886.7114890173661479
 21
219.099779328738407
 31
0.0
  0
LINE
  5
AEB8
  8
0
 10
3886.6935793170819124
 20
219.0809261900998877
 30
0.0
 11
3886.7063082994318393
 21
219.0809261900998877
 31
0.0
  0
LINE
  5
AEB9
  8
0
 10
3886.7063082994318393
 20
219.0809261900998877
 30
0.0
 11
3886.7063082994318393
 21
219.0946324742999138
 31
0.0
  0
LINE
  5
AEBA
  8
0
 10
3886.7063082994318393
 20
219.0809261900998877
 30
0.0
 11
3886.7183835742062001
 21
219.0929225353125105
 31
0.0
  0
LINE
  5
AEBB
  8
0
 10
3886.6935793170819124
 20
219.125569471099908
 30
0.0
 11
3886.7063082994318393
 21
219.125569471099908
 31
0.0
  0
LINE
  5
AEBC
  8
0
 10
3886.7063082994318393
 20
219.125569471099908
 30
0.0
 11
3886.7114890173661479
 21
219.1307163255384012
 31
0.0
  0
LINE
  5
AEBD
  8
0
 10
3886.6935793170819124
 20
219.1118631868999103
 30
0.0
 11
3886.7063082994318393
 21
219.1118631868999103
 31
0.0
  0
LINE
  5
AEBE
  8
0
 10
3886.7063082994318393
 20
219.1118631868999103
 30
0.0
 11
3886.7063082994318393
 21
219.125569471099908
 31
0.0
  0
LINE
  5
AEBF
  8
0
 10
3886.7063082994318393
 20
219.1118631868999103
 30
0.0
 11
3886.7183835742062001
 21
219.1238595321125047
 31
0.0
  0
ARC
  5
AEC0
  8
0
 10
3886.6935793170819124
 20
218.7535088380244872
 30
0.0
 40
0.395757495312818
 50
80.8750494987196049
 51
99.1249505013331458
  0
LINE
  5
AEC1
  8
0
 10
3885.6035793171317891
 20
212.4842088014752903
 30
0.0
 11
3887.7835793170311263
 21
212.4842088014752903
 31
0.0
  0
LINE
  5
AEC2
  8
0
 10
3885.7835793171311707
 20
212.8342088014753983
 30
0.0
 11
3885.7835793171311707
 21
221.8842088373999104
 31
0.0
  0
LINE
  5
AEC3
  8
0
 10
3885.5735793171311343
 20
212.5142088014758031
 30
0.0
 11
3885.5735793171311343
 21
212.6242088014753051
 31
0.0
  0
LINE
  5
AEC4
  8
0
 10
3885.6035793171317891
 20
212.6542088014753062
 30
0.0
 11
3887.7835793170311263
 21
212.6542088014753062
 31
0.0
  0
ARC
  5
AEC5
  8
0
 10
3885.6035793171317891
 20
212.5142088014752915
 30
0.0
 40
0.0300000000000011
 50
180.0000000000015916
 51
270.0000000021365167
  0
ARC
  5
AEC6
  8
0
 10
3885.6035793171317891
 20
212.6242088014753051
 30
0.0
 40
0.0300000000000003
 50
90.0
 51
180.0
  0
ARC
  5
AEC7
  8
0
 10
3885.6035793171317891
 20
212.8342088014753983
 30
0.0
 40
0.1799999999999997
 50
270.0
 51
0.0
  0
LINE
  5
AEC8
  8
0
 10
3885.7835793171311707
 20
221.8842088373999104
 30
0.0
 11
3887.6035793170321995
 21
221.8842088373999104
 31
0.0
  0
LINE
  5
AEC9
  8
0
 10
3885.8150598628308217
 20
221.9054291654998963
 30
0.0
 11
3887.5720987713320937
 21
221.9054291654998963
 31
0.0
  0
ARC
  5
AECA
  8
0
 10
3885.8151107879862138
 20
221.9351813167122884
 30
0.0
 40
0.0297521947953323
 50
177.5560240044181057
 51
269.9019299954480857
  0
LINE
  5
AECB
  8
0
 10
3885.7853856559318046
 20
221.9364500244998908
 30
0.0
 11
3885.8113484719087865
 21
222.6815449369769908
 31
0.0
  0
LINE
  5
AECC
  8
0
 10
3885.8413246341820013
 20
222.7104979289842959
 30
0.0
 11
3887.5458339999800046
 21
222.7104979289842959
 31
0.0
  0
LINE
  5
AECD
  8
0
 10
3886.4933700786132249
 20
223.2854307633004112
 30
0.0
 11
3886.8937885555501452
 21
223.2854307633004112
 31
0.0
  0
LINE
  5
AECE
  8
0
 10
3886.2885793171308251
 20
220.0342088373998877
 30
0.0
 11
3886.2885793171308251
 21
219.0182254853866937
 31
0.0
  0
ARC
  5
AECF
  8
0
 10
3885.8413303065221953
 20
222.680497815000507
 30
0.0
 40
0.0300001145201206
 50
90.0108333305278165
 51
177.999745684456002
  0
LINE
  5
AED0
  8
0
 10
3886.4742465198460195
 20
223.3053528993737018
 30
0.0
 11
3886.4742465198460195
 21
224.3155202423407957
 31
0.0
  0
LINE
  5
AED1
  8
0
 10
3886.4739033657310756
 20
223.2657783581998956
 30
0.0
 11
3886.4699743025357748
 21
223.0406921939413962
 31
0.0
  0
ARC
  5
AED2
  8
0
 10
3886.1200276138310983
 20
223.0468007996998949
 30
0.0
 40
0.3500000000000004
 50
286.0024471922085922
 51
358.9999568569991766
  0
ARC
  5
AED3
  8
0
 10
3886.4933630116288441
 20
223.2659701733406052
 30
0.0
 40
0.0194605912429415
 50
89.9791934199164984
 51
180.5647503631012114
  0
ARC
  5
AED4
  8
0
 10
3886.4942786961992169
 20
223.3054425232413109
 30
0.0
 40
0.0200323768398152
 50
180.2563393515694941
 51
267.4003174815886155
  0
ARC
  5
AED5
  8
0
 10
3886.5177190155591234
 20
224.3067766532284111
 30
0.0
 40
0.0443430742511652
 50
110.6534274023864981
 51
168.6278700165659075
  0
ARC
  5
AED6
  8
0
 10
3886.6346143712880803
 20
224.0254851630868131
 30
0.0
 40
0.3489350760263194
 50
96.3094949255271615
 51
112.3231146453704952
  0
ARC
  5
AED7
  8
0
 10
3886.7055824875301369
 20
223.3888582360224007
 30
0.0
 40
0.989505292144045
 50
90.6950421392136832
 51
96.3427063579669607
  0
ARC
  5
AED8
  8
0
 10
3886.5202917176011397
 20
224.33445946822971
 30
0.0
 40
0.0497880961124589
 50
202.3582554059684924
 51
257.1095604145031075
  0
ARC
  5
AED9
  8
0
 10
3886.7039206965241647
 20
225.0209253483637895
 30
0.0
 40
0.760359139207902
 50
255.1605932189372936
 51
269.2207160610755068
  0
ARC
  5
AEDA
  8
0
 10
3886.7039040639638188
 20
224.8027897541167874
 30
0.0
 40
0.5251602799569161
 50
250.9438867668895909
 51
268.8734819463804229
  0
ARC
  5
AEDB
  8
0
 10
3886.5380904064300012
 20
224.325523381115886
 30
0.0
 40
0.0199317219557608
 50
104.2734180241963031
 51
253.5386441308071994
  0
ARC
  5
AEDC
  8
0
 10
3886.6893486994817977
 20
223.8989217822361866
 30
0.0
 40
0.4724751056841076
 50
89.4869575783149855
 51
109.3016221556026011
  0
ARC
  5
AEDD
  8
0
 10
3886.5414266978600608
 20
219.0902589098585906
 30
0.0
 40
0.2739647461260457
 50
214.4960867788765881
 51
242.3109785801858891
  0
ARC
  5
AEDE
  8
0
 10
3886.4625561999941965
 20
219.0288838111139
 30
0.0
 40
0.1743030569956239
 50
183.5057232942540111
 51
212.5514062296579141
  0
ARC
  5
AEDF
  8
0
 10
3886.4835458571178606
 20
218.9972382877375026
 30
0.0
 40
0.1960928713124855
 50
121.6872261348999018
 51
173.856046705997187
  0
ARC
  5
AEE0
  8
0
 10
3886.6967237536860011
 20
218.6215964510087986
 30
0.0
 40
0.6279174369079698
 50
90.2869225933010853
 51
120.2345240949989034
  0
ARC
  5
AEE1
  8
0
 10
3886.51219832400011
 20
219.2798693079768952
 30
0.0
 40
0.2266904358740153
 50
123.5253024735027054
 51
170.5575900999940018
  0
ARC
  5
AEE2
  8
0
 10
3886.6913913686230444
 20
218.9336983335855962
 30
0.0
 40
0.6156635993978088
 50
89.7963815361993198
 51
119.6313994339499942
  0
CIRCLE
  5
AEE3
  8
0
 10
3886.4328773442612146
 20
222.5253815732716021
 30
0.0
 40
0.0489055340225022
  0
LINE
  5
AEE4
  8
0
 10
3887.6035793170321995
 20
212.8342088014753983
 30
0.0
 11
3887.6035793170321995
 21
221.8842088373999104
 31
0.0
  0
LINE
  5
AEE5
  8
0
 10
3887.8135793170317811
 20
212.5142088014758031
 30
0.0
 11
3887.8135793170317811
 21
212.6242088014753051
 31
0.0
  0
ARC
  5
AEE6
  8
0
 10
3887.7835793170311263
 20
212.5142088014752915
 30
0.0
 40
0.0300000000000011
 50
269.9999999978634833
 51
359.9999999999984084
  0
ARC
  5
AEE7
  8
0
 10
3887.7835793170311263
 20
212.6242088014753051
 30
0.0
 40
0.0300000000000003
 50
0.0
 51
90.0
  0
ARC
  5
AEE8
  8
0
 10
3887.7835793170311263
 20
212.8342088014753983
 30
0.0
 40
0.1799999999999997
 50
180.0
 51
270.0
  0
ARC
  5
AEE9
  8
0
 10
3887.5720478461771563
 20
221.9351813167122884
 30
0.0
 40
0.0297521947953323
 50
270.0980700045519143
 51
2.4439759955819351
  0
LINE
  5
AEEA
  8
0
 10
3887.6017729782311108
 20
221.9364500244998908
 30
0.0
 11
3887.5758101622532195
 21
222.6815449369769908
 31
0.0
  0
LINE
  5
AEEB
  8
0
 10
3887.0985793170311808
 20
220.0342088373998877
 30
0.0
 11
3887.0985793170311808
 21
219.0182254853866937
 31
0.0
  0
ARC
  5
AEEC
  8
0
 10
3887.5458283276398106
 20
222.680497815000507
 30
0.0
 40
0.0300001145201206
 50
2.0002543155439798
 51
89.9891666694721977
  0
LINE
  5
AEED
  8
0
 10
3886.9129121143159864
 20
223.3053528993737018
 30
0.0
 11
3886.9129121143159864
 21
224.3155202423407957
 31
0.0
  0
LINE
  5
AEEE
  8
0
 10
3886.9132552684318398
 20
223.2657783581998956
 30
0.0
 11
3886.9171843316271406
 21
223.0406921939413962
 31
0.0
  0
ARC
  5
AEEF
  8
0
 10
3887.2671310203318171
 20
223.0468007996998949
 30
0.0
 40
0.3500000000000004
 50
181.0000431429992034
 51
253.9975528077914078
  0
ARC
  5
AEF0
  8
0
 10
3886.8937954790631011
 20
223.2659700312256916
 30
0.0
 40
0.0194607333062116
 50
359.4356721908275745
 51
90.0203840261447539
  0
ARC
  5
AEF1
  8
0
 10
3886.8928790801392097
 20
223.3054433466799082
 30
0.0
 40
0.0200332383563802
 50
272.6020265821545081
 51
359.7413165847070218
  0
ARC
  5
AEF2
  8
0
 10
3886.869439618603792
 20
224.3067766532284111
 30
0.0
 40
0.0443430742511652
 50
11.3721299834340996
 51
69.3465725976135445
  0
ARC
  5
AEF3
  8
0
 10
3886.7525442628739256
 20
224.0254851630868131
 30
0.0
 40
0.3489350760263194
 50
67.6768853546294338
 51
83.6905050744728243
  0
ARC
  5
AEF4
  8
0
 10
3886.6815761466327785
 20
223.3888582360224007
 30
0.0
 40
0.989505292144045
 50
83.6572936420330535
 51
89.3049578607863026
  0
ARC
  5
AEF5
  8
0
 10
3886.8668669165617757
 20
224.33445946822971
 30
0.0
 40
0.0497880961124589
 50
282.8904395854968925
 51
337.6417445940298876
  0
ARC
  5
AEF6
  8
0
 10
3886.6832379376392055
 20
225.0209253483637895
 30
0.0
 40
0.760359139207902
 50
270.7792839389243795
 51
284.839406781062678
  0
ARC
  5
AEF7
  8
0
 10
3886.6832545701981871
 20
224.8027897541167874
 30
0.0
 40
0.5251602799569144
 50
271.1265180536195771
 51
289.0561132331105227
  0
ARC
  5
AEF8
  8
0
 10
3886.8490682277320047
 20
224.325523381115886
 30
0.0
 40
0.0199317219557608
 50
286.4613558691928006
 51
75.7265819758036542
  0
ARC
  5
AEF9
  8
0
 10
3886.6978099346811177
 20
223.8989217822361866
 30
0.0
 40
0.4724751056841077
 50
70.6983778443973989
 51
90.5130424216850145
  0
ARC
  5
AEFA
  8
0
 10
3886.8457319363028546
 20
219.0902589098585906
 30
0.0
 40
0.2739647461260457
 50
297.6890214198140825
 51
325.5039132211221045
  0
ARC
  5
AEFB
  8
0
 10
3886.9246024341691736
 20
219.0288838111139
 30
0.0
 40
0.1743030569956239
 50
327.4485937703420859
 51
356.4942767057460173
  0
ARC
  5
AEFC
  8
0
 10
3886.9036127770450548
 20
218.9972382877375026
 30
0.0
 40
0.1960928713124855
 50
6.1439532940028183
 51
58.3127738651000698
  0
ARC
  5
AEFD
  8
0
 10
3886.6904348804778238
 20
218.6215964510087986
 30
0.0
 40
0.6279174369079698
 50
59.7654759050010327
 51
89.7130774066989147
  0
ARC
  5
AEFE
  8
0
 10
3886.8749603101628054
 20
219.2798693079768952
 30
0.0
 40
0.2266904358740153
 50
9.4424099000059734
 51
56.4746975264972875
  0
ARC
  5
AEFF
  8
0
 10
3886.6957672655389615
 20
218.9336983335855962
 30
0.0
 40
0.6156635993978088
 50
60.3686005660499987
 51
90.2036184638006659
  0
ARC
  5
AF00
  8
0
 10
3886.693579317081003
 20
220.0342088374499099
 30
0.0
 40
0.4049999999500012
 50
359.9999999929261207
 51
180.0000000070739077
  0
ARC
  5
AF01
  8
0
 10
3885.9185793171309342
 20
221.9342088373998934
 30
0.0
 40
0.060000000000014
 50
303.4872822177947
 51
331.3151968521902972
  0
ARC
  5
AF02
  8
0
 10
3887.4685793170319812
 20
221.9342088373998934
 30
0.0
 40
0.060000000000014
 50
208.6848031478095891
 51
236.5127177822053
  0
CIRCLE
  5
AF04
  8
0
 10
3886.954281289903065
 20
222.5253815732716021
 30
0.0
 40
0.0489055340225022
  0
ENDSEC
  0
EOF
