  0
SECTION
  2
HEADER
  9
$ACADVER
  1
AC1009
  9
$INSBASE
 10
3925.7171966992232228
 20
218.7016678541995134
 30
0.0
  9
$EXTMIN
 10
3924.5972805517790221
 20
212.8857268812411121
 30
0.0
  9
$EXTMAX
 10
3926.8371128466637856
 20
220.1924186085070119
 30
0.0
  9
$LIMMIN
 10
0.0
 20
0.0
  9
$LIMMAX
 10
11.6929133858000007
 20
8.2677165353999982
  9
$ORTHOMODE
 70
     0
  9
$REGENMODE
 70
     1
  9
$FILLMODE
 70
     1
  9
$QTEXTMODE
 70
     0
  9
$MIRRTEXT
 70
     0
  9
$DRAGMODE
 70
     2
  9
$LTSCALE
 40
0.6431102362
  9
$OSMODE
 70
  4095
  9
$ATTMODE
 70
     1
  9
$TEXTSIZE
 40
0.2
  9
$TRACEWID
 40
0.05
  9
$TEXTSTYLE
  7
STANDARD
  9
$CLAYER
  8
0
  9
$CELTYPE
  6
BYLAYER
  9
$CECOLOR
 62
   256
  9
$DIMSCALE
 40
1.0
  9
$DIMASZ
 40
0.1875
  9
$DIMEXO
 40
0.0625
  9
$DIMDLI
 40
0.4443307087
  9
$DIMRND
 40
0.0
  9
$DIMDLE
 40
0.0
  9
$DIMEXE
 40
0.125
  9
$DIMTP
 40
0.01
  9
$DIMTM
 40
0.01
  9
$DIMTXT
 40
2.0
  9
$DIMCEN
 40
0.1052362205
  9
$DIMTSZ
 40
0.0
  9
$DIMTOL
 70
     1
  9
$DIMLIM
 70
     0
  9
$DIMTIH
 70
     1
  9
$DIMTOH
 70
     1
  9
$DIMSE1
 70
     0
  9
$DIMSE2
 70
     0
  9
$DIMTAD
 70
     0
  9
$DIMZIN
 70
     0
  9
$DIMBLK
  1

  9
$DIMASO
 70
     1
  9
$DIMSHO
 70
     1
  9
$DIMPOST
  1
\X
  9
$DIMAPOST
  1

  9
$DIMALT
 70
     1
  9
$DIMALTD
 70
     2
  9
$DIMALTF
 40
25.3999999999999986
  9
$DIMLFAC
 40
1.0
  9
$DIMTOFL
 70
     0
  9
$DIMTVP
 40
0.0
  9
$DIMTIX
 70
     0
  9
$DIMSOXD
 70
     0
  9
$DIMSAH
 70
     0
  9
$DIMBLK1
  1

  9
$DIMBLK2
  1

  9
$DIMSTYLE
  2
STANDARD
  9
$DIMCLRD
 70
     0
  9
$DIMCLRE
 70
     0
  9
$DIMCLRT
 70
     0
  9
$DIMTFAC
 40
1.0
  9
$DIMGAP
 40
0.09
  9
$LUNITS
 70
     2
  9
$LUPREC
 70
     4
  9
$SKETCHINC
 40
0.1
  9
$FILLETRAD
 40
0.0
  9
$AUNITS
 70
     0
  9
$AUPREC
 70
     0
  9
$MENU
  1
.
  9
$ELEVATION
 40
0.0
  9
$PELEVATION
 40
0.0
  9
$THICKNESS
 40
0.0
  9
$LIMCHECK
 70
     0
  9
$BLIPMODE
 70
     0
  9
$CHAMFERA
 40
0.0
  9
$CHAMFERB
 40
0.0
  9
$SKPOLY
 70
     0
  9
$TDCREATE
 40
2458060.468368056230247
  9
$TDUPDATE
 40
2459935.7671527778729796
  9
$TDINDWG
 40
0.687171412
  9
$TDUSRTIMER
 40
0.687171412
  9
$USRTIMER
 70
     1
  9
$ANGBASE
 50
0.0
  9
$ANGDIR
 70
     0
  9
$PDMODE
 70
     0
  9
$PDSIZE
 40
0.3125
  9
$PLINEWID
 40
0.0
  9
$COORDS
 70
     1
  9
$SPLFRAME
 70
     0
  9
$SPLINETYPE
 70
     6
  9
$SPLINESEGS
 70
     8
  9
$ATTDIA
 70
     1
  9
$ATTREQ
 70
     1
  9
$HANDLING
 70
     1
  9
$HANDSEED
  5
CA77
  9
$SURFTAB1
 70
     6
  9
$SURFTAB2
 70
     6
  9
$SURFTYPE
 70
     6
  9
$SURFU
 70
     6
  9
$SURFV
 70
     6
  9
$UCSNAME
  2

  9
$UCSORG
 10
0.0
 20
0.0
 30
0.0
  9
$UCSXDIR
 10
1.0
 20
0.0
 30
0.0
  9
$UCSYDIR
 10
0.0
 20
1.0
 30
0.0
  9
$PUCSNAME
  2

  9
$PUCSORG
 10
0.0
 20
0.0
 30
0.0
  9
$PUCSXDIR
 10
1.0
 20
0.0
 30
0.0
  9
$PUCSYDIR
 10
0.0
 20
1.0
 30
0.0
  9
$USERI1
 70
     0
  9
$USERI2
 70
     0
  9
$USERI3
 70
     0
  9
$USERI4
 70
     0
  9
$USERI5
 70
     0
  9
$USERR1
 40
0.0
  9
$USERR2
 40
0.0
  9
$USERR3
 40
0.0
  9
$USERR4
 40
0.0
  9
$USERR5
 40
0.0
  9
$WORLDVIEW
 70
     1
  9
$SHADEDGE
 70
     3
  9
$SHADEDIF
 70
    70
  9
$TILEMODE
 70
     1
  9
$MAXACTVP
 70
    64
  9
$PLIMCHECK
 70
     0
  9
$PEXTMIN
 10
1.0000000000000000E+20
 20
1.0000000000000000E+20
 30
1.0000000000000000E+20
  9
$PEXTMAX
 10
-1.0000000000000000E+20
 20
-1.0000000000000000E+20
 30
-1.0000000000000000E+20
  9
$PLIMMIN
 10
0.0
 20
0.0
  9
$PLIMMAX
 10
12.0
 20
9.0
  9
$UNITMODE
 70
     0
  9
$VISRETAIN
 70
     1
  9
$PLINEGEN
 70
     0
  9
$PSLTSCALE
 70
     1
  0
ENDSEC
  0
SECTION
  2
TABLES
  0
TABLE
  2
VPORT
 70
     1
  0
VPORT
  2
*ACTIVE
 70
     0
 10
0.0
 20
0.0
 11
1.0
 21
1.0
 12
39.0237152539088967
 22
-1.785776499352365
 13
0.0
 23
0.0
 14
1.0
 24
1.0
 15
0.0
 25
0.0
 16
0.0
 26
0.0
 36
49.4172280973888718
 17
3886.6934814453129547
 27
218.324849244226499
 37
0.0
 40
7.3439390937600608
 41
1.772108843537415
 42
50.0
 43
0.0
 44
0.0
 50
0.0
 51
0.0
 71
     0
 72
   100
 73
     1
 74
     1
 75
     0
 76
     0
 77
     0
 78
     0
  0
ENDTAB
  0
TABLE
  2
LTYPE
 70
     2
  0
LTYPE
  2
CONTINUOUS
 70
     0
  3
Solid line
 72
    65
 73
     0
 40
0.0
  0
LTYPE
  2
PHANTOM2
 70
     0
  3
___ _ _ ___ _ _ ___ _ _ ___ _ _
 72
    65
 73
     6
 40
1.25
 49
0.625
 49
-0.125
 49
0.125
 49
-0.125
 49
0.125
 49
-0.125
  0
ENDTAB
  0
TABLE
  2
LAYER
 70
     2
  0
LAYER
  2
0
 70
     0
 62
   255
  6
CONTINUOUS
  0
LAYER
  2
DEFPOINTS
 70
     0
 62
     7
  6
CONTINUOUS
  0
ENDTAB
  0
TABLE
  2
STYLE
 70
     1
  0
STYLE
  2
STANDARD
 70
     0
 40
0.0
 41
0.8
 50
0.0
 71
     0
 42
0.2
  3
txt
  4

  0
ENDTAB
  0
TABLE
  2
VIEW
 70
     0
  0
ENDTAB
  0
TABLE
  2
UCS
 70
     0
  0
ENDTAB
  0
TABLE
  2
APPID
 70
    10
  0
APPID
  2
ACAD
 70
     0
  0
APPID
  2
ACAD_MLEADERVER
 70
     0
  0
APPID
  2
ACAD_EXEMPT_FROM_CAD_STANDARDS
 70
     0
  0
APPID
  2
ACAD_NAV_VCDISPLAY
 70
     0
  0
APPID
  2
ACAECLAYERSTANDARD
 70
     0
  0
APPID
  2
ACCMTRANSPARENCY
 70
     0
  0
APPID
  2
ACAD_DSTYLE_DIMJAG
 70
     0
  0
APPID
  2
ACAD_DSTYLE_DIMTALN
 70
     0
  0
APPID
  2
ACDBATTR
 70
     0
  0
APPID
  2
ACADANNOTATIVE
 70
     0
  0
ENDTAB
  0
TABLE
  2
DIMSTYLE
 70
     1
  0
DIMSTYLE
  2
STANDARD
 70
     0
  3

  4

  5

  6

  7

 40
1.0
 41
0.1875
 42
0.0625
 43
0.38
 44
0.125
 45
0.0
 46
0.0
 47
0.01
 48
0.01
140
0.15625
141
0.09
142
0.0
143
25.3999999999999986
144
1.0
145
0.0
146
1.0
147
0.09
 71
     1
 72
     0
 73
     1
 74
     1
 75
     0
 76
     0
 77
     0
 78
     4
170
     0
171
     2
172
     0
173
     0
174
     0
175
     0
176
     0
177
     0
178
     0
  0
ENDTAB
  0
ENDSEC
  0
SECTION
  2
BLOCKS
  0
BLOCK
  8
0
  2
$MODEL_SPACE
 70
     0
 10
0.0
 20
0.0
 30
0.0
  3
$MODEL_SPACE
  1

  0
ENDBLK
  5
21
  8
0
  0
BLOCK
 67
     1
  8
0
  2
$PAPER_SPACE
 70
     0
 10
0.0
 20
0.0
 30
0.0
  3
$PAPER_SPACE
  1

  0
ENDBLK
  5
1D
 67
     1
  8
0
  0
ENDSEC
  0
SECTION
  2
ENTITIES
  0
ATTDEF
  5
3930
  8
DEFPOINTS
 10
3925.7114594459171713
 20
218.6984445329597122
 30
0.0
 40
0.001
  1
K-14402T-4AE2
  3

  2
MODELNUMBER
 70
     0
1001
ACDBATTR
1070
     0
1070
     1
  0
ATTDEF
  5
3931
  8
DEFPOINTS
 10
3925.7114594459171713
 20
218.6967778662929902
 30
0.0
 40
0.001
  1
PURIST
  3

  2
TRADENAME
 70
     0
1001
ACDBATTR
1070
     0
1070
     1
  0
ATTDEF
  5
3932
  8
DEFPOINTS
 10
3925.7114594459171713
 20
218.6951111996262966
 30
0.0
 40
0.001
  1
BATHROOM SINK FAUCET
  3

  2
PRODUCT
 70
     0
1001
ACDBATTR
1070
     0
1070
     1
  0
LINE
  5
C987
  8
0
 10
3925.3121966992830494
 20
213.2169893184029092
 30
0.0
 11
3925.3121966992830494
 21
217.8867230699879087
 31
0.0
  0
ARC
  5
C988
  8
0
 10
3925.7140685804729401
 20
218.7013246700034017
 30
0.0
 40
0.9100000000000001
 50
255.5318601263120115
 51
256.212549240285
  0
LINE
  5
C989
  8
0
 10
3925.548040790781215
 20
219.5734847593398058
 30
0.0
 11
3925.5480407791819744
 21
219.5799711256210003
 31
0.0
  0
ARC
  5
C98A
  8
0
 10
3925.5680898609120959
 20
219.5799711614741909
 30
0.0
 40
0.0200490817297504
 50
102.8298848182651994
 51
180.0001024602470068
  0
ARC
  5
C98B
  8
0
 10
3925.5564909773411273
 20
219.5428272158632126
 30
0.0
 40
0.0357516686411513
 50
103.6716873311412996
 51
121.3996149870857977
  0
ARC
  5
C98C
  8
0
 10
3925.540306236267952
 20
219.7636602856150034
 30
0.0
 40
0.190332745809932
 50
269.26486039201518
 51
279.479678111476801
  0
ARC
  5
C98D
  8
0
 10
3925.7215089832611739
 20
218.4028036965351873
 30
0.0
 40
1.1826555849954541
 50
90.2089164635297465
 51
97.2795695065252914
  0
LINE
  5
C98E
  8
0
 10
3926.1221966991838599
 20
213.2169893184029092
 30
0.0
 11
3926.1221966991838599
 21
217.8867239498248125
 31
0.0
  0
LINE
  5
C98F
  8
0
 10
3925.8863526076847847
 20
219.5734847593398058
 30
0.0
 11
3925.8863526192831159
 21
219.5799711256210003
 31
0.0
  0
ARC
  5
C990
  8
0
 10
3925.8663035375539039
 20
219.5799711614741909
 30
0.0
 40
0.0200490817297504
 50
359.9998975397513732
 51
77.1701151817347721
  0
ARC
  5
C991
  8
0
 10
3925.877902421125782
 20
219.5428272158632126
 30
0.0
 40
0.0357516686411513
 50
58.6003850129142165
 51
76.3283126688587146
  0
ARC
  5
C992
  8
0
 10
3925.8940871621980477
 20
219.7636602856150034
 30
0.0
 40
0.190332745809932
 50
260.5203218885229148
 51
270.73513960798482
  0
ARC
  5
C993
  8
0
 10
3925.7128844152039164
 20
218.4028036965351873
 30
0.0
 40
1.1826555849954541
 50
82.7204304934747086
 51
89.7910835364702535
  0
ARC
  5
C994
  8
0
 10
3925.7171966992332273
 20
213.2989337099106137
 30
0.0
 40
0.41320682866944
 50
191.4383401287255992
 51
348.5616598712744008
  0
ARC
  5
C995
  8
0
 10
3925.7171958140647803
 20
218.7016307958872119
 30
0.0
 40
0.2203627109377544
 50
3.2838081295566881
 51
176.7081660898936093
  0
ARC
  5
C996
  8
0
 10
3925.7171966992218586
 20
218.7023349124490892
 30
0.0
 40
0.2249390517442368
 50
347.9711289990361252
 51
192.0288710010601108
  0
ARC
  5
C997
  8
0
 10
3925.7171966992332273
 20
219.0218853684447993
 30
0.0
 40
0.5976970303415855
 50
75.1127590129592306
 51
104.8872409870406983
  0
LINE
  5
C998
  8
0
 10
3925.9371966992212037
 20
215.4623349124491085
 30
0.0
 11
3925.9371966992212037
 21
218.7142535888559962
 31
0.0
  0
LINE
  5
C999
  8
0
 10
3925.4971966992220587
 20
215.4623349124491085
 30
0.0
 11
3925.4971966992220587
 21
218.7142844056411093
 31
0.0
  0
LINE
  5
C99A
  8
0
 10
3925.927196699221895
 20
215.4523349124490892
 30
0.0
 11
3925.5071966992209127
 21
215.4523349124490892
 31
0.0
  0
ARC
  5
C99B
  8
0
 10
3925.5071966992209127
 20
215.4623349124491085
 30
0.0
 40
0.0100000000000046
 50
180.0
 51
270.0
  0
ARC
  5
C99C
  8
0
 10
3925.927196699221895
 20
215.4623349124491085
 30
0.0
 40
0.0099999999999932
 50
270.0
 51
0.0
  0
ARC
  5
C99D
  8
0
 10
3925.8235775560178809
 20
213.4334922797816034
 30
0.0
 40
0.2988790734996604
 50
319.2169836143140174
 51
357.6102644839190248
  0
ARC
  5
C99E
  8
0
 10
3925.6108158424490284
 20
213.4334922797816034
 30
0.0
 40
0.2988790734996604
 50
182.3897355160810037
 51
220.7830163856860111
  0
ARC
  5
C99F
  8
0
 10
3925.7171966992332273
 20
213.5526305350360019
 30
0.0
 40
0.4577194437141605
 50
223.3778851347802004
 51
316.6221148652198281
  0
ARC
  5
C9A0
  8
0
 10
3925.4585185695368637
 20
217.8664679749554978
 30
0.0
 40
0.0541953740034619
 50
187.761513883123996
 51
315.535087097357291
  0
LINE
  5
C9A1
  8
0
 10
3925.4971966992329726
 20
217.8309064151929988
 30
0.0
 11
3925.4048196913649917
 21
217.8591488871396962
 31
0.0
  0
LINE
  5
C9A2
  8
0
 10
3925.4048196913649917
 20
217.8591488871396962
 30
0.0
 11
3925.4082729004348948
 21
217.8704438252491116
 31
0.0
  0
LINE
  5
C9A3
  8
0
 10
3925.4082729004348948
 20
217.8704438252491116
 30
0.0
 11
3925.4971966992329726
 21
217.8428533785696004
 31
0.0
  0
LINE
  5
C9A4
  8
0
 10
3925.5297254417341719
 20
220.1924186085070119
 30
0.0
 11
3925.5297254417341719
 21
219.5921477964355972
 31
0.0
  0
LINE
  5
C9A5
  8
0
 10
3925.9046966992341368
 20
220.1924186085070119
 30
0.0
 11
3925.9046966992341368
 21
219.5921417448356863
 31
0.0
  0
ARC
  5
C9A6
  8
0
 10
3925.7203246651320114
 20
218.7013246700034017
 30
0.0
 40
0.9100000000000001
 50
283.7874507597151137
 51
284.4681398736879032
  0
ARC
  5
C9A7
  8
0
 10
3925.9758746760899157
 20
217.8664679749554978
 30
0.0
 40
0.0541953740034619
 50
224.464912902642709
 51
352.238486116876004
  0
LINE
  5
C9A8
  8
0
 10
3925.9371965463938068
 20
217.8309064151929988
 30
0.0
 11
3926.0295735542617876
 21
217.8591488871396962
 31
0.0
  0
LINE
  5
C9A9
  8
0
 10
3926.0295735542617876
 20
217.8591488871396962
 30
0.0
 11
3926.026120345192794
 21
217.8704438252491116
 31
0.0
  0
LINE
  5
C9AA
  8
0
 10
3926.026120345192794
 20
217.8704438252491116
 30
0.0
 11
3925.9371965463938068
 21
217.8428533785696004
 31
0.0
  0
ARC
  5
C9AB
  8
0
 10
3925.7171958140647803
 20
218.7016307958872119
 30
0.0
 40
0.5667558212408668
 50
292.8410388706552112
 51
247.1591553255123017
  0
LINE
  5
C9AD
  8
0
 10
3925.9046966992341368
 20
220.1924186085070119
 30
0.0
 11
3925.5297254417341719
 21
220.1924186085070119
 31
0.0
  0
ARC
  5
C9AE
  8
0
 10
3925.7171966992218586
 20
218.7016678541995134
 30
0.0
 40
1.1199161474423811
 50
99.6365434274216568
 51
248.7994071025273968
  0
ARC
  5
C9AF
  8
0
 10
3925.7171966992218586
 20
218.7016678541995134
 30
0.0
 40
1.1199161474423811
 50
291.2005928987010179
 51
80.3619650330894757
  0
ARC
  5
C9B0
  8
0
 10
3925.7171966992218586
 20
218.7016678541995134
 30
0.0
 40
0.9099999999500596
 50
100.0169428154413964
 51
250.1694772391496997
  0
ARC
  5
C9B1
  8
0
 10
3925.7171966992218586
 20
218.7016678541995134
 30
0.0
 40
0.9099999999500596
 50
289.8305107248185095
 51
79.983057182441641
  0
ENDSEC
  0
EOF
