  0
SECTION
  2
HEADER
  9
$ACADVER
  1
AC1009
  9
$INSBASE
 10
3911.154930791438801
 20
213.9676288920663012
 30
0.0
  9
$EXTMIN
 10
3910.035014303161006
 20
213.9676288335884919
 30
0.0
  9
$EXTMAX
 10
3912.274847279714777
 20
221.7088490651408108
 30
0.0
  9
$LIMMIN
 10
0.0
 20
0.0
  9
$LIMMAX
 10
11.6929133858000007
 20
8.2677165353999982
  9
$ORTHOMODE
 70
     0
  9
$REGENMODE
 70
     1
  9
$FILLMODE
 70
     1
  9
$QTEXTMODE
 70
     0
  9
$MIRRTEXT
 70
     0
  9
$DRAGMODE
 70
     2
  9
$LTSCALE
 40
0.6431102362
  9
$OSMODE
 70
  4095
  9
$ATTMODE
 70
     1
  9
$TEXTSIZE
 40
0.2
  9
$TRACEWID
 40
0.05
  9
$TEXTSTYLE
  7
STANDARD
  9
$CLAYER
  8
0
  9
$CELTYPE
  6
BYLAYER
  9
$CECOLOR
 62
   256
  9
$DIMSCALE
 40
1.0
  9
$DIMASZ
 40
0.1875
  9
$DIMEXO
 40
0.0625
  9
$DIMDLI
 40
0.4443307087
  9
$DIMRND
 40
0.0
  9
$DIMDLE
 40
0.0
  9
$DIMEXE
 40
0.125
  9
$DIMTP
 40
0.01
  9
$DIMTM
 40
0.01
  9
$DIMTXT
 40
2.0
  9
$DIMCEN
 40
0.1052362205
  9
$DIMTSZ
 40
0.0
  9
$DIMTOL
 70
     1
  9
$DIMLIM
 70
     0
  9
$DIMTIH
 70
     1
  9
$DIMTOH
 70
     1
  9
$DIMSE1
 70
     0
  9
$DIMSE2
 70
     0
  9
$DIMTAD
 70
     0
  9
$DIMZIN
 70
     0
  9
$DIMBLK
  1

  9
$DIMASO
 70
     1
  9
$DIMSHO
 70
     1
  9
$DIMPOST
  1
\X
  9
$DIMAPOST
  1

  9
$DIMALT
 70
     1
  9
$DIMALTD
 70
     2
  9
$DIMALTF
 40
25.3999999999999986
  9
$DIMLFAC
 40
1.0
  9
$DIMTOFL
 70
     0
  9
$DIMTVP
 40
0.0
  9
$DIMTIX
 70
     0
  9
$DIMSOXD
 70
     0
  9
$DIMSAH
 70
     0
  9
$DIMBLK1
  1

  9
$DIMBLK2
  1

  9
$DIMSTYLE
  2
STANDARD
  9
$DIMCLRD
 70
     0
  9
$DIMCLRE
 70
     0
  9
$DIMCLRT
 70
     0
  9
$DIMTFAC
 40
1.0
  9
$DIMGAP
 40
0.09
  9
$LUNITS
 70
     2
  9
$LUPREC
 70
     4
  9
$SKETCHINC
 40
0.1
  9
$FILLETRAD
 40
0.0
  9
$AUNITS
 70
     0
  9
$AUPREC
 70
     0
  9
$MENU
  1
.
  9
$ELEVATION
 40
0.0
  9
$PELEVATION
 40
0.0
  9
$THICKNESS
 40
0.0
  9
$LIMCHECK
 70
     0
  9
$BLIPMODE
 70
     0
  9
$CHAMFERA
 40
0.0
  9
$CHAMFERB
 40
0.0
  9
$SKPOLY
 70
     0
  9
$TDCREATE
 40
2458060.468368056230247
  9
$TDUPDATE
 40
2459935.7672569439746439
  9
$TDINDWG
 40
0.6878311343
  9
$TDUSRTIMER
 40
0.6878311343
  9
$USRTIMER
 70
     1
  9
$ANGBASE
 50
0.0
  9
$ANGDIR
 70
     0
  9
$PDMODE
 70
     0
  9
$PDSIZE
 40
0.3125
  9
$PLINEWID
 40
0.0
  9
$COORDS
 70
     1
  9
$SPLFRAME
 70
     0
  9
$SPLINETYPE
 70
     6
  9
$SPLINESEGS
 70
     8
  9
$ATTDIA
 70
     1
  9
$ATTREQ
 70
     1
  9
$HANDLING
 70
     1
  9
$HANDSEED
  5
CFAB
  9
$SURFTAB1
 70
     6
  9
$SURFTAB2
 70
     6
  9
$SURFTYPE
 70
     6
  9
$SURFU
 70
     6
  9
$SURFV
 70
     6
  9
$UCSNAME
  2

  9
$UCSORG
 10
0.0
 20
0.0
 30
0.0
  9
$UCSXDIR
 10
1.0
 20
0.0
 30
0.0
  9
$UCSYDIR
 10
0.0
 20
1.0
 30
0.0
  9
$PUCSNAME
  2

  9
$PUCSORG
 10
0.0
 20
0.0
 30
0.0
  9
$PUCSXDIR
 10
1.0
 20
0.0
 30
0.0
  9
$PUCSYDIR
 10
0.0
 20
1.0
 30
0.0
  9
$USERI1
 70
     0
  9
$USERI2
 70
     0
  9
$USERI3
 70
     0
  9
$USERI4
 70
     0
  9
$USERI5
 70
     0
  9
$USERR1
 40
0.0
  9
$USERR2
 40
0.0
  9
$USERR3
 40
0.0
  9
$USERR4
 40
0.0
  9
$USERR5
 40
0.0
  9
$WORLDVIEW
 70
     1
  9
$SHADEDGE
 70
     3
  9
$SHADEDIF
 70
    70
  9
$TILEMODE
 70
     1
  9
$MAXACTVP
 70
    64
  9
$PLIMCHECK
 70
     0
  9
$PEXTMIN
 10
1.0000000000000000E+20
 20
1.0000000000000000E+20
 30
1.0000000000000000E+20
  9
$PEXTMAX
 10
-1.0000000000000000E+20
 20
-1.0000000000000000E+20
 30
-1.0000000000000000E+20
  9
$PLIMMIN
 10
0.0
 20
0.0
  9
$PLIMMAX
 10
12.0
 20
9.0
  9
$UNITMODE
 70
     0
  9
$VISRETAIN
 70
     1
  9
$PLINEGEN
 70
     0
  9
$PSLTSCALE
 70
     1
  0
ENDSEC
  0
SECTION
  2
TABLES
  0
TABLE
  2
VPORT
 70
     1
  0
VPORT
  2
*ACTIVE
 70
     0
 10
0.0
 20
0.0
 11
1.0
 21
1.0
 12
24.4614493461251712
 22
-0.4866102948617482
 13
0.0
 23
0.0
 14
1.0
 24
1.0
 15
0.0
 25
0.0
 16
0.0
 26
0.0
 36
49.4172280973888718
 17
3886.6934814453129547
 27
218.324849244226499
 37
0.0
 40
7.781568634746014
 41
1.772108843537415
 42
50.0
 43
0.0
 44
0.0
 50
0.0
 51
0.0
 71
     0
 72
   100
 73
     1
 74
     1
 75
     0
 76
     0
 77
     0
 78
     0
  0
ENDTAB
  0
TABLE
  2
LTYPE
 70
     2
  0
LTYPE
  2
CONTINUOUS
 70
     0
  3
Solid line
 72
    65
 73
     0
 40
0.0
  0
LTYPE
  2
PHANTOM2
 70
     0
  3
___ _ _ ___ _ _ ___ _ _ ___ _ _
 72
    65
 73
     6
 40
1.25
 49
0.625
 49
-0.125
 49
0.125
 49
-0.125
 49
0.125
 49
-0.125
  0
ENDTAB
  0
TABLE
  2
LAYER
 70
     2
  0
LAYER
  2
0
 70
     0
 62
   255
  6
CONTINUOUS
  0
LAYER
  2
DEFPOINTS
 70
     0
 62
     7
  6
CONTINUOUS
  0
ENDTAB
  0
TABLE
  2
STYLE
 70
     1
  0
STYLE
  2
STANDARD
 70
     0
 40
0.0
 41
0.8
 50
0.0
 71
     0
 42
0.2
  3
txt
  4

  0
ENDTAB
  0
TABLE
  2
VIEW
 70
     0
  0
ENDTAB
  0
TABLE
  2
UCS
 70
     0
  0
ENDTAB
  0
TABLE
  2
APPID
 70
    10
  0
APPID
  2
ACAD
 70
     0
  0
APPID
  2
ACAD_MLEADERVER
 70
     0
  0
APPID
  2
ACAD_EXEMPT_FROM_CAD_STANDARDS
 70
     0
  0
APPID
  2
ACAD_NAV_VCDISPLAY
 70
     0
  0
APPID
  2
ACAECLAYERSTANDARD
 70
     0
  0
APPID
  2
ACCMTRANSPARENCY
 70
     0
  0
APPID
  2
ACAD_DSTYLE_DIMJAG
 70
     0
  0
APPID
  2
ACAD_DSTYLE_DIMTALN
 70
     0
  0
APPID
  2
ACDBATTR
 70
     0
  0
APPID
  2
ACADANNOTATIVE
 70
     0
  0
ENDTAB
  0
TABLE
  2
DIMSTYLE
 70
     1
  0
DIMSTYLE
  2
STANDARD
 70
     0
  3

  4

  5

  6

  7

 40
1.0
 41
0.1875
 42
0.0625
 43
0.38
 44
0.125
 45
0.0
 46
0.0
 47
0.01
 48
0.01
140
0.15625
141
0.09
142
0.0
143
25.3999999999999986
144
1.0
145
0.0
146
1.0
147
0.09
 71
     1
 72
     0
 73
     1
 74
     1
 75
     0
 76
     0
 77
     0
 78
     4
170
     0
171
     2
172
     0
173
     0
174
     0
175
     0
176
     0
177
     0
178
     0
  0
ENDTAB
  0
ENDSEC
  0
SECTION
  2
BLOCKS
  0
BLOCK
  8
0
  2
$MODEL_SPACE
 70
     0
 10
0.0
 20
0.0
 30
0.0
  3
$MODEL_SPACE
  1

  0
ENDBLK
  5
21
  8
0
  0
BLOCK
 67
     1
  8
0
  2
$PAPER_SPACE
 70
     0
 10
0.0
 20
0.0
 30
0.0
  3
$PAPER_SPACE
  1

  0
ENDBLK
  5
1D
 67
     1
  8
0
  0
ENDSEC
  0
SECTION
  2
ENTITIES
  0
ATTDEF
  5
3930
  8
DEFPOINTS
 10
3911.1524003984682167
 20
213.972556809417398
 30
0.0
 40
0.001
  1
K-14402T-4AE2
  3

  2
MODELNUMBER
 70
     0
1001
ACDBATTR
1070
     0
1070
     1
  0
ATTDEF
  5
3931
  8
DEFPOINTS
 10
3911.1524003984682167
 20
213.9708901427507044
 30
0.0
 40
0.001
  1
PURIST
  3

  2
TRADENAME
 70
     0
1001
ACDBATTR
1070
     0
1070
     1
  0
ATTDEF
  5
3932
  8
DEFPOINTS
 10
3911.1524003984682167
 20
213.9692234760840961
 30
0.0
 40
0.001
  1
BATHROOM SINK FAUCET
  3

  2
PRODUCT
 70
     0
1001
ACDBATTR
1070
     0
1070
     1
  0
LINE
  5
CB13
  8
0
 10
3910.0649307914882229
 20
213.9676288920663012
 30
0.0
 11
3912.2449307913880148
 21
213.9676288920663012
 31
0.0
  0
LINE
  5
CB14
  8
0
 10
3910.2449307914871497
 20
214.3176288920662955
 30
0.0
 11
3910.2449307914871497
 21
219.4226288920663137
 31
0.0
  0
LINE
  5
CB15
  8
0
 10
3910.0649307914882229
 20
214.1376288920664024
 30
0.0
 11
3912.2449307913880148
 21
214.1376288920664024
 31
0.0
  0
ARC
  5
CB16
  8
0
 10
3910.0648716984678686
 20
213.9974862288960082
 30
0.0
 40
0.0298573953074926
 50
179.726231015303199
 51
270.1133984690653733
  0
ARC
  5
CB17
  8
0
 10
3910.0648716984678686
 20
214.1077715552366101
 30
0.0
 40
0.0298573953075017
 50
89.8866015330711718
 51
180.2737689868106088
  0
ARC
  5
CB18
  8
0
 10
3910.0649307914882229
 20
214.3176288920662955
 30
0.0
 40
0.1799999999999997
 50
270.0
 51
0.0
  0
LINE
  5
CB19
  8
0
 10
3910.2449307914871497
 20
219.4226288920663137
 30
0.0
 11
3912.0649307913881785
 21
219.4226288920663137
 31
0.0
  0
LINE
  5
CB1A
  8
0
 10
3910.2764113371868007
 20
219.4438484447564122
 30
0.0
 11
3912.0334502456889822
 21
219.4438484447564122
 31
0.0
  0
ARC
  5
CB1B
  8
0
 10
3910.2764622623431023
 20
219.4736005959688043
 30
0.0
 40
0.0297521947953323
 50
177.5560239449407902
 51
269.9019299954480857
  0
LINE
  5
CB1C
  8
0
 10
3910.2467371302900574
 20
219.4748693037871874
 30
0.0
 11
3910.2726999462661297
 21
220.219964216233393
 31
0.0
  0
LINE
  5
CB1D
  8
0
 10
3910.3026761085388898
 20
220.2489172082408118
 30
0.0
 11
3912.0071854743368931
 21
220.2489172082408118
 31
0.0
  0
LINE
  5
CB1E
  8
0
 10
3910.9547215529701134
 20
220.8238500425568986
 30
0.0
 11
3911.3551400299061243
 21
220.8238500425568986
 31
0.0
  0
LINE
  5
CB1F
  8
0
 10
3910.7499307914881683
 20
217.572628892066291
 30
0.0
 11
3910.7499307914881683
 21
216.5566455400532107
 31
0.0
  0
ARC
  5
CB20
  8
0
 10
3910.3026817808790838
 20
220.2189170942569945
 30
0.0
 40
0.0300001145201206
 50
90.0108333305278165
 51
177.9997456844575936
  0
LINE
  5
CB21
  8
0
 10
3910.9352548400879641
 20
220.8041976374564115
 30
0.0
 11
3910.931325776893118
 21
220.5791114731979121
 31
0.0
  0
ARC
  5
CB22
  8
0
 10
3910.5813790881879868
 20
220.5852200789564108
 30
0.0
 40
0.3500000000000004
 50
286.0024471922089901
 51
358.9999568569991766
  0
ARC
  5
CB23
  8
0
 10
3910.9547144859861874
 20
220.8043894525970927
 30
0.0
 40
0.0194605912429415
 50
89.9791934199164984
 51
180.5647503631012114
  0
ARC
  5
CB24
  8
0
 10
3910.9561885888751931
 20
220.8450936472947035
 30
0.0
 40
0.0212941996000396
 50
183.3506761346851022
 51
266.0495533055747046
  0
ARC
  5
CB25
  8
0
 10
3911.1601984192388954
 20
216.9739480139980117
 30
0.0
 40
0.6531824356226172
 50
244.1572411163384118
 51
269.537929839836977
  0
ARC
  5
CB26
  8
0
 10
3911.0027781722169493
 20
216.6286789645249939
 30
0.0
 40
0.2739647461260457
 50
214.4960867788778955
 51
242.3109785801829901
  0
ARC
  5
CB27
  8
0
 10
3910.923907674351085
 20
216.5673038657803886
 30
0.0
 40
0.1743030569956239
 50
183.5057232942540111
 51
212.551406229652514
  0
ARC
  5
CB28
  8
0
 10
3910.9448973314738396
 20
216.5356583424039911
 30
0.0
 40
0.1960928713124855
 50
121.6872261349007971
 51
173.8560467059938901
  0
ARC
  5
CB29
  8
0
 10
3911.1580752280419802
 20
216.1600165056752019
 30
0.0
 40
0.6279174369079698
 50
90.2869225933010853
 51
120.2345240949989034
  0
ARC
  5
CB2A
  8
0
 10
3910.96086547186178
 20
216.5548624560786948
 30
0.0
 40
0.1106367466054095
 50
157.4802279406478931
 51
238.8460131141141005
  0
ARC
  5
CB2B
  8
0
 10
3911.0252249115687846
 20
216.5171377088331894
 30
0.0
 40
0.1848188622273377
 50
108.4826069084570008
 51
154.3170326982115057
  0
ARC
  5
CB2C
  8
0
 10
3911.1502128532019924
 20
216.2423438196331915
 30
0.0
 40
0.4860791292478765
 50
89.4438720421674276
 51
112.1895734126251938
  0
ARC
  5
CB2D
  8
0
 10
3911.0095936218931456
 20
216.5662332526376019
 30
0.0
 40
0.1178798387947407
 50
188.1664349037642125
 51
233.7486491574624949
  0
ARC
  5
CB2E
  8
0
 10
3910.9862443259739848
 20
216.5628825290777115
 30
0.0
 40
0.0942913465092771
 50
129.0684283971270929
 51
188.1664349037642125
  0
ARC
  5
CB2F
  8
0
 10
3911.1549307914378915
 20
216.3296231360482977
 30
0.0
 40
0.3820438582806973
 50
53.3384497523674099
 51
126.6615502476534942
  0
ARC
  5
CB30
  8
0
 10
3910.973549798356089
 20
216.8182893626434122
 30
0.0
 40
0.2266904358740153
 50
123.5253024735027054
 51
170.5575900999940018
  0
ARC
  5
CB31
  8
0
 10
3911.1593050117280654
 20
216.4448609224704967
 30
0.0
 40
0.642647907129093
 50
90.3899900610499714
 51
118.9384107621401938
  0
LINE
  5
CB32
  8
0
 10
3912.0649307913881785
 20
214.3176288920662955
 30
0.0
 11
3912.0649307913881785
 21
219.4226288920663137
 31
0.0
  0
ARC
  5
CB33
  8
0
 10
3912.2449898844079144
 20
213.9974862288960082
 30
0.0
 40
0.0298573953074653
 50
269.8866015309085924
 51
0.2737689798620262
  0
ARC
  5
CB34
  8
0
 10
3912.2449898844079144
 20
214.1077715552366953
 30
0.0
 40
0.0298573953074601
 50
359.726231020138016
 51
90.1133984669549051
  0
ARC
  5
CB35
  8
0
 10
3912.2449307913880148
 20
214.3176288920662955
 30
0.0
 40
0.1799999999999997
 50
180.0
 51
270.0
  0
ARC
  5
CB36
  8
0
 10
3912.0333993205331353
 20
219.4736005959688043
 30
0.0
 40
0.0297521947953323
 50
270.0980700045519143
 51
2.4439760550592049
  0
LINE
  5
CB37
  8
0
 10
3912.0631244525870898
 20
219.4748693037871874
 30
0.0
 11
3912.037161636610108
 21
220.219964216233393
 31
0.0
  0
LINE
  5
CB38
  8
0
 10
3911.5599307913871598
 20
217.572628892066291
 30
0.0
 11
3911.5599307913871598
 21
216.5566455400532107
 31
0.0
  0
ARC
  5
CB39
  8
0
 10
3912.0071798019957896
 20
220.2189170942569945
 30
0.0
 40
0.0300001145201206
 50
2.0002543155423531
 51
89.9891666694721977
  0
LINE
  5
CB3A
  8
0
 10
3911.3746067427878188
 20
220.8041976374564115
 30
0.0
 11
3911.3785358059831196
 21
220.5791114731979121
 31
0.0
  0
ARC
  5
CB3B
  8
0
 10
3911.7284824946877961
 20
220.5852200789564108
 30
0.0
 40
0.3500000000000004
 50
181.000043143000795
 51
253.9975528077910099
  0
ARC
  5
CB3C
  8
0
 10
3911.3551469534199896
 20
220.8043893104822075
 30
0.0
 40
0.0194607333062116
 50
359.4356721908275745
 51
90.0203840261447539
  0
ARC
  5
CB3D
  8
0
 10
3911.3536679731400909
 20
220.8451035866904135
 30
0.0
 40
0.021304461724153
 50
273.9620760253743015
 51
356.4170038125765814
  0
ARC
  5
CB3E
  8
0
 10
3911.1496631636368875
 20
216.9739480139980117
 30
0.0
 40
0.6531824356226172
 50
270.462070160163023
 51
295.8427588836614746
  0
ARC
  5
CB3F
  8
0
 10
3911.3070834106588336
 20
216.6286789645249939
 30
0.0
 40
0.2739647461260457
 50
297.6890214198169815
 51
325.5039132211221045
  0
ARC
  5
CB40
  8
0
 10
3911.3859539085251527
 20
216.5673038657803886
 30
0.0
 40
0.1743030569956239
 50
327.4485937703461786
 51
356.4942767057460173
  0
ARC
  5
CB41
  8
0
 10
3911.3649642514010338
 20
216.5356583424039911
 30
0.0
 40
0.1960928713124855
 50
6.1439532940060539
 51
58.31277386509921
  0
ARC
  5
CB42
  8
0
 10
3911.1517863548338028
 20
216.1600165056752019
 30
0.0
 40
0.6279174369079698
 50
59.7654759050010327
 51
89.7130774066989147
  0
ARC
  5
CB43
  8
0
 10
3911.1549307914378915
 20
216.8178382569448956
 30
0.0
 40
0.4371166221948558
 50
234.906765228940202
 51
305.0932347710635781
  0
ARC
  5
CB44
  8
0
 10
3911.348996111014003
 20
216.5548624560786948
 30
0.0
 40
0.1106367466054095
 50
301.1539868858858995
 51
22.5197720593520891
  0
ARC
  5
CB45
  8
0
 10
3911.2846366713060888
 20
216.5171377088331894
 30
0.0
 40
0.1848188622273377
 50
25.6829673017885192
 51
71.517393091542985
  0
ARC
  5
CB46
  8
0
 10
3911.1596487296737905
 20
216.2423438196331915
 30
0.0
 40
0.4860791292478765
 50
67.810426587374792
 51
90.5561279578325724
  0
ARC
  5
CB47
  8
0
 10
3911.1549307914378915
 20
216.7903060967136923
 30
0.0
 40
0.3848252108633529
 50
236.0266884677689916
 51
303.9733115322281947
  0
ARC
  5
CB48
  8
0
 10
3911.3002679609830921
 20
216.5662332526376019
 30
0.0
 40
0.1178798387947407
 50
306.2513508425375903
 51
351.8335650962358159
  0
ARC
  5
CB49
  8
0
 10
3911.3236172569017981
 20
216.5628825290777115
 30
0.0
 40
0.0942913465092771
 50
351.8335650962358159
 51
50.9315716028729284
  0
ARC
  5
CB4A
  8
0
 10
3911.3363117845201486
 20
216.8182893626434122
 30
0.0
 40
0.2266904358740153
 50
9.4424099000059734
 51
56.4746975264972875
  0
ARC
  5
CB4B
  8
0
 10
3911.1482678186480371
 20
216.4361144555469991
 30
0.0
 40
0.651413564132384
 50
61.2576583225050371
 51
89.4139408543080805
  0
ARC
  5
CB4C
  8
0
 10
3911.1549307914378915
 20
217.5726288921163132
 30
0.0
 40
0.4049999999500012
 50
359.9999999929261207
 51
180.0000000070739077
  0
ARC
  5
CB4D
  8
0
 10
3910.3799307914878227
 20
219.4726288920664103
 30
0.0
 40
0.060000000000014
 50
303.55730976197259
 51
331.335879437587721
  0
ARC
  5
CB4E
  8
0
 10
3911.9299307913879602
 20
219.4726288920664103
 30
0.0
 40
0.060000000000014
 50
208.6641205624108864
 51
236.44269023802741
  0
LINE
  5
CB4F
  8
0
 10
3910.8921725260029234
 20
216.5693132737316091
 30
0.0
 11
3910.892349720511902
 21
216.6124560352394042
 31
0.0
  0
ARC
  5
CB50
  8
0
 10
3910.9987733880079759
 20
216.6024074516342921
 30
0.0
 40
0.1068970113506239
 50
146.581713978593001
 51
174.6060911082122118
  0
ARC
  5
CB51
  8
0
 10
3910.9776832864022253
 20
216.6187534436120927
 30
0.0
 40
0.0993434924725581
 50
173.4028168015184974
 51
210.5254468494840978
  0
CIRCLE
  5
CB52
  8
0
 10
3911.1549307914378915
 20
221.4888490651408972
 30
0.0
 40
0.2200000000000002
  0
CIRCLE
  5
CB53
  8
0
 10
3911.1549307914378915
 20
221.4888490651408972
 30
0.0
 40
0.1788854382
  0
LINE
  5
CB54
  8
0
 10
3910.9349307914380915
 20
220.8438490651442123
 30
0.0
 11
3910.9349307914380915
 21
221.4888490651408972
 31
0.0
  0
LINE
  5
CB55
  8
0
 10
3911.3749307914381461
 20
220.8437721786318093
 30
0.0
 11
3911.3749307914381461
 21
221.4888490651408119
 31
0.0
  0
LINE
  5
CB56
  8
0
 10
3912.2748469388798185
 20
214.1076288920627064
 30
0.0
 11
3912.2748469388798185
 21
213.9976288920688887
 31
0.0
  0
LINE
  5
CB57
  8
0
 10
3910.0350146439950549
 20
214.1076288920627064
 30
0.0
 11
3910.0350146439950549
 21
213.9976288920688887
 31
0.0
  0
LINE
  5
CB58
  8
0
 10
3911.41768905687195
 20
216.569313273740903
 30
0.0
 11
3911.4175118623629714
 21
216.6124560352386936
 31
0.0
  0
ARC
  5
CB59
  8
0
 10
3911.3110881948668975
 20
216.6024074516338942
 30
0.0
 40
0.1068970113506239
 50
5.3939088916426527
 51
33.4182860216567832
  0
ARC
  5
CB5A
  8
0
 10
3911.3321782964740123
 20
216.6187534436116948
 30
0.0
 40
0.0993434924725581
 50
329.4745531502189806
 51
6.5971831983846698
  0
ARC
  5
CB5B
  8
0
 10
3911.0177970711320086
 20
216.5562595638259893
 30
0.0
 40
0.0991960866075505
 50
182.7072589940918874
 51
230.2664240357898109
  0
ARC
  5
CB5C
  8
0
 10
3911.0291662465410809
 20
216.5417615654396002
 30
0.0
 40
0.1108895662713707
 50
113.1195079249695965
 51
174.9232293846513073
  0
ARC
  5
CB5D
  8
0
 10
3911.1454426628088186
 20
216.371639005860402
 30
0.0
 40
0.315568396642246
 50
93.8570677155751838
 51
120.4271528782853977
  0
ARC
  5
CB5E
  8
0
 10
3911.154930791438801
 20
216.7550094210506018
 30
0.0
 40
0.3403832415819516
 50
233.9022631781685106
 51
306.0977368218315178
  0
ARC
  5
CB5F
  8
0
 10
3911.2920645117460481
 20
216.5562595638259893
 30
0.0
 40
0.0991960866075505
 50
309.7335759642091944
 51
357.2927410059079989
  0
ARC
  5
CB60
  8
0
 10
3911.2806953363360662
 20
216.5417615654396002
 30
0.0
 40
0.1108895662713707
 50
5.0767706153486261
 51
66.8804920750304035
  0
ARC
  5
CB61
  8
0
 10
3911.1644189200678738
 20
216.371639005860402
 30
0.0
 40
0.315568396642246
 50
59.5728471217145668
 51
86.1429322841898824
  0
LINE
  5
CB62
  8
0
 10
3911.1413894847669326
 20
216.4569172824662928
 30
0.0
 11
3911.1284175096889157
 21
216.4440275188663065
 31
0.0
  0
ARC
  5
CB63
  8
0
 10
3911.1221637959638429
 20
216.4503211190516936
 30
0.0
 40
0.0088723355798629
 50
269.9790252196966094
 51
314.8178639522034814
  0
LINE
  5
CB64
  8
0
 10
3911.1221605479890968
 20
216.4414487840662957
 30
0.0
 11
3911.0942820763521013
 21
216.4414589897891119
 31
0.0
  0
ARC
  5
CB65
  8
0
 10
3911.0942853415440368
 20
216.4503783543013924
 30
0.0
 40
0.0089193651099378
 50
225.3976668055248922
 51
269.9790252196966094
  0
LINE
  5
CB66
  8
0
 10
3911.0880223234889854
 20
216.4440277890662969
 30
0.0
 11
3911.0750061196931711
 21
216.4569172824662928
 31
0.0
  0
LINE
  5
CB67
  8
0
 10
3911.1330261497478205
 20
216.4611910154139878
 30
0.0
 11
3911.1209489546890836
 21
216.4491927625662981
 31
0.0
  0
LINE
  5
CB68
  8
0
 10
3911.1209489546890836
 20
216.4491927625662981
 30
0.0
 11
3911.0954909900888197
 21
216.4491927625662981
 31
0.0
  0
LINE
  5
CB69
  8
0
 10
3911.0954909900888197
 20
216.4491927625662981
 30
0.0
 11
3911.0834115204270347
 21
216.4611922430244135
 31
0.0
  0
LINE
  5
CB6A
  8
0
 10
3911.0834115204270347
 20
216.4611922430244135
 30
0.0
 11
3911.0942793967888065
 21
216.4723857807663023
 31
0.0
  0
LINE
  5
CB6B
  8
0
 10
3911.1261251149790041
 20
216.4680424660483027
 30
0.0
 11
3911.1209489546890836
 21
216.4628990467662959
 31
0.0
  0
LINE
  5
CB6C
  8
0
 10
3911.1209489546890836
 20
216.4628990467662959
 30
0.0
 11
3911.0954909900888197
 21
216.4628990467662959
 31
0.0
  0
LINE
  5
CB6D
  8
0
 10
3911.0954909900888197
 20
216.4628990467662959
 30
0.0
 11
3911.0901258903518283
 21
216.4681066919179955
 31
0.0
  0
LINE
  5
CB6E
  8
0
 10
3911.0954909900888197
 20
216.4628990467662959
 30
0.0
 11
3911.0954909900888197
 21
216.4491927625662981
 31
0.0
  0
LINE
  5
CB6F
  8
0
 10
3911.1209489546890836
 20
216.4628990467662959
 30
0.0
 11
3911.1209489546890836
 21
216.4491927625662981
 31
0.0
  0
LINE
  5
CB70
  8
0
 10
3911.154930791438801
 20
216.4569172824662928
 30
0.0
 11
3911.1409928934890559
 21
216.4569167614662888
 31
0.0
  0
ARC
  5
CB71
  8
0
 10
3911.1409925613938867
 20
216.4658010059584967
 30
0.0
 40
0.008884244498413
 50
225.2065771625048001
 51
270.0021417218850956
  0
LINE
  5
CB72
  8
0
 10
3911.1347331424890399
 20
216.459496287466294
 30
0.0
 11
3911.1217503675729859
 21
216.4723857807663023
 31
0.0
  0
ARC
  5
CB73
  8
0
 10
3911.0742166609948072
 20
216.4688703147012916
 30
0.0
 40
0.0119790744486375
 50
273.7787108187263811
 51
320.136782005274199
  0
LINE
  5
CB74
  8
0
 10
3911.1413894847669326
 20
216.4878491763049055
 30
0.0
 11
3911.1284175096889157
 21
216.4749594127048908
 31
0.0
  0
ARC
  5
CB75
  8
0
 10
3911.1221637959638429
 20
216.4812530128903063
 30
0.0
 40
0.0088723355798629
 50
269.9790252196966094
 51
314.8178639522034814
  0
LINE
  5
CB76
  8
0
 10
3911.1221605479890968
 20
216.4723806779049085
 30
0.0
 11
3911.0942820763521013
 21
216.4723908836276962
 31
0.0
  0
ARC
  5
CB77
  8
0
 10
3911.0942853415440368
 20
216.4813102481400051
 30
0.0
 40
0.0089193651099378
 50
225.3976668055248922
 51
269.9790252196966094
  0
LINE
  5
CB78
  8
0
 10
3911.0880223234889854
 20
216.4749596829049096
 30
0.0
 11
3911.0750061196931711
 21
216.4878491763049055
 31
0.0
  0
LINE
  5
CB79
  8
0
 10
3911.1330261497478205
 20
216.4921229092527142
 30
0.0
 11
3911.1209489546890836
 21
216.4801246564049109
 31
0.0
  0
LINE
  5
CB7A
  8
0
 10
3911.1209489546890836
 20
216.4801246564049109
 30
0.0
 11
3911.0954909900888197
 21
216.4801246564049109
 31
0.0
  0
LINE
  5
CB7B
  8
0
 10
3911.0954909900888197
 20
216.4801246564049109
 30
0.0
 11
3911.0834115204270347
 21
216.4921241368629978
 31
0.0
  0
LINE
  5
CB7C
  8
0
 10
3911.0834115204270347
 20
216.4921241368629978
 30
0.0
 11
3911.0951531025148142
 21
216.5042175613633049
 31
0.0
  0
LINE
  5
CB7D
  8
0
 10
3911.1261251149790041
 20
216.4989743598868017
 30
0.0
 11
3911.1209489546890836
 21
216.4938309406049086
 31
0.0
  0
LINE
  5
CB7E
  8
0
 10
3911.1209489546890836
 20
216.4938309406049086
 30
0.0
 11
3911.0954909900888197
 21
216.4938309406049086
 31
0.0
  0
LINE
  5
CB7F
  8
0
 10
3911.0954909900888197
 20
216.4938309406049086
 30
0.0
 11
3911.0901258903518283
 21
216.4990385857564945
 31
0.0
  0
LINE
  5
CB80
  8
0
 10
3911.0954909900888197
 20
216.4938309406049086
 30
0.0
 11
3911.0954909900888197
 21
216.4801246564049109
 31
0.0
  0
LINE
  5
CB81
  8
0
 10
3911.1209489546890836
 20
216.4938309406049086
 30
0.0
 11
3911.1209489546890836
 21
216.4801246564049109
 31
0.0
  0
LINE
  5
CB82
  8
0
 10
3911.154930791438801
 20
216.4878491763049055
 30
0.0
 11
3911.1409928934890559
 21
216.4878486553049015
 31
0.0
  0
ARC
  5
CB83
  8
0
 10
3911.1409925613938867
 20
216.4967328997971094
 30
0.0
 40
0.008884244498413
 50
225.2065771625048001
 51
270.0021417218850956
  0
LINE
  5
CB84
  8
0
 10
3911.1347331424890399
 20
216.4904281813049067
 30
0.0
 11
3911.1208534447528109
 21
216.504208153007994
 31
0.0
  0
ARC
  5
CB85
  8
0
 10
3911.0742166609948072
 20
216.4998022085399043
 30
0.0
 40
0.0119790744486375
 50
273.7787108187263811
 51
320.136782005274199
  0
LINE
  5
CB86
  8
0
 10
3911.1413894847669326
 20
216.5196761729048944
 30
0.0
 11
3911.1284175096889157
 21
216.5067864093049081
 31
0.0
  0
ARC
  5
CB87
  8
0
 10
3911.1221637959638429
 20
216.5130800094902952
 30
0.0
 40
0.0088723355798629
 50
269.9790252196966094
 51
314.8178639522034814
  0
LINE
  5
CB88
  8
0
 10
3911.1221605479890968
 20
216.5042076745048973
 30
0.0
 11
3911.0942820763521013
 21
216.5042178802277988
 31
0.0
  0
ARC
  5
CB89
  8
0
 10
3911.0942853415440368
 20
216.513137244739994
 30
0.0
 40
0.0089193651099378
 50
225.3976668055248922
 51
269.9790252196966094
  0
LINE
  5
CB8A
  8
0
 10
3911.0880223234889854
 20
216.5067866795048985
 30
0.0
 11
3911.0750061196931711
 21
216.5196761729048944
 31
0.0
  0
LINE
  5
CB8B
  8
0
 10
3911.1330261497478205
 20
216.5239499058527031
 30
0.0
 11
3911.1209489546890836
 21
216.5119516530048998
 31
0.0
  0
LINE
  5
CB8C
  8
0
 10
3911.1209489546890836
 20
216.5119516530048998
 30
0.0
 11
3911.0954909900888197
 21
216.5119516530048998
 31
0.0
  0
LINE
  5
CB8D
  8
0
 10
3911.0954909900888197
 20
216.5119516530048998
 30
0.0
 11
3911.0834115204270347
 21
216.5239511334629015
 31
0.0
  0
LINE
  5
CB8E
  8
0
 10
3911.0834115204270347
 20
216.5239511334629015
 30
0.0
 11
3911.0934620482939863
 21
216.5343028304523045
 31
0.0
  0
LINE
  5
CB8F
  8
0
 10
3911.1261251149790041
 20
216.5308013564869043
 30
0.0
 11
3911.1209489546890836
 21
216.5256579372048975
 31
0.0
  0
LINE
  5
CB90
  8
0
 10
3911.1209489546890836
 20
216.5256579372048975
 30
0.0
 11
3911.0954909900888197
 21
216.5256579372048975
 31
0.0
  0
LINE
  5
CB91
  8
0
 10
3911.0954909900888197
 20
216.5256579372048975
 30
0.0
 11
3911.0901258903518283
 21
216.5308655823565971
 31
0.0
  0
LINE
  5
CB92
  8
0
 10
3911.0954909900888197
 20
216.5256579372048975
 30
0.0
 11
3911.0954909900888197
 21
216.5119516530048998
 31
0.0
  0
LINE
  5
CB93
  8
0
 10
3911.1209489546890836
 20
216.5256579372048975
 30
0.0
 11
3911.1209489546890836
 21
216.5119516530048998
 31
0.0
  0
LINE
  5
CB94
  8
0
 10
3911.154930791438801
 20
216.5196761729048944
 30
0.0
 11
3911.1409928934890559
 21
216.5196756519048904
 31
0.0
  0
ARC
  5
CB95
  8
0
 10
3911.1409925613938867
 20
216.5285598963970983
 30
0.0
 40
0.008884244498413
 50
225.2065771625048001
 51
270.0021417218850956
  0
LINE
  5
CB96
  8
0
 10
3911.1347331424890399
 20
216.5222551779048956
 30
0.0
 11
3911.1226341694050461
 21
216.5342672195133957
 31
0.0
  0
ARC
  5
CB97
  8
0
 10
3911.0742166609948072
 20
216.5316292051398932
 30
0.0
 40
0.0119790744486375
 50
273.7787108187263811
 51
320.136782005274199
  0
LINE
  5
CB98
  8
0
 10
3911.1413881449861947
 20
216.5497231699048939
 30
0.0
 11
3911.1284161699068136
 21
216.5368334063049076
 31
0.0
  0
ARC
  5
CB99
  8
0
 10
3911.1221624561821955
 20
216.5431270064902947
 30
0.0
 40
0.0088723355798629
 50
269.9790252196966094
 51
314.8178639522034814
  0
LINE
  5
CB9A
  8
0
 10
3911.1221592082069947
 20
216.5342546715048968
 30
0.0
 11
3911.0942807365699991
 21
216.5342648772277983
 31
0.0
  0
ARC
  5
CB9B
  8
0
 10
3911.0942840017619346
 20
216.5431842417399935
 30
0.0
 40
0.0089193651099378
 50
225.3976668055248922
 51
269.9790252196966094
  0
LINE
  5
CB9C
  8
0
 10
3911.0880209837068833
 20
216.536833676504898
 30
0.0
 11
3911.0750047799110689
 21
216.5497231699048939
 31
0.0
  0
LINE
  5
CB9D
  8
0
 10
3911.1330248099670825
 20
216.5539969028527025
 30
0.0
 11
3911.1209476149069815
 21
216.5419986500048992
 31
0.0
  0
LINE
  5
CB9E
  8
0
 10
3911.1209476149069815
 20
216.5419986500048992
 30
0.0
 11
3911.0954896503071723
 21
216.5419986500048992
 31
0.0
  0
LINE
  5
CB9F
  8
0
 10
3911.0954896503071723
 20
216.5419986500048992
 30
0.0
 11
3911.083410180645842
 21
216.5539981304629009
 31
0.0
  0
LINE
  5
CBA0
  8
0
 10
3911.083410180645842
 20
216.5539981304629009
 30
0.0
 11
3911.0942879637150327
 21
216.5652018717725014
 31
0.0
  0
LINE
  5
CBA1
  8
0
 10
3911.126123775196902
 20
216.5608483534869038
 30
0.0
 11
3911.1209476149069815
 21
216.555704934204897
 31
0.0
  0
LINE
  5
CBA2
  8
0
 10
3911.1209476149069815
 20
216.555704934204897
 30
0.0
 11
3911.0954896503071723
 21
216.555704934204897
 31
0.0
  0
LINE
  5
CBA3
  8
0
 10
3911.0954896503071723
 20
216.555704934204897
 30
0.0
 11
3911.0901245505701809
 21
216.5609125793565966
 31
0.0
  0
LINE
  5
CBA4
  8
0
 10
3911.0954896503071723
 20
216.555704934204897
 30
0.0
 11
3911.0954896503071723
 21
216.5419986500048992
 31
0.0
  0
LINE
  5
CBA5
  8
0
 10
3911.1209476149069815
 20
216.555704934204897
 30
0.0
 11
3911.1209476149069815
 21
216.5419986500048992
 31
0.0
  0
LINE
  5
CBA6
  8
0
 10
3911.1549294516571535
 20
216.5497231699048939
 30
0.0
 11
3911.1409915537078632
 21
216.5497226489048899
 31
0.0
  0
ARC
  5
CBA7
  8
0
 10
3911.1409912216131488
 20
216.5586068933970978
 30
0.0
 40
0.008884244498413
 50
225.2065771625048001
 51
270.0021417218850956
  0
LINE
  5
CBA8
  8
0
 10
3911.1347318027069377
 20
216.5523021749048951
 30
0.0
 11
3911.1217488759948537
 21
216.5651918189093976
 31
0.0
  0
ARC
  5
CBA9
  8
0
 10
3911.0742153212140693
 20
216.5616762021398927
 30
0.0
 40
0.0119790744486375
 50
273.7787108187263811
 51
320.136782005274199
  0
LINE
  5
CBAA
  8
0
 10
3911.1413894847669326
 20
216.5806601666049005
 30
0.0
 11
3911.1284175096889157
 21
216.5677704030048858
 31
0.0
  0
ARC
  5
CBAB
  8
0
 10
3911.1221637959638429
 20
216.5740640031903013
 30
0.0
 40
0.0088723355798629
 50
269.9790252196966094
 51
314.8178639522034814
  0
LINE
  5
CBAC
  8
0
 10
3911.1221605479890968
 20
216.5651916682049034
 30
0.0
 11
3911.0942820763521013
 21
216.5652018739276912
 31
0.0
  0
ARC
  5
CBAD
  8
0
 10
3911.0942853415440368
 20
216.5741212384400001
 30
0.0
 40
0.0089193651099378
 50
225.3976668055248922
 51
269.9790252196966094
  0
LINE
  5
CBAE
  8
0
 10
3911.0880223234889854
 20
216.5677706732049046
 30
0.0
 11
3911.0750061196931711
 21
216.5806601666049005
 31
0.0
  0
LINE
  5
CBAF
  8
0
 10
3911.1330261497478205
 20
216.5849338995525954
 30
0.0
 11
3911.1209489546890836
 21
216.5729356467049058
 31
0.0
  0
LINE
  5
CBB0
  8
0
 10
3911.1209489546890836
 20
216.5729356467049058
 30
0.0
 11
3911.0954909900888197
 21
216.5729356467049058
 31
0.0
  0
LINE
  5
CBB1
  8
0
 10
3911.0954909900888197
 20
216.5729356467049058
 30
0.0
 11
3911.0834115204270347
 21
216.5849351271629928
 31
0.0
  0
LINE
  5
CBB2
  8
0
 10
3911.0834115204270347
 20
216.5849351271629928
 30
0.0
 11
3911.094289303116966
 21
216.5961388680821074
 31
0.0
  0
LINE
  5
CBB3
  8
0
 10
3911.1261251149790041
 20
216.5917853501869104
 30
0.0
 11
3911.1209489546890836
 21
216.5866419309049036
 31
0.0
  0
LINE
  5
CBB4
  8
0
 10
3911.1209489546890836
 20
216.5866419309049036
 30
0.0
 11
3911.0954909900888197
 21
216.5866419309049036
 31
0.0
  0
LINE
  5
CBB5
  8
0
 10
3911.0954909900888197
 20
216.5866419309049036
 30
0.0
 11
3911.0901258903518283
 21
216.5918495760566032
 31
0.0
  0
LINE
  5
CBB6
  8
0
 10
3911.0954909900888197
 20
216.5866419309049036
 30
0.0
 11
3911.0954909900888197
 21
216.5729356467049058
 31
0.0
  0
LINE
  5
CBB7
  8
0
 10
3911.1209489546890836
 20
216.5866419309049036
 30
0.0
 11
3911.1209489546890836
 21
216.5729356467049058
 31
0.0
  0
LINE
  5
CBB8
  8
0
 10
3911.154930791438801
 20
216.5806601666049005
 30
0.0
 11
3911.1409928934890559
 21
216.5806596456048965
 31
0.0
  0
ARC
  5
CBB9
  8
0
 10
3911.1409925613938867
 20
216.5895438900971044
 30
0.0
 40
0.008884244498413
 50
225.2065771625048001
 51
270.0021417218850956
  0
LINE
  5
CBBA
  8
0
 10
3911.1347331424890399
 20
216.5832391716049017
 30
0.0
 11
3911.1217502161698576
 21
216.5961288152188047
 31
0.0
  0
ARC
  5
CBBB
  8
0
 10
3911.0742166609948072
 20
216.5926131988398993
 30
0.0
 40
0.0119790744486375
 50
273.7787108187263811
 51
320.136782005274199
  0
LINE
  5
CBBC
  8
0
 10
3911.1413894847669326
 20
216.6115971634048947
 30
0.0
 11
3911.1284175096889157
 21
216.5987073998049084
 31
0.0
  0
ARC
  5
CBBD
  8
0
 10
3911.1221637959638429
 20
216.6050009999902954
 30
0.0
 40
0.0088723355798629
 50
269.9790252196966094
 51
314.8178639522034814
  0
LINE
  5
CBBE
  8
0
 10
3911.1221605479890968
 20
216.5961286650048976
 30
0.0
 11
3911.0942820763521013
 21
216.5961388707277138
 31
0.0
  0
ARC
  5
CBBF
  8
0
 10
3911.0942853415440368
 20
216.6050582352399942
 30
0.0
 40
0.0089193651099378
 50
225.3976668055248922
 51
269.9790252196966094
  0
LINE
  5
CBC0
  8
0
 10
3911.0880223234889854
 20
216.5987076700048988
 30
0.0
 11
3911.0750061196931711
 21
216.6115971634048947
 31
0.0
  0
LINE
  5
CBC1
  8
0
 10
3911.1330261497478205
 20
216.6158708963525896
 30
0.0
 11
3911.1209489546890836
 21
216.6038726435049
 31
0.0
  0
LINE
  5
CBC2
  8
0
 10
3911.1209489546890836
 20
216.6038726435049
 30
0.0
 11
3911.0954909900888197
 21
216.6038726435049
 31
0.0
  0
LINE
  5
CBC3
  8
0
 10
3911.0954909900888197
 20
216.6038726435049
 30
0.0
 11
3911.0834115204270347
 21
216.615872123962987
 31
0.0
  0
LINE
  5
CBC4
  8
0
 10
3911.0834115204270347
 20
216.615872123962987
 30
0.0
 11
3911.094289303116966
 21
216.6270758648821015
 31
0.0
  0
LINE
  5
CBC5
  8
0
 10
3911.1261251149790041
 20
216.6227223469869045
 30
0.0
 11
3911.1209489546890836
 21
216.6175789277048978
 31
0.0
  0
LINE
  5
CBC6
  8
0
 10
3911.1209489546890836
 20
216.6175789277048978
 30
0.0
 11
3911.0954909900888197
 21
216.6175789277048978
 31
0.0
  0
LINE
  5
CBC7
  8
0
 10
3911.0954909900888197
 20
216.6175789277048978
 30
0.0
 11
3911.0901258903518283
 21
216.6227865728565973
 31
0.0
  0
LINE
  5
CBC8
  8
0
 10
3911.0954909900888197
 20
216.6175789277048978
 30
0.0
 11
3911.0954909900888197
 21
216.6038726435049
 31
0.0
  0
LINE
  5
CBC9
  8
0
 10
3911.1209489546890836
 20
216.6175789277048978
 30
0.0
 11
3911.1209489546890836
 21
216.6038726435049
 31
0.0
  0
LINE
  5
CBCA
  8
0
 10
3911.154930791438801
 20
216.6115971634048947
 30
0.0
 11
3911.1409928934890559
 21
216.6115966424048906
 31
0.0
  0
ARC
  5
CBCB
  8
0
 10
3911.1409925613938867
 20
216.6204808868970986
 30
0.0
 40
0.008884244498413
 50
225.2065771625048001
 51
270.0021417218850956
  0
LINE
  5
CBCC
  8
0
 10
3911.1347331424890399
 20
216.6141761684048959
 30
0.0
 11
3911.1217502161698576
 21
216.6270658120187989
 31
0.0
  0
ARC
  5
CBCD
  8
0
 10
3911.0742166609948072
 20
216.6235501956398934
 30
0.0
 40
0.0119790744486375
 50
273.7787108187263811
 51
320.136782005274199
  0
LINE
  5
CBCE
  8
0
 10
3911.1413894847669326
 20
216.6425341602048888
 30
0.0
 11
3911.1284175096889157
 21
216.6296443966049026
 31
0.0
  0
ARC
  5
CBCF
  8
0
 10
3911.1221637959638429
 20
216.6359379967902896
 30
0.0
 40
0.0088723355798629
 50
269.9790252196966094
 51
314.8178639522034814
  0
LINE
  5
CBD0
  8
0
 10
3911.1221605479890968
 20
216.6270656618048918
 30
0.0
 11
3911.0942820763521013
 21
216.6270758675277932
 31
0.0
  0
ARC
  5
CBD1
  8
0
 10
3911.0942853415440368
 20
216.6359952320399884
 30
0.0
 40
0.0089193651099378
 50
225.3976668055248922
 51
269.9790252196966094
  0
LINE
  5
CBD2
  8
0
 10
3911.0880223234889854
 20
216.6296446668048929
 30
0.0
 11
3911.0750061196931711
 21
216.6425341602048888
 31
0.0
  0
LINE
  5
CBD3
  8
0
 10
3911.1330261497478205
 20
216.6468078931526122
 30
0.0
 11
3911.1209489546890836
 21
216.6348096403048942
 31
0.0
  0
LINE
  5
CBD4
  8
0
 10
3911.1209489546890836
 20
216.6348096403048942
 30
0.0
 11
3911.0954909900888197
 21
216.6348096403048942
 31
0.0
  0
LINE
  5
CBD5
  8
0
 10
3911.0954909900888197
 20
216.6348096403048942
 30
0.0
 11
3911.0834115204270347
 21
216.6468091207630096
 31
0.0
  0
LINE
  5
CBD6
  8
0
 10
3911.0834115204270347
 20
216.6468091207630096
 30
0.0
 11
3911.0942893030210143
 21
216.6580128615821934
 31
0.0
  0
LINE
  5
CBD7
  8
0
 10
3911.1261251149790041
 20
216.6536593437868987
 30
0.0
 11
3911.1209489546890836
 21
216.6485159245048919
 31
0.0
  0
LINE
  5
CBD8
  8
0
 10
3911.1209489546890836
 20
216.6485159245048919
 30
0.0
 11
3911.0954909900888197
 21
216.6485159245048919
 31
0.0
  0
LINE
  5
CBD9
  8
0
 10
3911.0954909900888197
 20
216.6485159245048919
 30
0.0
 11
3911.0901258903518283
 21
216.6537235696565915
 31
0.0
  0
LINE
  5
CBDA
  8
0
 10
3911.0954909900888197
 20
216.6485159245048919
 30
0.0
 11
3911.0954909900888197
 21
216.6348096403048942
 31
0.0
  0
LINE
  5
CBDB
  8
0
 10
3911.1209489546890836
 20
216.6485159245048919
 30
0.0
 11
3911.1209489546890836
 21
216.6348096403048942
 31
0.0
  0
LINE
  5
CBDC
  8
0
 10
3911.154930791438801
 20
216.6425341602048888
 30
0.0
 11
3911.1409928934890559
 21
216.6425336392049132
 31
0.0
  0
ARC
  5
CBDD
  8
0
 10
3911.1409925613938867
 20
216.6514178836970927
 30
0.0
 40
0.008884244498413
 50
225.2065771625048001
 51
270.0021417218850956
  0
LINE
  5
CBDE
  8
0
 10
3911.1347331424890399
 20
216.64511316520489
 30
0.0
 11
3911.1217502162721757
 21
216.6580028087186918
 31
0.0
  0
ARC
  5
CBDF
  8
0
 10
3911.0742166609948072
 20
216.6544871924398876
 30
0.0
 40
0.0119790744486375
 50
273.7787108187263811
 51
320.136782005274199
  0
LINE
  5
CBE0
  8
0
 10
3911.1413894847669326
 20
216.6734711569048955
 30
0.0
 11
3911.1284175096889157
 21
216.6605813933049092
 31
0.0
  0
ARC
  5
CBE1
  8
0
 10
3911.1221637959638429
 20
216.6668749934902962
 30
0.0
 40
0.0088723355798629
 50
269.9790252196966094
 51
314.8178639522034814
  0
LINE
  5
CBE2
  8
0
 10
3911.1221605479890968
 20
216.6580026585048984
 30
0.0
 11
3911.0942820763521013
 21
216.6580128642276861
 31
0.0
  0
ARC
  5
CBE3
  8
0
 10
3911.0942853415440368
 20
216.666932228739995
 30
0.0
 40
0.0089193651099378
 50
225.3976668055248922
 51
269.9790252196966094
  0
LINE
  5
CBE4
  8
0
 10
3911.0880223234889854
 20
216.6605816635048996
 30
0.0
 11
3911.0750061196931711
 21
216.6734711569048955
 31
0.0
  0
LINE
  5
CBE5
  8
0
 10
3911.1330261497478205
 20
216.6777448898525904
 30
0.0
 11
3911.1209489546890836
 21
216.6657466370049008
 31
0.0
  0
LINE
  5
CBE6
  8
0
 10
3911.1209489546890836
 20
216.6657466370049008
 30
0.0
 11
3911.0954909900888197
 21
216.6657466370049008
 31
0.0
  0
LINE
  5
CBE7
  8
0
 10
3911.0954909900888197
 20
216.6657466370049008
 30
0.0
 11
3911.0834115204270347
 21
216.6777461174629877
 31
0.0
  0
LINE
  5
CBE8
  8
0
 10
3911.0834115204270347
 20
216.6777461174629877
 30
0.0
 11
3911.0873637553099798
 21
216.6818167830514028
 31
0.0
  0
LINE
  5
CBE9
  8
0
 10
3911.1261251149790041
 20
216.6845963404869053
 30
0.0
 11
3911.1209489546890836
 21
216.6794529212048985
 31
0.0
  0
LINE
  5
CBEA
  8
0
 10
3911.1209489546890836
 20
216.6794529212048985
 30
0.0
 11
3911.0954909900888197
 21
216.6794529212048985
 31
0.0
  0
LINE
  5
CBEB
  8
0
 10
3911.0954909900888197
 20
216.6794529212048985
 30
0.0
 11
3911.0921683860401572
 21
216.6826780136941011
 31
0.0
  0
LINE
  5
CBEC
  8
0
 10
3911.0954909900888197
 20
216.6794529212048985
 30
0.0
 11
3911.0954909900888197
 21
216.6657466370049008
 31
0.0
  0
LINE
  5
CBED
  8
0
 10
3911.1209489546890836
 20
216.6794529212048985
 30
0.0
 11
3911.1209489546890836
 21
216.6657466370049008
 31
0.0
  0
LINE
  5
CBEE
  8
0
 10
3911.154930791438801
 20
216.6734711569048955
 30
0.0
 11
3911.1409928934890559
 21
216.6734706359048914
 31
0.0
  0
ARC
  5
CBEF
  8
0
 10
3911.1409925613938867
 20
216.6823548803970994
 30
0.0
 40
0.008884244498413
 50
225.2065771625048001
 51
270.0021417218850956
  0
LINE
  5
CBF0
  8
0
 10
3911.1347331424890399
 20
216.6760501619048966
 30
0.0
 11
3911.124215103483948
 21
216.6864926284924877
 31
0.0
  0
ARC
  5
CBF1
  8
0
 10
3911.0742166609948072
 20
216.6854241891398942
 30
0.0
 40
0.0119790744486375
 50
273.7787108187263811
 51
320.136782005274199
  0
LINE
  5
CBF2
  8
0
 10
3911.0750061196931711
 20
216.4878491763049055
 30
0.0
 11
3911.0480121870841685
 21
216.4878491763049055
 31
0.0
  0
LINE
  5
CBF3
  8
0
 10
3911.0750061196931711
 20
216.5196761729048944
 30
0.0
 11
3911.0480121870841685
 21
216.5196761729048944
 31
0.0
  0
LINE
  5
CBF4
  8
0
 10
3911.0750047799110689
 20
216.5497231699048939
 30
0.0
 11
3911.0475699157068448
 21
216.5497226489048899
 31
0.0
  0
LINE
  5
CBF5
  8
0
 10
3911.0750061196931711
 20
216.5806601666049005
 30
0.0
 11
3911.0475699157068448
 21
216.5806596456048965
 31
0.0
  0
LINE
  5
CBF6
  8
0
 10
3911.0750061196931711
 20
216.6115971634048947
 30
0.0
 11
3911.0480121870841685
 21
216.6115971634048947
 31
0.0
  0
LINE
  5
CBF7
  8
0
 10
3911.0750061196931711
 20
216.6425341602048888
 30
0.0
 11
3911.0475699157068448
 21
216.6425336392049132
 31
0.0
  0
LINE
  5
CBF8
  8
0
 10
3911.0863105642529263
 20
216.4766547784741135
 30
0.0
 11
3911.0742381356890291
 21
216.4646612609662952
 31
0.0
  0
LINE
  5
CBF9
  8
0
 10
3911.0742381356890291
 20
216.4646612609662952
 30
0.0
 11
3911.0487801710878557
 21
216.4646612609662952
 31
0.0
  0
LINE
  5
CBFA
  8
0
 10
3911.0794006606729454
 20
216.4834974153897065
 30
0.0
 11
3911.0742381356890291
 21
216.478367545166293
 31
0.0
  0
LINE
  5
CBFB
  8
0
 10
3911.0742381356890291
 20
216.478367545166293
 30
0.0
 11
3911.0487801710878557
 21
216.478367545166293
 31
0.0
  0
LINE
  5
CBFC
  8
0
 10
3911.0742381356890291
 20
216.478367545166293
 30
0.0
 11
3911.0742381356890291
 21
216.4646612609662952
 31
0.0
  0
LINE
  5
CBFD
  8
0
 10
3911.0750061196931711
 20
216.4569172824662928
 30
0.0
 11
3911.0475712554889469
 21
216.4569167614662888
 31
0.0
  0
LINE
  5
CBFE
  8
0
 10
3911.0867592142089961
 20
216.5080374926436093
 30
0.0
 11
3911.0742381356890291
 21
216.4955982577662894
 31
0.0
  0
LINE
  5
CBFF
  8
0
 10
3911.0742381356890291
 20
216.4955982577662894
 30
0.0
 11
3911.0487801710878557
 21
216.4955982577662894
 31
0.0
  0
LINE
  5
CC00
  8
0
 10
3911.0798492628850909
 20
216.5148801768384033
 30
0.0
 11
3911.0742381356890291
 21
216.5093045419662872
 31
0.0
  0
LINE
  5
CC01
  8
0
 10
3911.0742381356890291
 20
216.5093045419662872
 30
0.0
 11
3911.0487801710878557
 21
216.5093045419662872
 31
0.0
  0
LINE
  5
CC02
  8
0
 10
3911.0742381356890291
 20
216.5093045419662872
 30
0.0
 11
3911.0742381356890291
 21
216.4955982577662894
 31
0.0
  0
LINE
  5
CC03
  8
0
 10
3911.0863153307491302
 20
216.5385335073140993
 30
0.0
 11
3911.0742381356890291
 21
216.526535254466296
 31
0.0
  0
LINE
  5
CC04
  8
0
 10
3911.0742381356890291
 20
216.526535254466296
 30
0.0
 11
3911.0487801710878557
 21
216.526535254466296
 31
0.0
  0
LINE
  5
CC05
  8
0
 10
3911.0794142959780402
 20
216.5453849579483006
 30
0.0
 11
3911.0742381356890291
 21
216.5402415386662938
 31
0.0
  0
LINE
  5
CC06
  8
0
 10
3911.0742381356890291
 20
216.5402415386662938
 30
0.0
 11
3911.0487801710878557
 21
216.5402415386662938
 31
0.0
  0
LINE
  5
CC07
  8
0
 10
3911.0742381356890291
 20
216.5402415386662938
 30
0.0
 11
3911.0742381356890291
 21
216.526535254466296
 31
0.0
  0
LINE
  5
CC08
  8
0
 10
3911.0863153307491302
 20
216.5694705041140935
 30
0.0
 11
3911.0742381356890291
 21
216.5574722512662902
 31
0.0
  0
LINE
  5
CC09
  8
0
 10
3911.0742381356890291
 20
216.5574722512662902
 30
0.0
 11
3911.0487801710878557
 21
216.5574722512662902
 31
0.0
  0
LINE
  5
CC0A
  8
0
 10
3911.0794142959780402
 20
216.5763219547482095
 30
0.0
 11
3911.0742381356890291
 21
216.5711785354662879
 31
0.0
  0
LINE
  5
CC0B
  8
0
 10
3911.0742381356890291
 20
216.5711785354662879
 30
0.0
 11
3911.0487801710878557
 21
216.5711785354662879
 31
0.0
  0
LINE
  5
CC0C
  8
0
 10
3911.0742381356890291
 20
216.5711785354662879
 30
0.0
 11
3911.0742381356890291
 21
216.5574722512662902
 31
0.0
  0
LINE
  5
CC0D
  8
0
 10
3911.0863153307491302
 20
216.6004075008141001
 30
0.0
 11
3911.0742381356890291
 21
216.5884092479662968
 31
0.0
  0
LINE
  5
CC0E
  8
0
 10
3911.0742381356890291
 20
216.5884092479662968
 30
0.0
 11
3911.0487801710878557
 21
216.5884092479662968
 31
0.0
  0
LINE
  5
CC0F
  8
0
 10
3911.0794142959780402
 20
216.6072589514483013
 30
0.0
 11
3911.0742381356890291
 21
216.6021155321662945
 31
0.0
  0
LINE
  5
CC10
  8
0
 10
3911.0742381356890291
 20
216.6021155321662945
 30
0.0
 11
3911.0487801710878557
 21
216.6021155321662945
 31
0.0
  0
LINE
  5
CC11
  8
0
 10
3911.0742381356890291
 20
216.6021155321662945
 30
0.0
 11
3911.0742381356890291
 21
216.5884092479662968
 31
0.0
  0
LINE
  5
CC12
  8
0
 10
3911.0863153307491302
 20
216.6622814944140032
 30
0.0
 11
3911.0742381356890291
 21
216.6502832415663136
 31
0.0
  0
LINE
  5
CC13
  8
0
 10
3911.0742381356890291
 20
216.6502832415663136
 30
0.0
 11
3911.0487801710878557
 21
216.6502832415663136
 31
0.0
  0
LINE
  5
CC14
  8
0
 10
3911.0794142959780402
 20
216.6691329450482897
 30
0.0
 11
3911.0742381356890291
 21
216.6639895257663113
 31
0.0
  0
LINE
  5
CC15
  8
0
 10
3911.0742381356890291
 20
216.6639895257663113
 30
0.0
 11
3911.0487801710878557
 21
216.6639895257663113
 31
0.0
  0
LINE
  5
CC16
  8
0
 10
3911.0742381356890291
 20
216.6639895257663113
 30
0.0
 11
3911.0742381356890291
 21
216.6502832415663136
 31
0.0
  0
ARC
  5
CC17
  8
0
 10
3911.0380066667498795
 20
216.4542157333141859
 30
0.0
 40
0.0054224132569383
 50
179.9949335976342866
 51
295.0786661877302208
  0
LINE
  5
CC18
  8
0
 10
3911.040305022811026
 20
216.4493045089309078
 30
0.0
 11
3911.0480121870841685
 21
216.4569172824662928
 31
0.0
  0
LINE
  5
CC19
  8
0
 10
3911.0325842535130505
 20
216.4542162127931988
 30
0.0
 11
3911.0396067863498502
 21
216.4611922430244135
 31
0.0
  0
LINE
  5
CC1A
  8
0
 10
3911.0396067863498502
 20
216.4611922430244135
 30
0.0
 11
3911.0287389099889879
 21
216.4723857807663023
 31
0.0
  0
LINE
  5
CC1B
  8
0
 10
3911.0208578535930428
 20
216.4723879995194977
 30
0.0
 11
3911.0325842534889489
 21
216.4678075729258921
 31
0.0
  0
LINE
  5
CC1C
  8
0
 10
3911.0325842534889489
 20
216.4678075729258921
 30
0.0
 11
3911.0325842535130505
 21
216.4542162127931988
 31
0.0
  0
LINE
  5
CC1D
  8
0
 10
3910.9962447342400083
 20
216.4674060735964076
 30
0.0
 11
3911.0012679392048085
 21
216.4723857807663023
 31
0.0
  0
ARC
  5
CC1E
  8
0
 10
3911.0488016457820777
 20
216.4688703147012916
 30
0.0
 40
0.0119790744486375
 50
219.863217994725801
 51
266.2212891812735052
  0
LINE
  5
CC1F
  8
0
 10
3910.9820266605797769
 20
216.487848655345914
 30
0.0
 11
3910.9946007970888786
 21
216.4749594127048908
 31
0.0
  0
ARC
  5
CC20
  8
0
 10
3911.000854510813042
 20
216.4812530128903063
 30
0.0
 40
0.0088723355798629
 50
225.1821360477964902
 51
270.0209747803033906
  0
LINE
  5
CC21
  8
0
 10
3911.000857758787788
 20
216.4723806779049085
 30
0.0
 11
3911.0287362304261478
 21
216.4723908836276962
 31
0.0
  0
ARC
  5
CC22
  8
0
 10
3911.0287329652342123
 20
216.4813102481400051
 30
0.0
 40
0.0089193651099378
 50
270.0209747803033906
 51
314.6023331944750794
  0
LINE
  5
CC23
  8
0
 10
3911.0349959832878994
 20
216.4749596829049096
 30
0.0
 11
3911.0480121870841685
 21
216.4878491763049055
 31
0.0
  0
LINE
  5
CC24
  8
0
 10
3910.9899921570290644
 20
216.4921229092527142
 30
0.0
 11
3911.0020693520878012
 21
216.4801246564049109
 31
0.0
  0
LINE
  5
CC25
  8
0
 10
3911.0020693520878012
 20
216.4801246564049109
 30
0.0
 11
3911.0275273166889747
 21
216.4801246564049109
 31
0.0
  0
LINE
  5
CC26
  8
0
 10
3911.0275273166889747
 20
216.4801246564049109
 30
0.0
 11
3911.0396067863498502
 21
216.4921241368629978
 31
0.0
  0
LINE
  5
CC27
  8
0
 10
3911.0396067863498502
 20
216.4921241368629978
 30
0.0
 11
3911.0278652042620706
 21
216.5042175613633049
 31
0.0
  0
LINE
  5
CC28
  8
0
 10
3910.9968931917987902
 20
216.4989743598868017
 30
0.0
 11
3911.0020693520878012
 21
216.4938309406049086
 31
0.0
  0
LINE
  5
CC29
  8
0
 10
3911.0020693520878012
 20
216.4938309406049086
 30
0.0
 11
3911.0275273166889747
 21
216.4938309406049086
 31
0.0
  0
LINE
  5
CC2A
  8
0
 10
3911.0275273166889747
 20
216.4938309406049086
 30
0.0
 11
3911.0328924164259661
 21
216.4990385857564945
 31
0.0
  0
LINE
  5
CC2B
  8
0
 10
3911.0275273166889747
 20
216.4938309406049086
 30
0.0
 11
3911.0275273166889747
 21
216.4801246564049109
 31
0.0
  0
LINE
  5
CC2C
  8
0
 10
3911.0020693520878012
 20
216.4938309406049086
 30
0.0
 11
3911.0020693520878012
 21
216.4801246564049109
 31
0.0
  0
ARC
  5
CC2D
  8
0
 10
3910.9820257453829981
 20
216.4967328997971094
 30
0.0
 40
0.008884244498413
 50
269.997858278115018
 51
314.7934228374951999
  0
LINE
  5
CC2E
  8
0
 10
3910.9882851642892092
 20
216.4904281813049067
 30
0.0
 11
3911.002164862024074
 21
216.504208153007994
 31
0.0
  0
ARC
  5
CC2F
  8
0
 10
3911.0488016457820777
 20
216.4998022085399043
 30
0.0
 40
0.0119790744486375
 50
219.863217994725801
 51
266.2212891812735052
  0
LINE
  5
CC30
  8
0
 10
3910.9820267511558995
 20
216.5187963788278012
 30
0.0
 11
3910.9948543638420233
 21
216.5065442176504007
 31
0.0
  0
ARC
  5
CC31
  8
0
 10
3911.000854510813042
 20
216.5130800094902952
 30
0.0
 40
0.0088723355798629
 50
225.1821360477964902
 51
270.0209747803033906
  0
LINE
  5
CC32
  8
0
 10
3911.000857758787788
 20
216.5042076745048973
 30
0.0
 11
3911.0287362304261478
 21
216.5042178802277988
 31
0.0
  0
ARC
  5
CC33
  8
0
 10
3911.0287329652342123
 20
216.513137244739994
 30
0.0
 40
0.0089193651099378
 50
270.0209747803033906
 51
314.6023331944750794
  0
LINE
  5
CC34
  8
0
 10
3911.0349959832878994
 20
216.5067866795048985
 30
0.0
 11
3911.0480121870841685
 21
216.5196761729048944
 31
0.0
  0
LINE
  5
CC35
  8
0
 10
3910.9899921570290644
 20
216.5239499058527031
 30
0.0
 11
3911.0020693520878012
 21
216.5119516530048998
 31
0.0
  0
LINE
  5
CC36
  8
0
 10
3911.0020693520878012
 20
216.5119516530048998
 30
0.0
 11
3911.0275273166889747
 21
216.5119516530048998
 31
0.0
  0
LINE
  5
CC37
  8
0
 10
3911.0275273166889747
 20
216.5119516530048998
 30
0.0
 11
3911.0396067863498502
 21
216.5239511334629015
 31
0.0
  0
LINE
  5
CC38
  8
0
 10
3911.0396067863498502
 20
216.5239511334629015
 30
0.0
 11
3911.0295562584819891
 21
216.5343028304523045
 31
0.0
  0
LINE
  5
CC39
  8
0
 10
3910.9968931917987902
 20
216.5308013564869043
 30
0.0
 11
3911.0020693520878012
 21
216.5256579372048975
 31
0.0
  0
LINE
  5
CC3A
  8
0
 10
3911.0020693520878012
 20
216.5256579372048975
 30
0.0
 11
3911.0275273166889747
 21
216.5256579372048975
 31
0.0
  0
LINE
  5
CC3B
  8
0
 10
3911.0275273166889747
 20
216.5256579372048975
 30
0.0
 11
3911.0328924164259661
 21
216.5308655823565971
 31
0.0
  0
LINE
  5
CC3C
  8
0
 10
3911.0275273166889747
 20
216.5256579372048975
 30
0.0
 11
3911.0275273166889747
 21
216.5119516530048998
 31
0.0
  0
LINE
  5
CC3D
  8
0
 10
3911.0020693520878012
 20
216.5256579372048975
 30
0.0
 11
3911.0020693520878012
 21
216.5119516530048998
 31
0.0
  0
ARC
  5
CC3E
  8
0
 10
3910.9731509241378262
 20
216.5422479016104091
 30
0.0
 40
0.0250749721056272
 50
290.7304268966350946
 51
307.1252629160339893
  0
LINE
  5
CC3F
  8
0
 10
3910.9882851642892092
 20
216.5222551779048956
 30
0.0
 11
3911.0003841373709292
 21
216.5342672195133957
 31
0.0
  0
ARC
  5
CC40
  8
0
 10
3911.0488016457820777
 20
216.5316292051398932
 30
0.0
 40
0.0119790744486375
 50
219.863217994725801
 51
266.2212891812735052
  0
LINE
  5
CC41
  8
0
 10
3910.9820280909380017
 20
216.5488433758278006
 30
0.0
 11
3910.9946021368700713
 21
216.5368334063049076
 31
0.0
  0
ARC
  5
CC42
  8
0
 10
3911.0008558505951441
 20
216.5431270064902947
 30
0.0
 40
0.0088723355798629
 50
225.1821360477964902
 51
270.0209747803033906
  0
LINE
  5
CC43
  8
0
 10
3911.0008590985698902
 20
216.5342546715048968
 30
0.0
 11
3911.0287375702068857
 21
216.5342648772277983
 31
0.0
  0
ARC
  5
CC44
  8
0
 10
3911.0287343050149502
 20
216.5431842417399935
 30
0.0
 40
0.0089193651099378
 50
270.0209747803033906
 51
314.6023331944750794
  0
LINE
  5
CC45
  8
0
 10
3911.0349973230709111
 20
216.536833676504898
 30
0.0
 11
3911.0480135268649065
 21
216.5497231699048939
 31
0.0
  0
LINE
  5
CC46
  8
0
 10
3910.9899934968111666
 20
216.5539969028527025
 30
0.0
 11
3911.0020706918699034
 21
216.5419986500048992
 31
0.0
  0
LINE
  5
CC47
  8
0
 10
3911.0020706918699034
 20
216.5419986500048992
 30
0.0
 11
3911.0275286564701673
 21
216.5419986500048992
 31
0.0
  0
LINE
  5
CC48
  8
0
 10
3911.0275286564701673
 20
216.5419986500048992
 30
0.0
 11
3911.0396081261310428
 21
216.5539981304629009
 31
0.0
  0
LINE
  5
CC49
  8
0
 10
3911.0396081261310428
 20
216.5539981304629009
 30
0.0
 11
3911.0287303430618522
 21
216.5652018717725014
 31
0.0
  0
LINE
  5
CC4A
  8
0
 10
3910.9968945315808924
 20
216.5608483534869038
 30
0.0
 11
3911.0020706918699034
 21
216.555704934204897
 31
0.0
  0
LINE
  5
CC4B
  8
0
 10
3911.0020706918699034
 20
216.555704934204897
 30
0.0
 11
3911.0275286564701673
 21
216.555704934204897
 31
0.0
  0
LINE
  5
CC4C
  8
0
 10
3911.0275286564701673
 20
216.555704934204897
 30
0.0
 11
3911.0328937562071587
 21
216.5609125793565966
 31
0.0
  0
LINE
  5
CC4D
  8
0
 10
3911.0275286564701673
 20
216.555704934204897
 30
0.0
 11
3911.0275286564701673
 21
216.5419986500048992
 31
0.0
  0
LINE
  5
CC4E
  8
0
 10
3911.0020706918699034
 20
216.555704934204897
 30
0.0
 11
3911.0020706918699034
 21
216.5419986500048992
 31
0.0
  0
ARC
  5
CC4F
  8
0
 10
3910.9806409445568534
 20
216.5587447454533105
 30
0.0
 40
0.009998064590083
 50
277.9750282682027773
 51
319.8806615444967179
  0
LINE
  5
CC50
  8
0
 10
3910.9882865040699471
 20
216.5523021749048951
 30
0.0
 11
3911.0012694307811216
 21
216.5651918189093976
 31
0.0
  0
ARC
  5
CC51
  8
0
 10
3911.0488029855628156
 20
216.5616762021398927
 30
0.0
 40
0.0119790744486375
 50
219.863217994725801
 51
266.2212891812735052
  0
LINE
  5
CC52
  8
0
 10
3910.9820267511558995
 20
216.5797803725276935
 30
0.0
 11
3910.9946007970888786
 21
216.5677704030048858
 31
0.0
  0
ARC
  5
CC53
  8
0
 10
3911.000854510813042
 20
216.5740640031903013
 30
0.0
 40
0.0088723355798629
 50
225.1821360477964902
 51
270.0209747803033906
  0
LINE
  5
CC54
  8
0
 10
3911.000857758787788
 20
216.5651916682049034
 30
0.0
 11
3911.0287362304261478
 21
216.5652018739276912
 31
0.0
  0
ARC
  5
CC55
  8
0
 10
3911.0287329652342123
 20
216.5741212384400001
 30
0.0
 40
0.0089193651099378
 50
270.0209747803033906
 51
314.6023331944750794
  0
LINE
  5
CC56
  8
0
 10
3911.0349959832878994
 20
216.5677706732049046
 30
0.0
 11
3911.0480121870841685
 21
216.5806601666049005
 31
0.0
  0
LINE
  5
CC57
  8
0
 10
3910.9899921570290644
 20
216.5849338995525954
 30
0.0
 11
3911.0020693520878012
 21
216.5729356467049058
 31
0.0
  0
LINE
  5
CC58
  8
0
 10
3911.0020693520878012
 20
216.5729356467049058
 30
0.0
 11
3911.0275273166889747
 21
216.5729356467049058
 31
0.0
  0
LINE
  5
CC59
  8
0
 10
3911.0275273166889747
 20
216.5729356467049058
 30
0.0
 11
3911.0396067863498502
 21
216.5849351271629928
 31
0.0
  0
LINE
  5
CC5A
  8
0
 10
3911.0396067863498502
 20
216.5849351271629928
 30
0.0
 11
3911.0287290036599188
 21
216.5961388680821074
 31
0.0
  0
LINE
  5
CC5B
  8
0
 10
3910.9968931917987902
 20
216.5917853501869104
 30
0.0
 11
3911.0020693520878012
 21
216.5866419309049036
 31
0.0
  0
LINE
  5
CC5C
  8
0
 10
3911.0020693520878012
 20
216.5866419309049036
 30
0.0
 11
3911.0275273166889747
 21
216.5866419309049036
 31
0.0
  0
LINE
  5
CC5D
  8
0
 10
3911.0275273166889747
 20
216.5866419309049036
 30
0.0
 11
3911.0328924164259661
 21
216.5918495760566032
 31
0.0
  0
LINE
  5
CC5E
  8
0
 10
3911.0275273166889747
 20
216.5866419309049036
 30
0.0
 11
3911.0275273166889747
 21
216.5729356467049058
 31
0.0
  0
LINE
  5
CC5F
  8
0
 10
3911.0020693520878012
 20
216.5866419309049036
 30
0.0
 11
3911.0020693520878012
 21
216.5729356467049058
 31
0.0
  0
ARC
  5
CC60
  8
0
 10
3910.9805681552970782
 20
216.5898110241213885
 30
0.0
 40
0.0101361468653803
 50
278.2736105299115934
 51
319.5820792827622085
  0
LINE
  5
CC61
  8
0
 10
3910.9882851642892092
 20
216.5832391716049017
 30
0.0
 11
3911.0012680906061178
 21
216.5961288152188047
 31
0.0
  0
ARC
  5
CC62
  8
0
 10
3911.0488016457820777
 20
216.5926131988398993
 30
0.0
 40
0.0119790744486375
 50
219.863217994725801
 51
266.2212891812735052
  0
LINE
  5
CC63
  8
0
 10
3910.9820267511558995
 20
216.6107173693276877
 30
0.0
 11
3910.9946007970888786
 21
216.5987073998049084
 31
0.0
  0
ARC
  5
CC64
  8
0
 10
3911.000854510813042
 20
216.6050009999902954
 30
0.0
 40
0.0088723355798629
 50
225.1821360477964902
 51
270.0209747803033906
  0
LINE
  5
CC65
  8
0
 10
3911.000857758787788
 20
216.5961286650048976
 30
0.0
 11
3911.0287362304261478
 21
216.5961388707277138
 31
0.0
  0
ARC
  5
CC66
  8
0
 10
3911.0287329652342123
 20
216.6050582352399942
 30
0.0
 40
0.0089193651099378
 50
270.0209747803033906
 51
314.6023331944750794
  0
LINE
  5
CC67
  8
0
 10
3911.0349959832878994
 20
216.5987076700048988
 30
0.0
 11
3911.0480121870841685
 21
216.6115971634048947
 31
0.0
  0
LINE
  5
CC68
  8
0
 10
3910.9899921570290644
 20
216.6158708963525896
 30
0.0
 11
3911.0020693520878012
 21
216.6038726435049
 31
0.0
  0
LINE
  5
CC69
  8
0
 10
3911.0020693520878012
 20
216.6038726435049
 30
0.0
 11
3911.0275273166889747
 21
216.6038726435049
 31
0.0
  0
LINE
  5
CC6A
  8
0
 10
3911.0275273166889747
 20
216.6038726435049
 30
0.0
 11
3911.0396067863498502
 21
216.615872123962987
 31
0.0
  0
LINE
  5
CC6B
  8
0
 10
3911.0396067863498502
 20
216.615872123962987
 30
0.0
 11
3911.0287290036599188
 21
216.6270758648821015
 31
0.0
  0
LINE
  5
CC6C
  8
0
 10
3910.9968931917987902
 20
216.6227223469869045
 30
0.0
 11
3911.0020693520878012
 21
216.6175789277048978
 31
0.0
  0
LINE
  5
CC6D
  8
0
 10
3911.0020693520878012
 20
216.6175789277048978
 30
0.0
 11
3911.0275273166889747
 21
216.6175789277048978
 31
0.0
  0
LINE
  5
CC6E
  8
0
 10
3911.0275273166889747
 20
216.6175789277048978
 30
0.0
 11
3911.0328924164259661
 21
216.6227865728565973
 31
0.0
  0
LINE
  5
CC6F
  8
0
 10
3911.0275273166889747
 20
216.6175789277048978
 30
0.0
 11
3911.0275273166889747
 21
216.6038726435049
 31
0.0
  0
LINE
  5
CC70
  8
0
 10
3911.0020693520878012
 20
216.6175789277048978
 30
0.0
 11
3911.0020693520878012
 21
216.6038726435049
 31
0.0
  0
ARC
  5
CC71
  8
0
 10
3910.9795108849411918
 20
216.6226610648799067
 30
0.0
 40
0.0122057956011742
 50
281.8951072246917988
 51
315.9605825880046837
  0
LINE
  5
CC72
  8
0
 10
3910.9882851642892092
 20
216.6141761684048959
 30
0.0
 11
3911.0012680906061178
 21
216.6270658120187989
 31
0.0
  0
ARC
  5
CC73
  8
0
 10
3911.0488016457820777
 20
216.6235501956398934
 30
0.0
 40
0.0119790744486375
 50
219.863217994725801
 51
266.2212891812735052
  0
LINE
  5
CC74
  8
0
 10
3910.9820308903381374
 20
216.6421346400337882
 30
0.0
 11
3910.9946007970888786
 21
216.6296443966049026
 31
0.0
  0
ARC
  5
CC75
  8
0
 10
3911.000854510813042
 20
216.6359379967902896
 30
0.0
 40
0.0088723355798629
 50
225.1821360477964902
 51
270.0209747803033906
  0
LINE
  5
CC76
  8
0
 10
3911.000857758787788
 20
216.6270656618048918
 30
0.0
 11
3911.0287362304261478
 21
216.6270758675277932
 31
0.0
  0
ARC
  5
CC77
  8
0
 10
3911.0287329652342123
 20
216.6359952320399884
 30
0.0
 40
0.0089193651099378
 50
270.0209747803033906
 51
314.6023331944750794
  0
LINE
  5
CC78
  8
0
 10
3911.0349959832878994
 20
216.6296446668048929
 30
0.0
 11
3911.0480121870841685
 21
216.6425341602048888
 31
0.0
  0
LINE
  5
CC79
  8
0
 10
3910.9903414938980859
 20
216.646460839712887
 30
0.0
 11
3911.0020693520878012
 21
216.6348096403048942
 31
0.0
  0
LINE
  5
CC7A
  8
0
 10
3911.0020693520878012
 20
216.6348096403048942
 30
0.0
 11
3911.0275273166889747
 21
216.6348096403048942
 31
0.0
  0
LINE
  5
CC7B
  8
0
 10
3911.0275273166889747
 20
216.6348096403048942
 30
0.0
 11
3911.0396067863498502
 21
216.6468091207630096
 31
0.0
  0
LINE
  5
CC7C
  8
0
 10
3911.0396067863498502
 20
216.6468091207630096
 30
0.0
 11
3911.0287290037558705
 21
216.6580128615821934
 31
0.0
  0
LINE
  5
CC7D
  8
0
 10
3910.9992605048300902
 20
216.6513070048310112
 30
0.0
 11
3911.0020693520878012
 21
216.6485159245048919
 31
0.0
  0
LINE
  5
CC7E
  8
0
 10
3911.0020693520878012
 20
216.6485159245048919
 30
0.0
 11
3911.0275273166889747
 21
216.6485159245048919
 31
0.0
  0
LINE
  5
CC7F
  8
0
 10
3911.0275273166889747
 20
216.6485159245048919
 30
0.0
 11
3911.0328924164259661
 21
216.6537235696565915
 31
0.0
  0
LINE
  5
CC80
  8
0
 10
3911.0275273166889747
 20
216.6485159245048919
 30
0.0
 11
3911.0275273166889747
 21
216.6348096403048942
 31
0.0
  0
LINE
  5
CC81
  8
0
 10
3911.0020693520878012
 20
216.6485159245048919
 30
0.0
 11
3911.0020693520878012
 21
216.6348096403048942
 31
0.0
  0
ARC
  5
CC82
  8
0
 10
3911.0488016457820777
 20
216.6544871924398876
 30
0.0
 40
0.0119790744486375
 50
219.863217994725801
 51
266.2212891812735052
  0
LINE
  5
CC83
  8
0
 10
3911.0128653124079392
 20
216.6580070542181033
 30
0.0
 11
3911.0287362304261478
 21
216.6580128642276861
 31
0.0
  0
ARC
  5
CC84
  8
0
 10
3911.0287329652342123
 20
216.666932228739995
 30
0.0
 40
0.0089193651099378
 50
270.0209747803033906
 51
314.6023331944750794
  0
LINE
  5
CC85
  8
0
 10
3911.0349959832878994
 20
216.6605816635048996
 30
0.0
 11
3911.0454689385760503
 21
216.6709526664612895
 31
0.0
  0
LINE
  5
CC86
  8
0
 10
3911.0367077425248681
 20
216.4766547784741135
 30
0.0
 11
3911.0487801710878557
 21
216.4646612609662952
 31
0.0
  0
LINE
  5
CC87
  8
0
 10
3911.0436176461062132
 20
216.4834974153899907
 30
0.0
 11
3911.0487801710878557
 21
216.478367545166293
 31
0.0
  0
LINE
  5
CC88
  8
0
 10
3911.0487801710878557
 20
216.478367545166293
 30
0.0
 11
3911.0487801710878557
 21
216.4646612609662952
 31
0.0
  0
LINE
  5
CC89
  8
0
 10
3911.0362590925687982
 20
216.5080374926440072
 30
0.0
 11
3911.0487801710878557
 21
216.4955982577662894
 31
0.0
  0
LINE
  5
CC8A
  8
0
 10
3911.043169043891794
 20
216.5148801768384033
 30
0.0
 11
3911.0487801710878557
 21
216.5093045419662872
 31
0.0
  0
LINE
  5
CC8B
  8
0
 10
3911.0487801710878557
 20
216.5093045419662872
 30
0.0
 11
3911.0487801710878557
 21
216.4955982577662894
 31
0.0
  0
LINE
  5
CC8C
  8
0
 10
3911.0367029760291189
 20
216.5385335073140993
 30
0.0
 11
3911.0487801710878557
 21
216.526535254466296
 31
0.0
  0
LINE
  5
CC8D
  8
0
 10
3911.0436040107988447
 20
216.5453849579483006
 30
0.0
 11
3911.0487801710878557
 21
216.5402415386662938
 31
0.0
  0
LINE
  5
CC8E
  8
0
 10
3911.0487801710878557
 20
216.5402415386662938
 30
0.0
 11
3911.0487801710878557
 21
216.526535254466296
 31
0.0
  0
LINE
  5
CC8F
  8
0
 10
3911.0367029760291189
 20
216.5694705041140935
 30
0.0
 11
3911.0487801710878557
 21
216.5574722512662902
 31
0.0
  0
LINE
  5
CC90
  8
0
 10
3911.0436040107988447
 20
216.5763219547482095
 30
0.0
 11
3911.0487801710878557
 21
216.5711785354662879
 31
0.0
  0
LINE
  5
CC91
  8
0
 10
3911.0487801710878557
 20
216.5711785354662879
 30
0.0
 11
3911.0487801710878557
 21
216.5574722512662902
 31
0.0
  0
LINE
  5
CC92
  8
0
 10
3911.0367029760291189
 20
216.6004075008141001
 30
0.0
 11
3911.0487801710878557
 21
216.5884092479662968
 31
0.0
  0
LINE
  5
CC93
  8
0
 10
3911.0436040107988447
 20
216.6072589514483013
 30
0.0
 11
3911.0487801710878557
 21
216.6021155321662945
 31
0.0
  0
LINE
  5
CC94
  8
0
 10
3911.0487801710878557
 20
216.6021155321662945
 30
0.0
 11
3911.0487801710878557
 21
216.5884092479662968
 31
0.0
  0
LINE
  5
CC95
  8
0
 10
3911.0367029760291189
 20
216.6622814944140032
 30
0.0
 11
3911.0487801710878557
 21
216.6502832415663136
 31
0.0
  0
LINE
  5
CC96
  8
0
 10
3911.0436040107988447
 20
216.6691329450482897
 30
0.0
 11
3911.0487801710878557
 21
216.6639895257663113
 31
0.0
  0
LINE
  5
CC97
  8
0
 10
3911.0487801710878557
 20
216.6639895257663113
 30
0.0
 11
3911.0487801710878557
 21
216.6502832415663136
 31
0.0
  0
ARC
  5
CC98
  8
0
 10
3910.9952580640751876
 20
216.4730155527890929
 30
0.0
 40
0.005695592579206
 50
176.5283143394538001
 51
279.975902952413719
  0
LINE
  5
CC99
  8
0
 10
3910.9895729237891828
 20
216.473360450966311
 30
0.0
 11
3910.9895729237891828
 21
216.4799554212430053
 31
0.0
  0
ARC
  5
CC9A
  8
0
 10
3910.9661079242159758
 20
216.4957123404697938
 30
0.0
 40
0.0084608911808288
 50
180.7725729313482077
 51
248.2409512105967906
  0
LINE
  5
CC9B
  8
0
 10
3910.9629714369889371
 20
216.4878542791662994
 30
0.0
 11
3910.9820266605797769
 21
216.487848655345914
 31
0.0
  0
LINE
  5
CC9C
  8
0
 10
3910.9576478021881485
 20
216.4955982577662894
 30
0.0
 11
3910.9808178374200907
 21
216.4954748046770021
 31
0.0
  0
LINE
  5
CC9D
  8
0
 10
3910.9808178374200907
 20
216.4954748046770021
 30
0.0
 11
3910.9938050919708985
 21
216.5075464187927992
 31
0.0
  0
LINE
  5
CC9E
  8
0
 10
3910.9515494784509428
 20
216.5149088113385858
 30
0.0
 11
3910.9576478021881485
 21
216.5093045419662872
 31
0.0
  0
LINE
  5
CC9F
  8
0
 10
3910.9576478021881485
 20
216.5093045419662872
 30
0.0
 11
3910.9808178374200907
 21
216.508409439204911
 31
0.0
  0
LINE
  5
CCA0
  8
0
 10
3910.9808178374200907
 20
216.508409439204911
 30
0.0
 11
3910.9868110199017792
 21
216.5142267341705917
 31
0.0
  0
LINE
  5
CCA1
  8
0
 10
3910.9808178374200907
 20
216.508409439204911
 30
0.0
 11
3910.9808178374200907
 21
216.4954748046770021
 31
0.0
  0
LINE
  5
CCA2
  8
0
 10
3910.9576478021881485
 20
216.5093045419662872
 30
0.0
 11
3910.9576478021881485
 21
216.4955982577662894
 31
0.0
  0
ARC
  5
CCA3
  8
0
 10
3910.9467144702030055
 20
216.5146813660913097
 30
0.0
 40
0.00809391887453
 50
173.4503019502323866
 51
248.4298811204299113
  0
LINE
  5
CCA4
  8
0
 10
3910.9437388250889853
 20
216.5071542777494074
 30
0.0
 11
3910.9554553827560994
 21
216.5187866516079964
 31
0.0
  0
LINE
  5
CCA5
  8
0
 10
3910.9349193427410682
 20
216.5342546715048968
 30
0.0
 11
3910.9478913178199946
 21
216.5213649079049105
 31
0.0
  0
ARC
  5
CCA6
  8
0
 10
3910.9541450315450675
 20
216.5276585080902976
 30
0.0
 40
0.0088723355798629
 50
225.1821360477964902
 51
270.0209747803033906
  0
LINE
  5
CCA7
  8
0
 10
3910.9541482795198135
 20
216.5187861731048997
 30
0.0
 11
3910.9820267511558995
 21
216.5187963788278012
 31
0.0
  0
LINE
  5
CCA8
  8
0
 10
3910.9432826777601804
 20
216.5385284044527054
 30
0.0
 11
3910.9553598728198267
 21
216.5265301516049021
 31
0.0
  0
LINE
  5
CCA9
  8
0
 10
3910.9553598728198267
 20
216.5265301516049021
 30
0.0
 11
3910.9808178374200907
 21
216.5265301516049021
 31
0.0
  0
LINE
  5
CCAA
  8
0
 10
3910.9808178374200907
 20
216.5265301516049021
 30
0.0
 11
3910.9928973070818756
 21
216.5385296320629038
 31
0.0
  0
LINE
  5
CCAB
  8
0
 10
3910.9501837125308157
 20
216.5453798550869067
 30
0.0
 11
3910.9553598728198267
 21
216.5402364358048999
 31
0.0
  0
LINE
  5
CCAC
  8
0
 10
3910.9553598728198267
 20
216.5402364358048999
 30
0.0
 11
3910.9808178374200907
 21
216.5402364358048999
 31
0.0
  0
LINE
  5
CCAD
  8
0
 10
3910.9808178374200907
 20
216.5402364358048999
 30
0.0
 11
3910.9858873894140743
 21
216.545157206927712
 31
0.0
  0
LINE
  5
CCAE
  8
0
 10
3910.9808178374200907
 20
216.5402364358048999
 30
0.0
 11
3910.9808178374200907
 21
216.5265301516049021
 31
0.0
  0
LINE
  5
CCAF
  8
0
 10
3910.9553598728198267
 20
216.5402364358048999
 30
0.0
 11
3910.9553598728198267
 21
216.5265301516049021
 31
0.0
  0
ARC
  5
CCB0
  8
0
 10
3910.9352895356969384
 20
216.5431786358423949
 30
0.0
 40
0.0089316393970375
 50
267.6245602287626753
 51
314.7332347226234219
  0
LINE
  5
CCB1
  8
0
 10
3910.9415756850198704
 20
216.536833676504898
 30
0.0
 11
3910.9536746581029547
 21
216.5488457181133128
 31
0.0
  0
LINE
  5
CCB2
  8
0
 10
3910.9357346828010122
 20
216.5643049459386873
 30
0.0
 11
3910.9478926576020967
 21
216.55141190490491
 31
0.0
  0
ARC
  5
CCB3
  8
0
 10
3910.9541463713258054
 20
216.557705505090297
 30
0.0
 40
0.0088723355798629
 50
225.1821360477964902
 51
270.0209747803033906
  0
LINE
  5
CCB4
  8
0
 10
3910.9541496193019157
 20
216.5488331701048992
 30
0.0
 11
3910.9820280909380017
 21
216.5488433758278006
 31
0.0
  0
LINE
  5
CCB5
  8
0
 10
3910.9432840175418278
 20
216.5685754014527049
 30
0.0
 11
3910.9553612126019289
 21
216.5565771486049016
 31
0.0
  0
LINE
  5
CCB6
  8
0
 10
3910.9553612126019289
 20
216.5565771486049016
 30
0.0
 11
3910.9808191772021928
 21
216.5565771486049016
 31
0.0
  0
LINE
  5
CCB7
  8
0
 10
3910.9808191772021928
 20
216.5565771486049016
 30
0.0
 11
3910.9933192563680677
 21
216.5689944533285995
 31
0.0
  0
LINE
  5
CCB8
  8
0
 10
3910.9501850523129178
 20
216.5754268520869061
 30
0.0
 11
3910.9553612126019289
 21
216.5702834328048993
 31
0.0
  0
LINE
  5
CCB9
  8
0
 10
3910.9553612126019289
 20
216.5702834328048993
 30
0.0
 11
3910.9808191772021928
 21
216.5702834328048993
 31
0.0
  0
LINE
  5
CCBA
  8
0
 10
3910.9808191772021928
 20
216.5702834328048993
 30
0.0
 11
3910.9863495476452044
 21
216.5756514983089005
 31
0.0
  0
LINE
  5
CCBB
  8
0
 10
3910.9808191772021928
 20
216.5702834328048993
 30
0.0
 11
3910.9808191772021928
 21
216.5565771486049016
 31
0.0
  0
LINE
  5
CCBC
  8
0
 10
3910.9553612126019289
 20
216.5702834328048993
 30
0.0
 11
3910.9553612126019289
 21
216.5565771486049016
 31
0.0
  0
ARC
  5
CCBD
  8
0
 10
3910.9352917677069854
 20
216.5732233300225005
 30
0.0
 40
0.0089293755911456
 50
272.8431532571457865
 51
314.7395672694964901
  0
LINE
  5
CCBE
  8
0
 10
3910.9415770248019726
 20
216.5668806735048975
 30
0.0
 11
3910.9545599515131471
 21
216.5797703175094
 31
0.0
  0
LINE
  5
CCBF
  8
0
 10
3910.9349193427410682
 20
216.5952386652049029
 30
0.0
 11
3910.9478913178199946
 21
216.5823489016048882
 31
0.0
  0
ARC
  5
CCC0
  8
0
 10
3910.9541450315450675
 20
216.5886425017903036
 30
0.0
 40
0.0088723355798629
 50
225.1821360477964902
 51
270.0209747803033906
  0
LINE
  5
CCC1
  8
0
 10
3910.9541482795198135
 20
216.5797701668049058
 30
0.0
 11
3910.9820267511558995
 21
216.5797803725276935
 31
0.0
  0
LINE
  5
CCC2
  8
0
 10
3910.9432826777601804
 20
216.5995123981525978
 30
0.0
 11
3910.9553598728198267
 21
216.5875141453049082
 31
0.0
  0
LINE
  5
CCC3
  8
0
 10
3910.9553598728198267
 20
216.5875141453049082
 30
0.0
 11
3910.9808178374200907
 21
216.5875141453049082
 31
0.0
  0
LINE
  5
CCC4
  8
0
 10
3910.9808178374200907
 20
216.5875141453049082
 30
0.0
 11
3910.9933185733830214
 21
216.5999321024752078
 31
0.0
  0
LINE
  5
CCC5
  8
0
 10
3910.9501837125308157
 20
216.6063638487869127
 30
0.0
 11
3910.9553598728198267
 21
216.601220429504906
 31
0.0
  0
LINE
  5
CCC6
  8
0
 10
3910.9553598728198267
 20
216.601220429504906
 30
0.0
 11
3910.9808178374200907
 21
216.601220429504906
 31
0.0
  0
LINE
  5
CCC7
  8
0
 10
3910.9808178374200907
 20
216.601220429504906
 30
0.0
 11
3910.9863488724099625
 21
216.6065891400525061
 31
0.0
  0
LINE
  5
CCC8
  8
0
 10
3910.9808178374200907
 20
216.601220429504906
 30
0.0
 11
3910.9808178374200907
 21
216.5875141453049082
 31
0.0
  0
LINE
  5
CCC9
  8
0
 10
3910.9553598728198267
 20
216.601220429504906
 30
0.0
 11
3910.9553598728198267
 21
216.5875141453049082
 31
0.0
  0
ARC
  5
CCCA
  8
0
 10
3910.9352895356969384
 20
216.6041626295422873
 30
0.0
 40
0.0089316393970366
 50
267.6245602287626753
 51
314.7332347226234219
  0
LINE
  5
CCCB
  8
0
 10
3910.9415756850198704
 20
216.5978176702049041
 30
0.0
 11
3910.9545586113381432
 21
216.6107073138188071
 31
0.0
  0
LINE
  5
CCCC
  8
0
 10
3910.9460263540190681
 20
216.6151390427694992
 30
0.0
 11
3910.9478913178199946
 21
216.6132858984049108
 31
0.0
  0
ARC
  5
CCCD
  8
0
 10
3910.9541450315450675
 20
216.6195794985902126
 30
0.0
 40
0.0088723355798629
 50
225.1821360477964902
 51
270.0209747803033906
  0
LINE
  5
CCCE
  8
0
 10
3910.9541482795198135
 20
216.6107071636049
 30
0.0
 11
3910.9820267511558995
 21
216.6107173693276877
 31
0.0
  0
LINE
  5
CCCF
  8
0
 10
3910.9521998199370501
 20
216.6215905394003016
 30
0.0
 11
3910.9553598728198267
 21
216.6184511421049024
 31
0.0
  0
LINE
  5
CCD0
  8
0
 10
3910.9553598728198267
 20
216.6184511421049024
 30
0.0
 11
3910.9808178374200907
 21
216.6184511421049024
 31
0.0
  0
LINE
  5
CCD1
  8
0
 10
3910.9808178374200907
 20
216.6184511421049024
 30
0.0
 11
3910.9933434318531909
 21
216.6308937931347032
 31
0.0
  0
LINE
  5
CCD2
  8
0
 10
3910.9649394277948886
 20
216.6321574263049001
 30
0.0
 11
3910.9808178374200907
 21
216.6321574263049001
 31
0.0
  0
LINE
  5
CCD3
  8
0
 10
3910.9808178374200907
 20
216.6321574263049001
 30
0.0
 11
3910.9865107033479035
 21
216.6376832183871102
 31
0.0
  0
LINE
  5
CCD4
  8
0
 10
3910.9808178374200907
 20
216.6321574263049001
 30
0.0
 11
3910.9808178374200907
 21
216.6184511421049024
 31
0.0
  0
LINE
  5
CCD5
  8
0
 10
3910.9553598728198267
 20
216.6245209462128969
 30
0.0
 11
3910.9553598728198267
 21
216.6184511421049024
 31
0.0
  0
LINE
  5
CCD6
  8
0
 10
3910.9349193427410682
 20
216.5342546715048968
 30
0.0
 11
3910.9256308894891845
 21
216.5342597743662907
 31
0.0
  0
ARC
  5
CCD7
  8
0
 10
3910.9384698731860226
 20
216.5412860109881876
 30
0.0
 40
0.0146358294418854
 50
177.1890843888535017
 51
208.6900363190462997
  0
LINE
  5
CCD8
  8
0
 10
3910.9238516533891925
 20
216.5420037528662931
 30
0.0
 11
3910.9238516533891925
 21
216.5557100370662909
 31
0.0
  0
LINE
  5
CCD9
  8
0
 10
3910.9238516533891925
 20
216.5557100370662909
 30
0.0
 11
3910.920788854651164
 21
216.5652314788378874
 31
0.0
  0
LINE
  5
CCDA
  8
0
 10
3910.920788854651164
 20
216.5652314788378874
 30
0.0
 11
3910.9357346828010122
 21
216.5643049459386873
 31
0.0
  0
LINE
  5
CCDB
  8
0
 10
3910.9388361986070777
 20
216.5913466328933055
 30
0.0
 11
3910.9341056786879562
 21
216.5866470338663134
 31
0.0
  0
LINE
  5
CCDC
  8
0
 10
3910.9386733779888345
 20
216.5156045988663038
 30
0.0
 11
3910.9386026594179384
 21
216.5305946982983016
 31
0.0
  0
LINE
  5
CCDD
  8
0
 10
3911.154930791438801
 20
216.478367545166293
 30
0.0
 11
3911.1422018090879646
 21
216.478367545166293
 31
0.0
  0
LINE
  5
CCDE
  8
0
 10
3911.1422018090879646
 20
216.478367545166293
 30
0.0
 11
3911.1370210911550203
 21
216.4835143996048998
 31
0.0
  0
LINE
  5
CCDF
  8
0
 10
3911.154930791438801
 20
216.4646612609662952
 30
0.0
 11
3911.1422018090879646
 21
216.4646612609662952
 31
0.0
  0
LINE
  5
CCE0
  8
0
 10
3911.1422018090879646
 20
216.4646612609662952
 30
0.0
 11
3911.1422018090879646
 21
216.478367545166293
 31
0.0
  0
LINE
  5
CCE1
  8
0
 10
3911.1422018090879646
 20
216.4646612609662952
 30
0.0
 11
3911.130126534314968
 21
216.4766576061788896
 31
0.0
  0
LINE
  5
CCE2
  8
0
 10
3911.154930791438801
 20
216.5093045419662872
 30
0.0
 11
3911.1422018090879646
 21
216.5093045419662872
 31
0.0
  0
LINE
  5
CCE3
  8
0
 10
3911.1422018090879646
 20
216.5093045419662872
 30
0.0
 11
3911.1365761932729583
 21
216.5148933862344904
 31
0.0
  0
LINE
  5
CCE4
  8
0
 10
3911.154930791438801
 20
216.4955982577662894
 30
0.0
 11
3911.1422018090879646
 21
216.4955982577662894
 31
0.0
  0
LINE
  5
CCE5
  8
0
 10
3911.1422018090879646
 20
216.4955982577662894
 30
0.0
 11
3911.1422018090879646
 21
216.5093045419662872
 31
0.0
  0
LINE
  5
CCE6
  8
0
 10
3911.1422018090879646
 20
216.4955982577662894
 30
0.0
 11
3911.1296786513739789
 21
216.5080395583507027
 31
0.0
  0
LINE
  5
CCE7
  8
0
 10
3911.154930791438801
 20
216.5402415386662938
 30
0.0
 11
3911.1422018090879646
 21
216.5402415386662938
 31
0.0
  0
LINE
  5
CCE8
  8
0
 10
3911.1422018090879646
 20
216.5402415386662938
 30
0.0
 11
3911.1370210911550203
 21
216.5453883931049006
 31
0.0
  0
LINE
  5
CCE9
  8
0
 10
3911.154930791438801
 20
216.526535254466296
 30
0.0
 11
3911.1422018090879646
 21
216.526535254466296
 31
0.0
  0
LINE
  5
CCEA
  8
0
 10
3911.1422018090879646
 20
216.526535254466296
 30
0.0
 11
3911.1422018090879646
 21
216.5402415386662938
 31
0.0
  0
LINE
  5
CCEB
  8
0
 10
3911.1422018090879646
 20
216.526535254466296
 30
0.0
 11
3911.130126534314968
 21
216.5385315996788904
 31
0.0
  0
LINE
  5
CCEC
  8
0
 10
3911.154930791438801
 20
216.6021155322663105
 30
0.0
 11
3911.1422018090879646
 21
216.6021155322663105
 31
0.0
  0
LINE
  5
CCED
  8
0
 10
3911.1422018090879646
 20
216.6021155322663105
 30
0.0
 11
3911.1370210911550203
 21
216.607262386704889
 31
0.0
  0
LINE
  5
CCEE
  8
0
 10
3911.154930791438801
 20
216.5884092480663128
 30
0.0
 11
3911.1422018090879646
 21
216.5884092480663128
 31
0.0
  0
LINE
  5
CCEF
  8
0
 10
3911.1422018090879646
 20
216.5884092480663128
 30
0.0
 11
3911.1422018090879646
 21
216.6021155322663105
 31
0.0
  0
LINE
  5
CCF0
  8
0
 10
3911.1422018090879646
 20
216.5884092480663128
 30
0.0
 11
3911.130126534314968
 21
216.6004055932789072
 31
0.0
  0
LINE
  5
CCF1
  8
0
 10
3911.154930791438801
 20
216.6330525289662887
 30
0.0
 11
3911.1422018090879646
 21
216.6330525289662887
 31
0.0
  0
LINE
  5
CCF2
  8
0
 10
3911.1422018090879646
 20
216.6330525289662887
 30
0.0
 11
3911.1370210911550203
 21
216.6381993834048956
 31
0.0
  0
LINE
  5
CCF3
  8
0
 10
3911.154930791438801
 20
216.619346244766291
 30
0.0
 11
3911.1422018090879646
 21
216.619346244766291
 31
0.0
  0
LINE
  5
CCF4
  8
0
 10
3911.1422018090879646
 20
216.619346244766291
 30
0.0
 11
3911.1422018090879646
 21
216.6330525289662887
 31
0.0
  0
LINE
  5
CCF5
  8
0
 10
3911.1422018090879646
 20
216.619346244766291
 30
0.0
 11
3911.130126534314968
 21
216.6313425899789138
 31
0.0
  0
LINE
  5
CCF6
  8
0
 10
3911.154930791438801
 20
216.6639895257663113
 30
0.0
 11
3911.1422018090879646
 21
216.6639895257663113
 31
0.0
  0
LINE
  5
CCF7
  8
0
 10
3911.1422018090879646
 20
216.6639895257663113
 30
0.0
 11
3911.1370210911550203
 21
216.6691363802048897
 31
0.0
  0
LINE
  5
CCF8
  8
0
 10
3911.154930791438801
 20
216.6502832415663136
 30
0.0
 11
3911.1422018090879646
 21
216.6502832415663136
 31
0.0
  0
LINE
  5
CCF9
  8
0
 10
3911.1422018090879646
 20
216.6502832415663136
 30
0.0
 11
3911.1422018090879646
 21
216.6639895257663113
 31
0.0
  0
LINE
  5
CCFA
  8
0
 10
3911.1422018090879646
 20
216.6502832415663136
 30
0.0
 11
3911.130126534314968
 21
216.662279586778908
 31
0.0
  0
LINE
  5
CCFB
  8
0
 10
3911.1684720981111241
 20
216.4569172824662928
 30
0.0
 11
3911.1814440731900504
 21
216.4440275188663065
 31
0.0
  0
ARC
  5
CCFC
  8
0
 10
3911.1876977869142138
 20
216.4503211190516936
 30
0.0
 40
0.0088723355798629
 50
225.1821360477964902
 51
270.0209747803033906
  0
LINE
  5
CCFD
  8
0
 10
3911.1877010348898693
 20
216.4414487840662957
 30
0.0
 11
3911.2155795065268649
 21
216.4414589897891119
 31
0.0
  0
ARC
  5
CCFE
  8
0
 10
3911.2155762413340199
 20
216.4503783543013924
 30
0.0
 40
0.0089193651099378
 50
270.0209747803033906
 51
314.6023331944750794
  0
LINE
  5
CCFF
  8
0
 10
3911.2218392593899807
 20
216.4440277890662969
 30
0.0
 11
3911.2348554631848856
 21
216.4569172824662928
 31
0.0
  0
LINE
  5
CD00
  8
0
 10
3911.1768354331297814
 20
216.4611910154139878
 30
0.0
 11
3911.1889126281898825
 21
216.4491927625662981
 31
0.0
  0
LINE
  5
CD01
  8
0
 10
3911.1889126281898825
 20
216.4491927625662981
 30
0.0
 11
3911.2143705927901465
 21
216.4491927625662981
 31
0.0
  0
LINE
  5
CD02
  8
0
 10
3911.2143705927901465
 20
216.4491927625662981
 30
0.0
 11
3911.2264500624501125
 21
216.4611922430244135
 31
0.0
  0
LINE
  5
CD03
  8
0
 10
3911.2264500624501125
 20
216.4611922430244135
 30
0.0
 11
3911.2155821860901597
 21
216.4723857807663023
 31
0.0
  0
LINE
  5
CD04
  8
0
 10
3911.183736467899962
 20
216.4680424660483027
 30
0.0
 11
3911.1889126281898825
 21
216.4628990467662959
 31
0.0
  0
LINE
  5
CD05
  8
0
 10
3911.1889126281898825
 20
216.4628990467662959
 30
0.0
 11
3911.2143705927901465
 21
216.4628990467662959
 31
0.0
  0
LINE
  5
CD06
  8
0
 10
3911.2143705927901465
 20
216.4628990467662959
 30
0.0
 11
3911.2197356925257736
 21
216.4681066919179955
 31
0.0
  0
LINE
  5
CD07
  8
0
 10
3911.2143705927901465
 20
216.4628990467662959
 30
0.0
 11
3911.2143705927901465
 21
216.4491927625662981
 31
0.0
  0
LINE
  5
CD08
  8
0
 10
3911.1889126281898825
 20
216.4628990467662959
 30
0.0
 11
3911.1889126281898825
 21
216.4491927625662981
 31
0.0
  0
LINE
  5
CD09
  8
0
 10
3911.1549307914401652
 20
216.4569172824662928
 30
0.0
 11
3911.1688686893890008
 21
216.4569167614662888
 31
0.0
  0
ARC
  5
CD0A
  8
0
 10
3911.1688690214841699
 20
216.4658010059584967
 30
0.0
 40
0.008884244498413
 50
269.997858278115018
 51
314.7934228374951999
  0
LINE
  5
CD0B
  8
0
 10
3911.1751284403890168
 20
216.459496287466294
 30
0.0
 11
3911.1881112153059803
 21
216.4723857807663023
 31
0.0
  0
ARC
  5
CD0C
  8
0
 10
3911.2356449218818852
 20
216.4688703147012916
 30
0.0
 40
0.0119790744486375
 50
219.863217994725801
 51
266.2212891812735052
  0
LINE
  5
CD0D
  8
0
 10
3911.1684720981111241
 20
216.4878491763049055
 30
0.0
 11
3911.1814440731900504
 21
216.4749594127048908
 31
0.0
  0
ARC
  5
CD0E
  8
0
 10
3911.1876977869142138
 20
216.4812530128903063
 30
0.0
 40
0.0088723355798629
 50
225.1821360477964902
 51
270.0209747803033906
  0
LINE
  5
CD0F
  8
0
 10
3911.1877010348898693
 20
216.4723806779049085
 30
0.0
 11
3911.2155795065268649
 21
216.4723908836276962
 31
0.0
  0
ARC
  5
CD10
  8
0
 10
3911.2155762413340199
 20
216.4813102481400051
 30
0.0
 40
0.0089193651099378
 50
270.0209747803033906
 51
314.6023331944750794
  0
LINE
  5
CD11
  8
0
 10
3911.2218392593899807
 20
216.4749596829049096
 30
0.0
 11
3911.2348554631848856
 21
216.4878491763049055
 31
0.0
  0
LINE
  5
CD12
  8
0
 10
3911.1768354331297814
 20
216.4921229092527142
 30
0.0
 11
3911.1889126281898825
 21
216.4801246564049109
 31
0.0
  0
LINE
  5
CD13
  8
0
 10
3911.1889126281898825
 20
216.4801246564049109
 30
0.0
 11
3911.2143705927901465
 21
216.4801246564049109
 31
0.0
  0
LINE
  5
CD14
  8
0
 10
3911.2143705927901465
 20
216.4801246564049109
 30
0.0
 11
3911.2264500624501125
 21
216.4921241368629978
 31
0.0
  0
LINE
  5
CD15
  8
0
 10
3911.2264500624501125
 20
216.4921241368629978
 30
0.0
 11
3911.2147084803627877
 21
216.5042175613633049
 31
0.0
  0
LINE
  5
CD16
  8
0
 10
3911.183736467899962
 20
216.4989743598868017
 30
0.0
 11
3911.1889126281898825
 21
216.4938309406049086
 31
0.0
  0
LINE
  5
CD17
  8
0
 10
3911.1889126281898825
 20
216.4938309406049086
 30
0.0
 11
3911.2143705927901465
 21
216.4938309406049086
 31
0.0
  0
LINE
  5
CD18
  8
0
 10
3911.2143705927901465
 20
216.4938309406049086
 30
0.0
 11
3911.2197356925257736
 21
216.4990385857564945
 31
0.0
  0
LINE
  5
CD19
  8
0
 10
3911.2143705927901465
 20
216.4938309406049086
 30
0.0
 11
3911.2143705927901465
 21
216.4801246564049109
 31
0.0
  0
LINE
  5
CD1A
  8
0
 10
3911.1889126281898825
 20
216.4938309406049086
 30
0.0
 11
3911.1889126281898825
 21
216.4801246564049109
 31
0.0
  0
LINE
  5
CD1B
  8
0
 10
3911.1549307914401652
 20
216.4878491763049055
 30
0.0
 11
3911.1688686893890008
 21
216.4878486553049015
 31
0.0
  0
ARC
  5
CD1C
  8
0
 10
3911.1688690214841699
 20
216.4967328997971094
 30
0.0
 40
0.008884244498413
 50
269.997858278115018
 51
314.7934228374951999
  0
LINE
  5
CD1D
  8
0
 10
3911.1751284403890168
 20
216.4904281813049067
 30
0.0
 11
3911.189008138124791
 21
216.504208153007994
 31
0.0
  0
ARC
  5
CD1E
  8
0
 10
3911.2356449218818852
 20
216.4998022085399043
 30
0.0
 40
0.0119790744486375
 50
219.863217994725801
 51
266.2212891812735052
  0
LINE
  5
CD1F
  8
0
 10
3911.1684720981111241
 20
216.5196761729048944
 30
0.0
 11
3911.1814440731900504
 21
216.5067864093049081
 31
0.0
  0
ARC
  5
CD20
  8
0
 10
3911.1876977869142138
 20
216.5130800094902952
 30
0.0
 40
0.0088723355798629
 50
225.1821360477964902
 51
270.0209747803033906
  0
LINE
  5
CD21
  8
0
 10
3911.1877010348898693
 20
216.5042076745048973
 30
0.0
 11
3911.2155795065268649
 21
216.5042178802277988
 31
0.0
  0
ARC
  5
CD22
  8
0
 10
3911.2155762413340199
 20
216.513137244739994
 30
0.0
 40
0.0089193651099378
 50
270.0209747803033906
 51
314.6023331944750794
  0
LINE
  5
CD23
  8
0
 10
3911.2218392593899807
 20
216.5067866795048985
 30
0.0
 11
3911.2348554631848856
 21
216.5196761729048944
 31
0.0
  0
LINE
  5
CD24
  8
0
 10
3911.1768354331297814
 20
216.5239499058527031
 30
0.0
 11
3911.1889126281898825
 21
216.5119516530048998
 31
0.0
  0
LINE
  5
CD25
  8
0
 10
3911.1889126281898825
 20
216.5119516530048998
 30
0.0
 11
3911.2143705927901465
 21
216.5119516530048998
 31
0.0
  0
LINE
  5
CD26
  8
0
 10
3911.2143705927901465
 20
216.5119516530048998
 30
0.0
 11
3911.2264500624501125
 21
216.5239511334629015
 31
0.0
  0
LINE
  5
CD27
  8
0
 10
3911.2264500624501125
 20
216.5239511334629015
 30
0.0
 11
3911.2163995345840704
 21
216.5343028304523045
 31
0.0
  0
LINE
  5
CD28
  8
0
 10
3911.183736467899962
 20
216.5308013564869043
 30
0.0
 11
3911.1889126281898825
 21
216.5256579372048975
 31
0.0
  0
LINE
  5
CD29
  8
0
 10
3911.1889126281898825
 20
216.5256579372048975
 30
0.0
 11
3911.2143705927901465
 21
216.5256579372048975
 31
0.0
  0
LINE
  5
CD2A
  8
0
 10
3911.2143705927901465
 20
216.5256579372048975
 30
0.0
 11
3911.2197356925257736
 21
216.5308655823565971
 31
0.0
  0
LINE
  5
CD2B
  8
0
 10
3911.2143705927901465
 20
216.5256579372048975
 30
0.0
 11
3911.2143705927901465
 21
216.5119516530048998
 31
0.0
  0
LINE
  5
CD2C
  8
0
 10
3911.1889126281898825
 20
216.5256579372048975
 30
0.0
 11
3911.1889126281898825
 21
216.5119516530048998
 31
0.0
  0
LINE
  5
CD2D
  8
0
 10
3911.1549307914401652
 20
216.5196761729048944
 30
0.0
 11
3911.1688686893890008
 21
216.5196756519048904
 31
0.0
  0
ARC
  5
CD2E
  8
0
 10
3911.1688690214841699
 20
216.5285598963970983
 30
0.0
 40
0.008884244498413
 50
269.997858278115018
 51
314.7934228374951999
  0
LINE
  5
CD2F
  8
0
 10
3911.1751284403890168
 20
216.5222551779048956
 30
0.0
 11
3911.187227413472101
 21
216.5342672195133957
 31
0.0
  0
ARC
  5
CD30
  8
0
 10
3911.2356449218818852
 20
216.5316292051398932
 30
0.0
 40
0.0119790744486375
 50
219.863217994725801
 51
266.2212891812735052
  0
LINE
  5
CD31
  8
0
 10
3911.1684734378932262
 20
216.5497231699048939
 30
0.0
 11
3911.1814454129707883
 21
216.5368334063049076
 31
0.0
  0
ARC
  5
CD32
  8
0
 10
3911.1876991266958612
 20
216.5431270064902947
 30
0.0
 40
0.0088723355798629
 50
225.1821360477964902
 51
270.0209747803033906
  0
LINE
  5
CD33
  8
0
 10
3911.1877023746719715
 20
216.5342546715048968
 30
0.0
 11
3911.2155808463080575
 21
216.5342648772277983
 31
0.0
  0
ARC
  5
CD34
  8
0
 10
3911.215577581116122
 20
216.5431842417399935
 30
0.0
 40
0.0089193651099378
 50
270.0209747803033906
 51
314.6023331944750794
  0
LINE
  5
CD35
  8
0
 10
3911.2218405991711734
 20
216.536833676504898
 30
0.0
 11
3911.2348568029669877
 21
216.5497231699048939
 31
0.0
  0
LINE
  5
CD36
  8
0
 10
3911.1768367729109741
 20
216.5539969028527025
 30
0.0
 11
3911.1889139679710752
 21
216.5419986500048992
 31
0.0
  0
LINE
  5
CD37
  8
0
 10
3911.1889139679710752
 20
216.5419986500048992
 30
0.0
 11
3911.2143719325717939
 21
216.5419986500048992
 31
0.0
  0
LINE
  5
CD38
  8
0
 10
3911.2143719325717939
 20
216.5419986500048992
 30
0.0
 11
3911.2264514022322146
 21
216.5539981304629009
 31
0.0
  0
LINE
  5
CD39
  8
0
 10
3911.2264514022322146
 20
216.5539981304629009
 30
0.0
 11
3911.215573619163024
 21
216.5652018717725014
 31
0.0
  0
LINE
  5
CD3A
  8
0
 10
3911.1837378076811547
 20
216.5608483534869038
 30
0.0
 11
3911.1889139679710752
 21
216.555704934204897
 31
0.0
  0
LINE
  5
CD3B
  8
0
 10
3911.1889139679710752
 20
216.555704934204897
 30
0.0
 11
3911.2143719325717939
 21
216.555704934204897
 31
0.0
  0
LINE
  5
CD3C
  8
0
 10
3911.2143719325717939
 20
216.555704934204897
 30
0.0
 11
3911.2197370323078758
 21
216.5609125793565966
 31
0.0
  0
LINE
  5
CD3D
  8
0
 10
3911.2143719325717939
 20
216.555704934204897
 30
0.0
 11
3911.2143719325717939
 21
216.5419986500048992
 31
0.0
  0
LINE
  5
CD3E
  8
0
 10
3911.1889139679710752
 20
216.555704934204897
 30
0.0
 11
3911.1889139679710752
 21
216.5419986500048992
 31
0.0
  0
LINE
  5
CD3F
  8
0
 10
3911.1549321312218126
 20
216.5497231699048939
 30
0.0
 11
3911.1688700291720124
 21
216.5497226489048899
 31
0.0
  0
ARC
  5
CD40
  8
0
 10
3911.1688703612649078
 20
216.5586068933970978
 30
0.0
 40
0.008884244498413
 50
269.997858278115018
 51
314.7934228374951999
  0
LINE
  5
CD41
  8
0
 10
3911.1751297801711189
 20
216.5523021749048951
 30
0.0
 11
3911.1881127068832029
 21
216.5651918189093976
 31
0.0
  0
ARC
  5
CD42
  8
0
 10
3911.2356462616639874
 20
216.5616762021398927
 30
0.0
 40
0.0119790744486375
 50
219.863217994725801
 51
266.2212891812735052
  0
LINE
  5
CD43
  8
0
 10
3911.1684720981111241
 20
216.5806601666049005
 30
0.0
 11
3911.1814440731900504
 21
216.5677704030048858
 31
0.0
  0
ARC
  5
CD44
  8
0
 10
3911.1876977869142138
 20
216.5740640031903013
 30
0.0
 40
0.0088723355798629
 50
225.1821360477964902
 51
270.0209747803033906
  0
LINE
  5
CD45
  8
0
 10
3911.1877010348898693
 20
216.5651916682049034
 30
0.0
 11
3911.2155795065268649
 21
216.5652018739276912
 31
0.0
  0
ARC
  5
CD46
  8
0
 10
3911.2155762413340199
 20
216.5741212384400001
 30
0.0
 40
0.0089193651099378
 50
270.0209747803033906
 51
314.6023331944750794
  0
LINE
  5
CD47
  8
0
 10
3911.2218392593899807
 20
216.5677706732049046
 30
0.0
 11
3911.2348554631848856
 21
216.5806601666049005
 31
0.0
  0
LINE
  5
CD48
  8
0
 10
3911.1768354331297814
 20
216.5849338995525954
 30
0.0
 11
3911.1889126281898825
 21
216.5729356467049058
 31
0.0
  0
LINE
  5
CD49
  8
0
 10
3911.1889126281898825
 20
216.5729356467049058
 30
0.0
 11
3911.2143705927901465
 21
216.5729356467049058
 31
0.0
  0
LINE
  5
CD4A
  8
0
 10
3911.2143705927901465
 20
216.5729356467049058
 30
0.0
 11
3911.2264500624501125
 21
216.5849351271629928
 31
0.0
  0
LINE
  5
CD4B
  8
0
 10
3911.2264500624501125
 20
216.5849351271629928
 30
0.0
 11
3911.2155722797610906
 21
216.5961388680821074
 31
0.0
  0
LINE
  5
CD4C
  8
0
 10
3911.183736467899962
 20
216.5917853501869104
 30
0.0
 11
3911.1889126281898825
 21
216.5866419309049036
 31
0.0
  0
LINE
  5
CD4D
  8
0
 10
3911.1889126281898825
 20
216.5866419309049036
 30
0.0
 11
3911.2143705927901465
 21
216.5866419309049036
 31
0.0
  0
LINE
  5
CD4E
  8
0
 10
3911.2143705927901465
 20
216.5866419309049036
 30
0.0
 11
3911.2197356925257736
 21
216.5918495760566032
 31
0.0
  0
LINE
  5
CD4F
  8
0
 10
3911.2143705927901465
 20
216.5866419309049036
 30
0.0
 11
3911.2143705927901465
 21
216.5729356467049058
 31
0.0
  0
LINE
  5
CD50
  8
0
 10
3911.1889126281898825
 20
216.5866419309049036
 30
0.0
 11
3911.1889126281898825
 21
216.5729356467049058
 31
0.0
  0
LINE
  5
CD51
  8
0
 10
3911.1549307914401652
 20
216.5806601666049005
 30
0.0
 11
3911.1688686893890008
 21
216.5806596456048965
 31
0.0
  0
ARC
  5
CD52
  8
0
 10
3911.1688690214841699
 20
216.5895438900971044
 30
0.0
 40
0.008884244498413
 50
269.997858278115018
 51
314.7934228374951999
  0
LINE
  5
CD53
  8
0
 10
3911.1751284403890168
 20
216.5832391716049017
 30
0.0
 11
3911.1881113667068348
 21
216.5961288152188047
 31
0.0
  0
ARC
  5
CD54
  8
0
 10
3911.2356449218818852
 20
216.5926131988398993
 30
0.0
 40
0.0119790744486375
 50
219.863217994725801
 51
266.2212891812735052
  0
LINE
  5
CD55
  8
0
 10
3911.1684720981111241
 20
216.6115971634048947
 30
0.0
 11
3911.1814440731900504
 21
216.5987073998049084
 31
0.0
  0
ARC
  5
CD56
  8
0
 10
3911.1876977869142138
 20
216.6050009999902954
 30
0.0
 40
0.0088723355798629
 50
225.1821360477964902
 51
270.0209747803033906
  0
LINE
  5
CD57
  8
0
 10
3911.1877010348898693
 20
216.5961286650048976
 30
0.0
 11
3911.2155795065268649
 21
216.5961388707277138
 31
0.0
  0
ARC
  5
CD58
  8
0
 10
3911.2155762413340199
 20
216.6050582352399942
 30
0.0
 40
0.0089193651099378
 50
270.0209747803033906
 51
314.6023331944750794
  0
LINE
  5
CD59
  8
0
 10
3911.2218392593899807
 20
216.5987076700048988
 30
0.0
 11
3911.2348554631848856
 21
216.6115971634048947
 31
0.0
  0
LINE
  5
CD5A
  8
0
 10
3911.1768354331297814
 20
216.6158708963525896
 30
0.0
 11
3911.1889126281898825
 21
216.6038726435049
 31
0.0
  0
LINE
  5
CD5B
  8
0
 10
3911.1889126281898825
 20
216.6038726435049
 30
0.0
 11
3911.2143705927901465
 21
216.6038726435049
 31
0.0
  0
LINE
  5
CD5C
  8
0
 10
3911.2143705927901465
 20
216.6038726435049
 30
0.0
 11
3911.2264500624501125
 21
216.615872123962987
 31
0.0
  0
LINE
  5
CD5D
  8
0
 10
3911.2264500624501125
 20
216.615872123962987
 30
0.0
 11
3911.2155722797610906
 21
216.6270758648821015
 31
0.0
  0
LINE
  5
CD5E
  8
0
 10
3911.183736467899962
 20
216.6227223469869045
 30
0.0
 11
3911.1889126281898825
 21
216.6175789277048978
 31
0.0
  0
LINE
  5
CD5F
  8
0
 10
3911.1889126281898825
 20
216.6175789277048978
 30
0.0
 11
3911.2143705927901465
 21
216.6175789277048978
 31
0.0
  0
LINE
  5
CD60
  8
0
 10
3911.2143705927901465
 20
216.6175789277048978
 30
0.0
 11
3911.2197356925257736
 21
216.6227865728565973
 31
0.0
  0
LINE
  5
CD61
  8
0
 10
3911.2143705927901465
 20
216.6175789277048978
 30
0.0
 11
3911.2143705927901465
 21
216.6038726435049
 31
0.0
  0
LINE
  5
CD62
  8
0
 10
3911.1889126281898825
 20
216.6175789277048978
 30
0.0
 11
3911.1889126281898825
 21
216.6038726435049
 31
0.0
  0
LINE
  5
CD63
  8
0
 10
3911.1549307914401652
 20
216.6115971634048947
 30
0.0
 11
3911.1688686893890008
 21
216.6115966424048906
 31
0.0
  0
ARC
  5
CD64
  8
0
 10
3911.1688690214841699
 20
216.6204808868970986
 30
0.0
 40
0.008884244498413
 50
269.997858278115018
 51
314.7934228374951999
  0
LINE
  5
CD65
  8
0
 10
3911.1751284403890168
 20
216.6141761684048959
 30
0.0
 11
3911.1881113667068348
 21
216.6270658120187989
 31
0.0
  0
ARC
  5
CD66
  8
0
 10
3911.2356449218818852
 20
216.6235501956398934
 30
0.0
 40
0.0119790744486375
 50
219.863217994725801
 51
266.2212891812735052
  0
LINE
  5
CD67
  8
0
 10
3911.1684720981111241
 20
216.6425341602048888
 30
0.0
 11
3911.1814440731900504
 21
216.6296443966049026
 31
0.0
  0
ARC
  5
CD68
  8
0
 10
3911.1876977869142138
 20
216.6359379967902896
 30
0.0
 40
0.0088723355798629
 50
225.1821360477964902
 51
270.0209747803033906
  0
LINE
  5
CD69
  8
0
 10
3911.1877010348898693
 20
216.6270656618048918
 30
0.0
 11
3911.2155795065268649
 21
216.6270758675277932
 31
0.0
  0
ARC
  5
CD6A
  8
0
 10
3911.2155762413340199
 20
216.6359952320399884
 30
0.0
 40
0.0089193651099378
 50
270.0209747803033906
 51
314.6023331944750794
  0
LINE
  5
CD6B
  8
0
 10
3911.2218392593899807
 20
216.6296446668048929
 30
0.0
 11
3911.2348554631848856
 21
216.6425341602048888
 31
0.0
  0
LINE
  5
CD6C
  8
0
 10
3911.1768354331297814
 20
216.6468078931526122
 30
0.0
 11
3911.1889126281898825
 21
216.6348096403048942
 31
0.0
  0
LINE
  5
CD6D
  8
0
 10
3911.1889126281898825
 20
216.6348096403048942
 30
0.0
 11
3911.2143705927901465
 21
216.6348096403048942
 31
0.0
  0
LINE
  5
CD6E
  8
0
 10
3911.2143705927901465
 20
216.6348096403048942
 30
0.0
 11
3911.2264500624501125
 21
216.6468091207630096
 31
0.0
  0
LINE
  5
CD6F
  8
0
 10
3911.2264500624501125
 20
216.6468091207630096
 30
0.0
 11
3911.2155722798570423
 21
216.6580128615821934
 31
0.0
  0
LINE
  5
CD70
  8
0
 10
3911.183736467899962
 20
216.6536593437868987
 30
0.0
 11
3911.1889126281898825
 21
216.6485159245048919
 31
0.0
  0
LINE
  5
CD71
  8
0
 10
3911.1889126281898825
 20
216.6485159245048919
 30
0.0
 11
3911.2143705927901465
 21
216.6485159245048919
 31
0.0
  0
LINE
  5
CD72
  8
0
 10
3911.2143705927901465
 20
216.6485159245048919
 30
0.0
 11
3911.2197356925257736
 21
216.6537235696565915
 31
0.0
  0
LINE
  5
CD73
  8
0
 10
3911.2143705927901465
 20
216.6485159245048919
 30
0.0
 11
3911.2143705927901465
 21
216.6348096403048942
 31
0.0
  0
LINE
  5
CD74
  8
0
 10
3911.1889126281898825
 20
216.6485159245048919
 30
0.0
 11
3911.1889126281898825
 21
216.6348096403048942
 31
0.0
  0
LINE
  5
CD75
  8
0
 10
3911.1549307914401652
 20
216.6425341602048888
 30
0.0
 11
3911.1688686893890008
 21
216.6425336392049132
 31
0.0
  0
ARC
  5
CD76
  8
0
 10
3911.1688690214841699
 20
216.6514178836970927
 30
0.0
 40
0.008884244498413
 50
269.997858278115018
 51
314.7934228374951999
  0
LINE
  5
CD77
  8
0
 10
3911.1751284403890168
 20
216.64511316520489
 30
0.0
 11
3911.1881113666067904
 21
216.6580028087186918
 31
0.0
  0
ARC
  5
CD78
  8
0
 10
3911.2356449218818852
 20
216.6544871924398876
 30
0.0
 40
0.0119790744486375
 50
219.863217994725801
 51
266.2212891812735052
  0
LINE
  5
CD79
  8
0
 10
3911.1684720981111241
 20
216.6734711569048955
 30
0.0
 11
3911.1814440731900504
 21
216.6605813933049092
 31
0.0
  0
ARC
  5
CD7A
  8
0
 10
3911.1876977869142138
 20
216.6668749934902962
 30
0.0
 40
0.0088723355798629
 50
225.1821360477964902
 51
270.0209747803033906
  0
LINE
  5
CD7B
  8
0
 10
3911.1877010348898693
 20
216.6580026585048984
 30
0.0
 11
3911.2155795065268649
 21
216.6580128642276861
 31
0.0
  0
ARC
  5
CD7C
  8
0
 10
3911.2155762413340199
 20
216.666932228739995
 30
0.0
 40
0.0089193651099378
 50
270.0209747803033906
 51
314.6023331944750794
  0
LINE
  5
CD7D
  8
0
 10
3911.2218392593899807
 20
216.6605816635048996
 30
0.0
 11
3911.2348554631848856
 21
216.6734711569048955
 31
0.0
  0
LINE
  5
CD7E
  8
0
 10
3911.1768354331297814
 20
216.6777448898525904
 30
0.0
 11
3911.1889126281898825
 21
216.6657466370049008
 31
0.0
  0
LINE
  5
CD7F
  8
0
 10
3911.1889126281898825
 20
216.6657466370049008
 30
0.0
 11
3911.2143705927901465
 21
216.6657466370049008
 31
0.0
  0
LINE
  5
CD80
  8
0
 10
3911.2143705927901465
 20
216.6657466370049008
 30
0.0
 11
3911.2264500624501125
 21
216.6777461174629877
 31
0.0
  0
LINE
  5
CD81
  8
0
 10
3911.2264500624501125
 20
216.6777461174629877
 30
0.0
 11
3911.2224978275680769
 21
216.6818167830514028
 31
0.0
  0
LINE
  5
CD82
  8
0
 10
3911.183736467899962
 20
216.6845963404869053
 30
0.0
 11
3911.1889126281898825
 21
216.6794529212048985
 31
0.0
  0
LINE
  5
CD83
  8
0
 10
3911.1889126281898825
 20
216.6794529212048985
 30
0.0
 11
3911.2143705927901465
 21
216.6794529212048985
 31
0.0
  0
LINE
  5
CD84
  8
0
 10
3911.2143705927901465
 20
216.6794529212048985
 30
0.0
 11
3911.2176931968388089
 21
216.6826780136941011
 31
0.0
  0
LINE
  5
CD85
  8
0
 10
3911.2143705927901465
 20
216.6794529212048985
 30
0.0
 11
3911.2143705927901465
 21
216.6657466370049008
 31
0.0
  0
LINE
  5
CD86
  8
0
 10
3911.1889126281898825
 20
216.6794529212048985
 30
0.0
 11
3911.1889126281898825
 21
216.6657466370049008
 31
0.0
  0
LINE
  5
CD87
  8
0
 10
3911.1549307914401652
 20
216.6734711569048955
 30
0.0
 11
3911.1688686893890008
 21
216.6734706359048914
 31
0.0
  0
ARC
  5
CD88
  8
0
 10
3911.1688690214841699
 20
216.6823548803970994
 30
0.0
 40
0.008884244498413
 50
269.997858278115018
 51
314.7934228374951999
  0
LINE
  5
CD89
  8
0
 10
3911.1751284403890168
 20
216.6760501619048966
 30
0.0
 11
3911.1856464793950181
 21
216.6864926284924877
 31
0.0
  0
ARC
  5
CD8A
  8
0
 10
3911.2356449218818852
 20
216.6854241891398942
 30
0.0
 40
0.0119790744486375
 50
219.863217994725801
 51
266.2212891812735052
  0
LINE
  5
CD8B
  8
0
 10
3911.2348554631848856
 20
216.4878491763049055
 30
0.0
 11
3911.2618493957938881
 21
216.4878491763049055
 31
0.0
  0
LINE
  5
CD8C
  8
0
 10
3911.2348554631848856
 20
216.5196761729048944
 30
0.0
 11
3911.2618493957938881
 21
216.5196761729048944
 31
0.0
  0
LINE
  5
CD8D
  8
0
 10
3911.2348568029669877
 20
216.5497231699048939
 30
0.0
 11
3911.2622916671712119
 21
216.5497226489048899
 31
0.0
  0
LINE
  5
CD8E
  8
0
 10
3911.2348554631848856
 20
216.5806601666049005
 30
0.0
 11
3911.2622916671712119
 21
216.5806596456048965
 31
0.0
  0
LINE
  5
CD8F
  8
0
 10
3911.2348554631848856
 20
216.6115971634048947
 30
0.0
 11
3911.2618493957938881
 21
216.6115971634048947
 31
0.0
  0
LINE
  5
CD90
  8
0
 10
3911.2348554631848856
 20
216.6425341602048888
 30
0.0
 11
3911.2622916671712119
 21
216.6425336392049132
 31
0.0
  0
LINE
  5
CD91
  8
0
 10
3911.2235510186251304
 20
216.4766547784739998
 30
0.0
 11
3911.235623447189937
 21
216.4646612609662952
 31
0.0
  0
LINE
  5
CD92
  8
0
 10
3911.235623447189937
 20
216.4646612609662952
 30
0.0
 11
3911.2610814117902009
 21
216.4646612609662952
 31
0.0
  0
LINE
  5
CD93
  8
0
 10
3911.2304609222069303
 20
216.4834974153899907
 30
0.0
 11
3911.235623447189937
 21
216.478367545166293
 31
0.0
  0
LINE
  5
CD94
  8
0
 10
3911.235623447189937
 20
216.478367545166293
 30
0.0
 11
3911.2610814117902009
 21
216.478367545166293
 31
0.0
  0
LINE
  5
CD95
  8
0
 10
3911.235623447189937
 20
216.478367545166293
 30
0.0
 11
3911.235623447189937
 21
216.4646612609662952
 31
0.0
  0
LINE
  5
CD96
  8
0
 10
3911.2348554631848856
 20
216.4569172824662928
 30
0.0
 11
3911.2622903273891097
 21
216.4569167614662888
 31
0.0
  0
LINE
  5
CD97
  8
0
 10
3911.2231023686690605
 20
216.5080374926436946
 30
0.0
 11
3911.235623447189937
 21
216.4955982577662894
 31
0.0
  0
LINE
  5
CD98
  8
0
 10
3911.235623447189937
 20
216.4955982577662894
 30
0.0
 11
3911.2610814117902009
 21
216.4955982577662894
 31
0.0
  0
LINE
  5
CD99
  8
0
 10
3911.2300123199938753
 20
216.5148801768388012
 30
0.0
 11
3911.2356234471908465
 21
216.5093045419662872
 31
0.0
  0
LINE
  5
CD9A
  8
0
 10
3911.235623447189937
 20
216.5093045419662872
 30
0.0
 11
3911.2610814117902009
 21
216.5093045419662872
 31
0.0
  0
LINE
  5
CD9B
  8
0
 10
3911.235623447189937
 20
216.5093045419662872
 30
0.0
 11
3911.235623447189937
 21
216.4955982577662894
 31
0.0
  0
LINE
  5
CD9C
  8
0
 10
3911.2235462521298359
 20
216.5385335073140993
 30
0.0
 11
3911.235623447189937
 21
216.526535254466296
 31
0.0
  0
LINE
  5
CD9D
  8
0
 10
3911.235623447189937
 20
216.526535254466296
 30
0.0
 11
3911.2610814117902009
 21
216.526535254466296
 31
0.0
  0
LINE
  5
CD9E
  8
0
 10
3911.2304472869000165
 20
216.5453849579483006
 30
0.0
 11
3911.235623447189937
 21
216.5402415386662938
 31
0.0
  0
LINE
  5
CD9F
  8
0
 10
3911.235623447189937
 20
216.5402415386662938
 30
0.0
 11
3911.2610814117902009
 21
216.5402415386662938
 31
0.0
  0
LINE
  5
CDA0
  8
0
 10
3911.235623447189937
 20
216.5402415386662938
 30
0.0
 11
3911.235623447189937
 21
216.526535254466296
 31
0.0
  0
LINE
  5
CDA1
  8
0
 10
3911.2235462521298359
 20
216.5694705041140935
 30
0.0
 11
3911.235623447189937
 21
216.5574722512662902
 31
0.0
  0
LINE
  5
CDA2
  8
0
 10
3911.235623447189937
 20
216.5574722512662902
 30
0.0
 11
3911.2610814117902009
 21
216.5574722512662902
 31
0.0
  0
LINE
  5
CDA3
  8
0
 10
3911.2304472869000165
 20
216.5763219547482095
 30
0.0
 11
3911.235623447189937
 21
216.5711785354662879
 31
0.0
  0
LINE
  5
CDA4
  8
0
 10
3911.235623447189937
 20
216.5711785354662879
 30
0.0
 11
3911.2610814117902009
 21
216.5711785354662879
 31
0.0
  0
LINE
  5
CDA5
  8
0
 10
3911.235623447189937
 20
216.5711785354662879
 30
0.0
 11
3911.235623447189937
 21
216.5574722512662902
 31
0.0
  0
LINE
  5
CDA6
  8
0
 10
3911.2235462521298359
 20
216.6004075008141001
 30
0.0
 11
3911.235623447189937
 21
216.5884092479662968
 31
0.0
  0
LINE
  5
CDA7
  8
0
 10
3911.235623447189937
 20
216.5884092479662968
 30
0.0
 11
3911.2610814117902009
 21
216.5884092479662968
 31
0.0
  0
LINE
  5
CDA8
  8
0
 10
3911.2304472869000165
 20
216.6072589514483013
 30
0.0
 11
3911.235623447189937
 21
216.6021155321662945
 31
0.0
  0
LINE
  5
CDA9
  8
0
 10
3911.235623447189937
 20
216.6021155321662945
 30
0.0
 11
3911.2610814117902009
 21
216.6021155321662945
 31
0.0
  0
LINE
  5
CDAA
  8
0
 10
3911.235623447189937
 20
216.6021155321662945
 30
0.0
 11
3911.235623447189937
 21
216.5884092479662968
 31
0.0
  0
LINE
  5
CDAB
  8
0
 10
3911.2235462521298359
 20
216.6622814944140032
 30
0.0
 11
3911.235623447189937
 21
216.6502832415663136
 31
0.0
  0
LINE
  5
CDAC
  8
0
 10
3911.235623447189937
 20
216.6502832415663136
 30
0.0
 11
3911.2610814117902009
 21
216.6502832415663136
 31
0.0
  0
LINE
  5
CDAD
  8
0
 10
3911.2304472869000165
 20
216.6691329450482897
 30
0.0
 11
3911.235623447189937
 21
216.6639895257663113
 31
0.0
  0
LINE
  5
CDAE
  8
0
 10
3911.235623447189937
 20
216.6639895257663113
 30
0.0
 11
3911.2610814117902009
 21
216.6639895257663113
 31
0.0
  0
LINE
  5
CDAF
  8
0
 10
3911.235623447189937
 20
216.6639895257663113
 30
0.0
 11
3911.235623447189937
 21
216.6502832415663136
 31
0.0
  0
ARC
  5
CDB0
  8
0
 10
3911.2718549161290866
 20
216.4542157333141859
 30
0.0
 40
0.0054224132569383
 50
244.9213338122698076
 51
0.0050664023656298
  0
LINE
  5
CDB1
  8
0
 10
3911.2695565600679402
 20
216.4493045089309078
 30
0.0
 11
3911.2618493957938881
 21
216.4569172824662928
 31
0.0
  0
LINE
  5
CDB2
  8
0
 10
3911.2772773293650062
 20
216.4542162127931988
 30
0.0
 11
3911.270254796529116
 21
216.4611922430244135
 31
0.0
  0
LINE
  5
CDB3
  8
0
 10
3911.270254796529116
 20
216.4611922430244135
 30
0.0
 11
3911.2811226728890688
 21
216.4723857807663023
 31
0.0
  0
LINE
  5
CDB4
  8
0
 10
3911.2890037292850138
 20
216.4723879995194977
 30
0.0
 11
3911.2772773293900173
 21
216.4678075729258921
 31
0.0
  0
LINE
  5
CDB5
  8
0
 10
3911.2772773293900173
 20
216.4678075729258921
 30
0.0
 11
3911.2772773293650062
 21
216.4542162127931988
 31
0.0
  0
LINE
  5
CDB6
  8
0
 10
3911.3136168486389579
 20
216.4674060735964076
 30
0.0
 11
3911.3085936436727934
 21
216.4723857807663023
 31
0.0
  0
ARC
  5
CDB7
  8
0
 10
3911.2610599370968885
 20
216.4688703147012916
 30
0.0
 40
0.0119790744486375
 50
273.7787108187263811
 51
320.136782005274199
  0
LINE
  5
CDB8
  8
0
 10
3911.327834922297825
 20
216.487848655345914
 30
0.0
 11
3911.3152607857900875
 21
216.4749594127048908
 31
0.0
  0
ARC
  5
CDB9
  8
0
 10
3911.3090070720650147
 20
216.4812530128903063
 30
0.0
 40
0.0088723355798629
 50
269.9790252196966094
 51
314.8178639522034814
  0
LINE
  5
CDBA
  8
0
 10
3911.3090038240889044
 20
216.4723806779049085
 30
0.0
 11
3911.2811253524528183
 21
216.4723908836276962
 31
0.0
  0
ARC
  5
CDBB
  8
0
 10
3911.2811286176452086
 20
216.4813102481400051
 30
0.0
 40
0.0089193651099378
 50
225.3976668055248922
 51
269.9790252196966094
  0
LINE
  5
CDBC
  8
0
 10
3911.2748655995901572
 20
216.4749596829049096
 30
0.0
 11
3911.2618493957938881
 21
216.4878491763049055
 31
0.0
  0
LINE
  5
CDBD
  8
0
 10
3911.3198694258489923
 20
216.4921229092527142
 30
0.0
 11
3911.3077922307898007
 21
216.4801246564049109
 31
0.0
  0
LINE
  5
CDBE
  8
0
 10
3911.3077922307898007
 20
216.4801246564049109
 30
0.0
 11
3911.2823342661899915
 21
216.4801246564049109
 31
0.0
  0
LINE
  5
CDBF
  8
0
 10
3911.2823342661899915
 20
216.4801246564049109
 30
0.0
 11
3911.270254796529116
 21
216.4921241368629978
 31
0.0
  0
LINE
  5
CDC0
  8
0
 10
3911.270254796529116
 20
216.4921241368629978
 30
0.0
 11
3911.2819963786168955
 21
216.5042175613633049
 31
0.0
  0
LINE
  5
CDC1
  8
0
 10
3911.3129683910788117
 20
216.4989743598868017
 30
0.0
 11
3911.3077922307898007
 21
216.4938309406049086
 31
0.0
  0
LINE
  5
CDC2
  8
0
 10
3911.3077922307898007
 20
216.4938309406049086
 30
0.0
 11
3911.2823342661899915
 21
216.4938309406049086
 31
0.0
  0
LINE
  5
CDC3
  8
0
 10
3911.2823342661899915
 20
216.4938309406049086
 30
0.0
 11
3911.2769691664530001
 21
216.4990385857564945
 31
0.0
  0
LINE
  5
CDC4
  8
0
 10
3911.2823342661899915
 20
216.4938309406049086
 30
0.0
 11
3911.2823342661899915
 21
216.4801246564049109
 31
0.0
  0
LINE
  5
CDC5
  8
0
 10
3911.3077922307898007
 20
216.4938309406049086
 30
0.0
 11
3911.3077922307898007
 21
216.4801246564049109
 31
0.0
  0
ARC
  5
CDC6
  8
0
 10
3911.327835837495968
 20
216.4967328997971094
 30
0.0
 40
0.008884244498413
 50
225.2065771625048001
 51
270.0021417218850956
  0
LINE
  5
CDC7
  8
0
 10
3911.3215764185902117
 20
216.4904281813049067
 30
0.0
 11
3911.3076967208539827
 21
216.504208153007994
 31
0.0
  0
ARC
  5
CDC8
  8
0
 10
3911.2610599370968885
 20
216.4998022085399043
 30
0.0
 40
0.0119790744486375
 50
273.7787108187263811
 51
320.136782005274199
  0
LINE
  5
CDC9
  8
0
 10
3911.3278348317221571
 20
216.5187963788278012
 30
0.0
 11
3911.3150072190360333
 21
216.5065442176504007
 31
0.0
  0
ARC
  5
CDCA
  8
0
 10
3911.3090070720650147
 20
216.5130800094902952
 30
0.0
 40
0.0088723355798629
 50
269.9790252196966094
 51
314.8178639522034814
  0
LINE
  5
CDCB
  8
0
 10
3911.3090038240889044
 20
216.5042076745048973
 30
0.0
 11
3911.2811253524528183
 21
216.5042178802277988
 31
0.0
  0
ARC
  5
CDCC
  8
0
 10
3911.2811286176452086
 20
216.513137244739994
 30
0.0
 40
0.0089193651099378
 50
225.3976668055248922
 51
269.9790252196966094
  0
LINE
  5
CDCD
  8
0
 10
3911.2748655995901572
 20
216.5067866795048985
 30
0.0
 11
3911.2618493957938881
 21
216.5196761729048944
 31
0.0
  0
LINE
  5
CDCE
  8
0
 10
3911.3198694258489923
 20
216.5239499058527031
 30
0.0
 11
3911.3077922307898007
 21
216.5119516530048998
 31
0.0
  0
LINE
  5
CDCF
  8
0
 10
3911.3077922307898007
 20
216.5119516530048998
 30
0.0
 11
3911.2823342661899915
 21
216.5119516530048998
 31
0.0
  0
LINE
  5
CDD0
  8
0
 10
3911.2823342661899915
 20
216.5119516530048998
 30
0.0
 11
3911.270254796529116
 21
216.5239511334629015
 31
0.0
  0
LINE
  5
CDD1
  8
0
 10
3911.270254796529116
 20
216.5239511334629015
 30
0.0
 11
3911.2803053243960676
 21
216.5343028304523045
 31
0.0
  0
LINE
  5
CDD2
  8
0
 10
3911.3129683910788117
 20
216.5308013564869043
 30
0.0
 11
3911.3077922307898007
 21
216.5256579372048975
 31
0.0
  0
LINE
  5
CDD3
  8
0
 10
3911.3077922307898007
 20
216.5256579372048975
 30
0.0
 11
3911.2823342661899915
 21
216.5256579372048975
 31
0.0
  0
LINE
  5
CDD4
  8
0
 10
3911.2823342661899915
 20
216.5256579372048975
 30
0.0
 11
3911.2769691664530001
 21
216.5308655823565971
 31
0.0
  0
LINE
  5
CDD5
  8
0
 10
3911.2823342661899915
 20
216.5256579372048975
 30
0.0
 11
3911.2823342661899915
 21
216.5119516530048998
 31
0.0
  0
LINE
  5
CDD6
  8
0
 10
3911.3077922307898007
 20
216.5256579372048975
 30
0.0
 11
3911.3077922307898007
 21
216.5119516530048998
 31
0.0
  0
ARC
  5
CDD7
  8
0
 10
3911.3367106587397757
 20
216.5422479016104091
 30
0.0
 40
0.0250749721056272
 50
232.874737083966096
 51
249.2695731033649054
  0
LINE
  5
CDD8
  8
0
 10
3911.3215764185902117
 20
216.5222551779048956
 30
0.0
 11
3911.3094774455071274
 21
216.5342672195133957
 31
0.0
  0
ARC
  5
CDD9
  8
0
 10
3911.2610599370968885
 20
216.5316292051398932
 30
0.0
 40
0.0119790744486375
 50
273.7787108187263811
 51
320.136782005274199
  0
LINE
  5
CDDA
  8
0
 10
3911.327833491940055
 20
216.5488433758278006
 30
0.0
 11
3911.3152594460079854
 21
216.5368334063049076
 31
0.0
  0
ARC
  5
CDDB
  8
0
 10
3911.309005732283822
 20
216.5431270064902947
 30
0.0
 40
0.0088723355798629
 50
269.9790252196966094
 51
314.8178639522034814
  0
LINE
  5
CDDC
  8
0
 10
3911.3090024843081665
 20
216.5342546715048968
 30
0.0
 11
3911.2811240126711709
 21
216.5342648772277983
 31
0.0
  0
ARC
  5
CDDD
  8
0
 10
3911.2811272778631064
 20
216.5431842417399935
 30
0.0
 40
0.0089193651099378
 50
225.3976668055248922
 51
269.9790252196966094
  0
LINE
  5
CDDE
  8
0
 10
3911.2748642598089646
 20
216.536833676504898
 30
0.0
 11
3911.261848056011786
 21
216.5497231699048939
 31
0.0
  0
LINE
  5
CDDF
  8
0
 10
3911.3198680860677996
 20
216.5539969028527025
 30
0.0
 11
3911.3077908910081533
 21
216.5419986500048992
 31
0.0
  0
LINE
  5
CDE0
  8
0
 10
3911.3077908910081533
 20
216.5419986500048992
 30
0.0
 11
3911.2823329264078893
 21
216.5419986500048992
 31
0.0
  0
LINE
  5
CDE1
  8
0
 10
3911.2823329264078893
 20
216.5419986500048992
 30
0.0
 11
3911.2702534567470138
 21
216.5539981304629009
 31
0.0
  0
LINE
  5
CDE2
  8
0
 10
3911.2702534567470138
 20
216.5539981304629009
 30
0.0
 11
3911.281131239817114
 21
216.5652018717725014
 31
0.0
  0
LINE
  5
CDE3
  8
0
 10
3911.3129670512980738
 20
216.5608483534869038
 30
0.0
 11
3911.3077908910081533
 21
216.555704934204897
 31
0.0
  0
LINE
  5
CDE4
  8
0
 10
3911.3077908910081533
 20
216.555704934204897
 30
0.0
 11
3911.2823329264078893
 21
216.555704934204897
 31
0.0
  0
LINE
  5
CDE5
  8
0
 10
3911.2823329264078893
 20
216.555704934204897
 30
0.0
 11
3911.2769678266708979
 21
216.5609125793565966
 31
0.0
  0
LINE
  5
CDE6
  8
0
 10
3911.2823329264078893
 20
216.555704934204897
 30
0.0
 11
3911.2823329264078893
 21
216.5419986500048992
 31
0.0
  0
LINE
  5
CDE7
  8
0
 10
3911.3077908910081533
 20
216.555704934204897
 30
0.0
 11
3911.3077908910081533
 21
216.5419986500048992
 31
0.0
  0
ARC
  5
CDE8
  8
0
 10
3911.3292206383221128
 20
216.5587447454533105
 30
0.0
 40
0.009998064590083
 50
220.1193384555020032
 51
262.024971731797109
  0
LINE
  5
CDE9
  8
0
 10
3911.3215750788081095
 20
216.5523021749048951
 30
0.0
 11
3911.3085921520960255
 21
216.5651918189093976
 31
0.0
  0
ARC
  5
CDEA
  8
0
 10
3911.2610585973147863
 20
216.5616762021398927
 30
0.0
 40
0.0119790744486375
 50
273.7787108187263811
 51
320.136782005274199
  0
LINE
  5
CDEB
  8
0
 10
3911.3278348317221571
 20
216.5797803725276935
 30
0.0
 11
3911.3152607857900875
 21
216.5677704030048858
 31
0.0
  0
ARC
  5
CDEC
  8
0
 10
3911.3090070720650147
 20
216.5740640031903013
 30
0.0
 40
0.0088723355798629
 50
269.9790252196966094
 51
314.8178639522034814
  0
LINE
  5
CDED
  8
0
 10
3911.3090038240889044
 20
216.5651916682049034
 30
0.0
 11
3911.2811253524528183
 21
216.5652018739276912
 31
0.0
  0
ARC
  5
CDEE
  8
0
 10
3911.2811286176452086
 20
216.5741212384400001
 30
0.0
 40
0.0089193651099378
 50
225.3976668055248922
 51
269.9790252196966094
  0
LINE
  5
CDEF
  8
0
 10
3911.2748655995901572
 20
216.5677706732049046
 30
0.0
 11
3911.2618493957938881
 21
216.5806601666049005
 31
0.0
  0
LINE
  5
CDF0
  8
0
 10
3911.3198694258489923
 20
216.5849338995525954
 30
0.0
 11
3911.3077922307898007
 21
216.5729356467049058
 31
0.0
  0
LINE
  5
CDF1
  8
0
 10
3911.3077922307898007
 20
216.5729356467049058
 30
0.0
 11
3911.2823342661899915
 21
216.5729356467049058
 31
0.0
  0
LINE
  5
CDF2
  8
0
 10
3911.2823342661899915
 20
216.5729356467049058
 30
0.0
 11
3911.270254796529116
 21
216.5849351271629928
 31
0.0
  0
LINE
  5
CDF3
  8
0
 10
3911.270254796529116
 20
216.5849351271629928
 30
0.0
 11
3911.2811325792190473
 21
216.5961388680821074
 31
0.0
  0
LINE
  5
CDF4
  8
0
 10
3911.3129683910788117
 20
216.5917853501869104
 30
0.0
 11
3911.3077922307898007
 21
216.5866419309049036
 31
0.0
  0
LINE
  5
CDF5
  8
0
 10
3911.3077922307898007
 20
216.5866419309049036
 30
0.0
 11
3911.2823342661899915
 21
216.5866419309049036
 31
0.0
  0
LINE
  5
CDF6
  8
0
 10
3911.2823342661899915
 20
216.5866419309049036
 30
0.0
 11
3911.2769691664530001
 21
216.5918495760566032
 31
0.0
  0
LINE
  5
CDF7
  8
0
 10
3911.2823342661899915
 20
216.5866419309049036
 30
0.0
 11
3911.2823342661899915
 21
216.5729356467049058
 31
0.0
  0
LINE
  5
CDF8
  8
0
 10
3911.3077922307898007
 20
216.5866419309049036
 30
0.0
 11
3911.3077922307898007
 21
216.5729356467049058
 31
0.0
  0
ARC
  5
CDF9
  8
0
 10
3911.3292934275809785
 20
216.5898110241213885
 30
0.0
 40
0.0101361468653803
 50
220.4179207172377062
 51
261.7263894700882929
  0
LINE
  5
CDFA
  8
0
 10
3911.3215764185902117
 20
216.5832391716049017
 30
0.0
 11
3911.3085934922719389
 21
216.5961288152188047
 31
0.0
  0
ARC
  5
CDFB
  8
0
 10
3911.2610599370968885
 20
216.5926131988398993
 30
0.0
 40
0.0119790744486375
 50
273.7787108187263811
 51
320.136782005274199
  0
LINE
  5
CDFC
  8
0
 10
3911.3278348317221571
 20
216.6107173693276877
 30
0.0
 11
3911.3152607857900875
 21
216.5987073998049084
 31
0.0
  0
ARC
  5
CDFD
  8
0
 10
3911.3090070720650147
 20
216.6050009999902954
 30
0.0
 40
0.0088723355798629
 50
269.9790252196966094
 51
314.8178639522034814
  0
LINE
  5
CDFE
  8
0
 10
3911.3090038240889044
 20
216.5961286650048976
 30
0.0
 11
3911.2811253524528183
 21
216.5961388707277138
 31
0.0
  0
ARC
  5
CDFF
  8
0
 10
3911.2811286176452086
 20
216.6050582352399942
 30
0.0
 40
0.0089193651099378
 50
225.3976668055248922
 51
269.9790252196966094
  0
LINE
  5
CE00
  8
0
 10
3911.2748655995901572
 20
216.5987076700048988
 30
0.0
 11
3911.2618493957938881
 21
216.6115971634048947
 31
0.0
  0
LINE
  5
CE01
  8
0
 10
3911.3198694258489923
 20
216.6158708963525896
 30
0.0
 11
3911.3077922307898007
 21
216.6038726435049
 31
0.0
  0
LINE
  5
CE02
  8
0
 10
3911.3077922307898007
 20
216.6038726435049
 30
0.0
 11
3911.2823342661899915
 21
216.6038726435049
 31
0.0
  0
LINE
  5
CE03
  8
0
 10
3911.2823342661899915
 20
216.6038726435049
 30
0.0
 11
3911.270254796529116
 21
216.615872123962987
 31
0.0
  0
LINE
  5
CE04
  8
0
 10
3911.270254796529116
 20
216.615872123962987
 30
0.0
 11
3911.2811325792190473
 21
216.6270758648821015
 31
0.0
  0
LINE
  5
CE05
  8
0
 10
3911.3129683910788117
 20
216.6227223469869045
 30
0.0
 11
3911.3077922307898007
 21
216.6175789277048978
 31
0.0
  0
LINE
  5
CE06
  8
0
 10
3911.3077922307898007
 20
216.6175789277048978
 30
0.0
 11
3911.2823342661899915
 21
216.6175789277048978
 31
0.0
  0
LINE
  5
CE07
  8
0
 10
3911.2823342661899915
 20
216.6175789277048978
 30
0.0
 11
3911.2769691664530001
 21
216.6227865728565973
 31
0.0
  0
LINE
  5
CE08
  8
0
 10
3911.2823342661899915
 20
216.6175789277048978
 30
0.0
 11
3911.2823342661899915
 21
216.6038726435049
 31
0.0
  0
LINE
  5
CE09
  8
0
 10
3911.3077922307898007
 20
216.6175789277048978
 30
0.0
 11
3911.3077922307898007
 21
216.6038726435049
 31
0.0
  0
ARC
  5
CE0A
  8
0
 10
3911.3303506979368649
 20
216.6226610648799067
 30
0.0
 40
0.0122057956011742
 50
224.0394174119952879
 51
258.1048927753080875
  0
LINE
  5
CE0B
  8
0
 10
3911.3215764185902117
 20
216.6141761684048959
 30
0.0
 11
3911.3085934922719389
 21
216.6270658120187989
 31
0.0
  0
ARC
  5
CE0C
  8
0
 10
3911.2610599370968885
 20
216.6235501956398934
 30
0.0
 40
0.0119790744486375
 50
273.7787108187263811
 51
320.136782005274199
  0
LINE
  5
CE0D
  8
0
 10
3911.3278306925399193
 20
216.6421346400337882
 30
0.0
 11
3911.3152607857900875
 21
216.6296443966049026
 31
0.0
  0
ARC
  5
CE0E
  8
0
 10
3911.3090070720650147
 20
216.6359379967902896
 30
0.0
 40
0.0088723355798629
 50
269.9790252196966094
 51
314.8178639522034814
  0
LINE
  5
CE0F
  8
0
 10
3911.3090038240889044
 20
216.6270656618048918
 30
0.0
 11
3911.2811253524528183
 21
216.6270758675277932
 31
0.0
  0
ARC
  5
CE10
  8
0
 10
3911.2811286176452086
 20
216.6359952320399884
 30
0.0
 40
0.0089193651099378
 50
225.3976668055248922
 51
269.9790252196966094
  0
LINE
  5
CE11
  8
0
 10
3911.2748655995901572
 20
216.6296446668048929
 30
0.0
 11
3911.2618493957938881
 21
216.6425341602048888
 31
0.0
  0
LINE
  5
CE12
  8
0
 10
3911.3195200889799708
 20
216.646460839712887
 30
0.0
 11
3911.3077922307898007
 21
216.6348096403048942
 31
0.0
  0
LINE
  5
CE13
  8
0
 10
3911.3077922307898007
 20
216.6348096403048942
 30
0.0
 11
3911.2823342661899915
 21
216.6348096403048942
 31
0.0
  0
LINE
  5
CE14
  8
0
 10
3911.2823342661899915
 20
216.6348096403048942
 30
0.0
 11
3911.270254796529116
 21
216.6468091207630096
 31
0.0
  0
LINE
  5
CE15
  8
0
 10
3911.270254796529116
 20
216.6468091207630096
 30
0.0
 11
3911.2811325791221861
 21
216.6580128615821934
 31
0.0
  0
LINE
  5
CE16
  8
0
 10
3911.3106010780479664
 20
216.6513070048310112
 30
0.0
 11
3911.3077922307898007
 21
216.6485159245048919
 31
0.0
  0
LINE
  5
CE17
  8
0
 10
3911.3077922307898007
 20
216.6485159245048919
 30
0.0
 11
3911.2823342661899915
 21
216.6485159245048919
 31
0.0
  0
LINE
  5
CE18
  8
0
 10
3911.2823342661899915
 20
216.6485159245048919
 30
0.0
 11
3911.2769691664530001
 21
216.6537235696565915
 31
0.0
  0
LINE
  5
CE19
  8
0
 10
3911.2823342661899915
 20
216.6485159245048919
 30
0.0
 11
3911.2823342661899915
 21
216.6348096403048942
 31
0.0
  0
LINE
  5
CE1A
  8
0
 10
3911.3077922307898007
 20
216.6485159245048919
 30
0.0
 11
3911.3077922307898007
 21
216.6348096403048942
 31
0.0
  0
ARC
  5
CE1B
  8
0
 10
3911.2610599370968885
 20
216.6544871924398876
 30
0.0
 40
0.0119790744486375
 50
273.7787108187263811
 51
320.136782005274199
  0
LINE
  5
CE1C
  8
0
 10
3911.2969962704710269
 20
216.6580070542181033
 30
0.0
 11
3911.2811253524528183
 21
216.6580128642276861
 31
0.0
  0
ARC
  5
CE1D
  8
0
 10
3911.2811286176452086
 20
216.666932228739995
 30
0.0
 40
0.0089193651099378
 50
225.3976668055248922
 51
269.9790252196966094
  0
LINE
  5
CE1E
  8
0
 10
3911.2748655995901572
 20
216.6605816635048996
 30
0.0
 11
3911.2643926443029159
 21
216.6709526664612895
 31
0.0
  0
LINE
  5
CE1F
  8
0
 10
3911.2731538403550076
 20
216.4766547784741135
 30
0.0
 11
3911.2610814117902009
 21
216.4646612609662952
 31
0.0
  0
LINE
  5
CE20
  8
0
 10
3911.2662439367732077
 20
216.4834974153897065
 30
0.0
 11
3911.2610814117902009
 21
216.478367545166293
 31
0.0
  0
LINE
  5
CE21
  8
0
 10
3911.2610814117902009
 20
216.478367545166293
 30
0.0
 11
3911.2610814117902009
 21
216.4646612609662952
 31
0.0
  0
LINE
  5
CE22
  8
0
 10
3911.2736024903110774
 20
216.5080374926440072
 30
0.0
 11
3911.2610814117902009
 21
216.4955982577662894
 31
0.0
  0
LINE
  5
CE23
  8
0
 10
3911.2666925389858079
 20
216.5148801768388012
 30
0.0
 11
3911.2610814117902009
 21
216.5093045419662872
 31
0.0
  0
LINE
  5
CE24
  8
0
 10
3911.2610814117902009
 20
216.5093045419662872
 30
0.0
 11
3911.2610814117902009
 21
216.4955982577662894
 31
0.0
  0
LINE
  5
CE25
  8
0
 10
3911.2731586068489378
 20
216.5385335073140993
 30
0.0
 11
3911.2610814117902009
 21
216.526535254466296
 31
0.0
  0
LINE
  5
CE26
  8
0
 10
3911.266257572079212
 20
216.5453849579483006
 30
0.0
 11
3911.2610814117902009
 21
216.5402415386662938
 31
0.0
  0
LINE
  5
CE27
  8
0
 10
3911.2610814117902009
 20
216.5402415386662938
 30
0.0
 11
3911.2610814117902009
 21
216.526535254466296
 31
0.0
  0
LINE
  5
CE28
  8
0
 10
3911.2731586068489378
 20
216.5694705041140935
 30
0.0
 11
3911.2610814117902009
 21
216.5574722512662902
 31
0.0
  0
LINE
  5
CE29
  8
0
 10
3911.266257572079212
 20
216.5763219547482095
 30
0.0
 11
3911.2610814117902009
 21
216.5711785354662879
 31
0.0
  0
LINE
  5
CE2A
  8
0
 10
3911.2610814117902009
 20
216.5711785354662879
 30
0.0
 11
3911.2610814117902009
 21
216.5574722512662902
 31
0.0
  0
LINE
  5
CE2B
  8
0
 10
3911.2731586068489378
 20
216.6004075008141001
 30
0.0
 11
3911.2610814117902009
 21
216.5884092479662968
 31
0.0
  0
LINE
  5
CE2C
  8
0
 10
3911.266257572079212
 20
216.6072589514483013
 30
0.0
 11
3911.2610814117902009
 21
216.6021155321662945
 31
0.0
  0
LINE
  5
CE2D
  8
0
 10
3911.2610814117902009
 20
216.6021155321662945
 30
0.0
 11
3911.2610814117902009
 21
216.5884092479662968
 31
0.0
  0
LINE
  5
CE2E
  8
0
 10
3911.2731586068489378
 20
216.6622814944140032
 30
0.0
 11
3911.2610814117902009
 21
216.6502832415663136
 31
0.0
  0
LINE
  5
CE2F
  8
0
 10
3911.266257572079212
 20
216.6691329450482897
 30
0.0
 11
3911.2610814117902009
 21
216.6639895257663113
 31
0.0
  0
LINE
  5
CE30
  8
0
 10
3911.2610814117902009
 20
216.6639895257663113
 30
0.0
 11
3911.2610814117902009
 21
216.6502832415663136
 31
0.0
  0
ARC
  5
CE31
  8
0
 10
3911.3146035188028691
 20
216.4730155527890929
 30
0.0
 40
0.005695592579206
 50
260.024097047586281
 51
3.4716856605461301
  0
LINE
  5
CE32
  8
0
 10
3911.3202886590888738
 20
216.473360450966311
 30
0.0
 11
3911.3202886590888738
 21
216.4799554212430053
 31
0.0
  0
ARC
  5
CE33
  8
0
 10
3911.3437536586629903
 20
216.4957123404697938
 30
0.0
 40
0.0084608911808288
 50
291.7590487894030957
 51
359.2274270686518207
  0
LINE
  5
CE34
  8
0
 10
3911.3468901458891196
 20
216.4878542791662994
 30
0.0
 11
3911.327834922297825
 21
216.487848655345914
 31
0.0
  0
LINE
  5
CE35
  8
0
 10
3911.3522137806899082
 20
216.4955982577662894
 30
0.0
 11
3911.329043745457966
 21
216.4954748046770021
 31
0.0
  0
LINE
  5
CE36
  8
0
 10
3911.329043745457966
 20
216.4954748046770021
 30
0.0
 11
3911.3160564909071581
 21
216.5075464187927992
 31
0.0
  0
LINE
  5
CE37
  8
0
 10
3911.3583121044280233
 20
216.5149088113385858
 30
0.0
 11
3911.3522137806899082
 21
216.5093045419662872
 31
0.0
  0
LINE
  5
CE38
  8
0
 10
3911.3522137806899082
 20
216.5093045419662872
 30
0.0
 11
3911.329043745457966
 21
216.508409439204911
 31
0.0
  0
LINE
  5
CE39
  8
0
 10
3911.329043745457966
 20
216.508409439204911
 30
0.0
 11
3911.3230505629771869
 21
216.5142267341705917
 31
0.0
  0
LINE
  5
CE3A
  8
0
 10
3911.329043745457966
 20
216.508409439204911
 30
0.0
 11
3911.329043745457966
 21
216.4954748046770021
 31
0.0
  0
LINE
  5
CE3B
  8
0
 10
3911.3522137806899082
 20
216.5093045419662872
 30
0.0
 11
3911.3522137806899082
 21
216.4955982577662894
 31
0.0
  0
ARC
  5
CE3C
  8
0
 10
3911.3631471126759607
 20
216.5146813660913097
 30
0.0
 40
0.00809391887453
 50
291.5701188795702024
 51
6.5496980497675761
  0
LINE
  5
CE3D
  8
0
 10
3911.3661227577890713
 20
216.5071542777494074
 30
0.0
 11
3911.3544062001219572
 21
216.5187866516079964
 31
0.0
  0
LINE
  5
CE3E
  8
0
 10
3911.3749422401369884
 20
216.5342546715048968
 30
0.0
 11
3911.3619702650580621
 21
216.5213649079049105
 31
0.0
  0
ARC
  5
CE3F
  8
0
 10
3911.3557165513338987
 20
216.5276585080902976
 30
0.0
 40
0.0088723355798629
 50
269.9790252196966094
 51
314.8178639522034814
  0
LINE
  5
CE40
  8
0
 10
3911.3557133033577884
 20
216.5187861731048997
 30
0.0
 11
3911.3278348317221571
 21
216.5187963788278012
 31
0.0
  0
LINE
  5
CE41
  8
0
 10
3911.3665789051178763
 20
216.5385284044527054
 30
0.0
 11
3911.3545017100577752
 21
216.5265301516049021
 31
0.0
  0
LINE
  5
CE42
  8
0
 10
3911.3545017100577752
 20
216.5265301516049021
 30
0.0
 11
3911.329043745457966
 21
216.5265301516049021
 31
0.0
  0
LINE
  5
CE43
  8
0
 10
3911.329043745457966
 20
216.5265301516049021
 30
0.0
 11
3911.3169642757970905
 21
216.5385296320629038
 31
0.0
  0
LINE
  5
CE44
  8
0
 10
3911.3596778703467862
 20
216.5453798550869067
 30
0.0
 11
3911.3545017100577752
 21
216.5402364358048999
 31
0.0
  0
LINE
  5
CE45
  8
0
 10
3911.3545017100577752
 20
216.5402364358048999
 30
0.0
 11
3911.329043745457966
 21
216.5402364358048999
 31
0.0
  0
LINE
  5
CE46
  8
0
 10
3911.329043745457966
 20
216.5402364358048999
 30
0.0
 11
3911.3239741934648919
 21
216.545157206927712
 31
0.0
  0
LINE
  5
CE47
  8
0
 10
3911.329043745457966
 20
216.5402364358048999
 30
0.0
 11
3911.329043745457966
 21
216.5265301516049021
 31
0.0
  0
LINE
  5
CE48
  8
0
 10
3911.3545017100577752
 20
216.5402364358048999
 30
0.0
 11
3911.3545017100577752
 21
216.5265301516049021
 31
0.0
  0
ARC
  5
CE49
  8
0
 10
3911.3745720471820277
 20
216.5431786358423949
 30
0.0
 40
0.0089316393970375
 50
225.2667652773766065
 51
272.3754397712373247
  0
LINE
  5
CE4A
  8
0
 10
3911.3682858978581862
 20
216.536833676504898
 30
0.0
 11
3911.3561869247760114
 21
216.5488457181133128
 31
0.0
  0
LINE
  5
CE4B
  8
0
 10
3911.3741269000770444
 20
216.5643049459386873
 30
0.0
 11
3911.3619689252768694
 21
216.55141190490491
 31
0.0
  0
ARC
  5
CE4C
  8
0
 10
3911.3557152115517965
 20
216.557705505090297
 30
0.0
 40
0.0088723355798629
 50
269.9790252196966094
 51
314.8178639522034814
  0
LINE
  5
CE4D
  8
0
 10
3911.355711963576141
 20
216.5488331701048992
 30
0.0
 11
3911.327833491940055
 21
216.5488433758278006
 31
0.0
  0
LINE
  5
CE4E
  8
0
 10
3911.3665775653371384
 20
216.5685754014527049
 30
0.0
 11
3911.3545003702770373
 21
216.5565771486049016
 31
0.0
  0
LINE
  5
CE4F
  8
0
 10
3911.3545003702770373
 20
216.5565771486049016
 30
0.0
 11
3911.3290424056767733
 21
216.5565771486049016
 31
0.0
  0
LINE
  5
CE50
  8
0
 10
3911.3290424056767733
 20
216.5565771486049016
 30
0.0
 11
3911.3165423265099889
 21
216.5689944533285995
 31
0.0
  0
LINE
  5
CE51
  8
0
 10
3911.3596765305660483
 20
216.5754268520869061
 30
0.0
 11
3911.3545003702770373
 21
216.5702834328048993
 31
0.0
  0
LINE
  5
CE52
  8
0
 10
3911.3545003702770373
 20
216.5702834328048993
 30
0.0
 11
3911.3290424056767733
 21
216.5702834328048993
 31
0.0
  0
LINE
  5
CE53
  8
0
 10
3911.3290424056767733
 20
216.5702834328048993
 30
0.0
 11
3911.3235120352342165
 21
216.5756514983089005
 31
0.0
  0
LINE
  5
CE54
  8
0
 10
3911.3290424056767733
 20
216.5702834328048993
 30
0.0
 11
3911.3290424056767733
 21
216.5565771486049016
 31
0.0
  0
LINE
  5
CE55
  8
0
 10
3911.3545003702770373
 20
216.5702834328048993
 30
0.0
 11
3911.3545003702770373
 21
216.5565771486049016
 31
0.0
  0
ARC
  5
CE56
  8
0
 10
3911.3745698151710712
 20
216.5732233300225005
 30
0.0
 40
0.0089293755911456
 50
225.2604327305035099
 51
267.1568467428542135
  0
LINE
  5
CE57
  8
0
 10
3911.3682845580769936
 20
216.5668806735048975
 30
0.0
 11
3911.3553016313649096
 21
216.5797703175094
 31
0.0
  0
LINE
  5
CE58
  8
0
 10
3911.3749422401369884
 20
216.5952386652049029
 30
0.0
 11
3911.3619702650580621
 21
216.5823489016048882
 31
0.0
  0
ARC
  5
CE59
  8
0
 10
3911.3557165513338987
 20
216.5886425017903036
 30
0.0
 40
0.0088723355798629
 50
269.9790252196966094
 51
314.8178639522034814
  0
LINE
  5
CE5A
  8
0
 10
3911.3557133033577884
 20
216.5797701668049058
 30
0.0
 11
3911.3278348317221571
 21
216.5797803725276935
 31
0.0
  0
LINE
  5
CE5B
  8
0
 10
3911.3665789051178763
 20
216.5995123981525978
 30
0.0
 11
3911.3545017100577752
 21
216.5875141453049082
 31
0.0
  0
LINE
  5
CE5C
  8
0
 10
3911.3545017100577752
 20
216.5875141453049082
 30
0.0
 11
3911.329043745457966
 21
216.5875141453049082
 31
0.0
  0
LINE
  5
CE5D
  8
0
 10
3911.329043745457966
 20
216.5875141453049082
 30
0.0
 11
3911.3165430094959447
 21
216.5999321024752078
 31
0.0
  0
LINE
  5
CE5E
  8
0
 10
3911.3596778703467862
 20
216.6063638487869127
 30
0.0
 11
3911.3545017100577752
 21
216.601220429504906
 31
0.0
  0
LINE
  5
CE5F
  8
0
 10
3911.3545017100577752
 20
216.601220429504906
 30
0.0
 11
3911.329043745457966
 21
216.601220429504906
 31
0.0
  0
LINE
  5
CE60
  8
0
 10
3911.329043745457966
 20
216.601220429504906
 30
0.0
 11
3911.3235127104680942
 21
216.6065891400525061
 31
0.0
  0
LINE
  5
CE61
  8
0
 10
3911.329043745457966
 20
216.601220429504906
 30
0.0
 11
3911.329043745457966
 21
216.5875141453049082
 31
0.0
  0
LINE
  5
CE62
  8
0
 10
3911.3545017100577752
 20
216.601220429504906
 30
0.0
 11
3911.3545017100577752
 21
216.5875141453049082
 31
0.0
  0
ARC
  5
CE63
  8
0
 10
3911.3745720471820277
 20
216.6041626295422873
 30
0.0
 40
0.0089316393970366
 50
225.2667652773766065
 51
272.3754397712373247
  0
LINE
  5
CE64
  8
0
 10
3911.3682858978581862
 20
216.5978176702049041
 30
0.0
 11
3911.3553029715399134
 21
216.6107073138188071
 31
0.0
  0
LINE
  5
CE65
  8
0
 10
3911.3638352288589886
 20
216.6151390427694992
 30
0.0
 11
3911.3619702650580621
 21
216.6132858984049108
 31
0.0
  0
ARC
  5
CE66
  8
0
 10
3911.3557165513338987
 20
216.6195794985902126
 30
0.0
 40
0.0088723355798629
 50
269.9790252196966094
 51
314.8178639522034814
  0
LINE
  5
CE67
  8
0
 10
3911.3557133033577884
 20
216.6107071636049
 30
0.0
 11
3911.3278348317221571
 21
216.6107173693276877
 31
0.0
  0
LINE
  5
CE68
  8
0
 10
3911.3576617629410066
 20
216.6215905394003016
 30
0.0
 11
3911.3545017100577752
 21
216.6184511421049024
 31
0.0
  0
LINE
  5
CE69
  8
0
 10
3911.3545017100577752
 20
216.6184511421049024
 30
0.0
 11
3911.329043745457966
 21
216.6184511421049024
 31
0.0
  0
LINE
  5
CE6A
  8
0
 10
3911.329043745457966
 20
216.6184511421049024
 30
0.0
 11
3911.3165181510248658
 21
216.6308937931347032
 31
0.0
  0
LINE
  5
CE6B
  8
0
 10
3911.344922155083168
 20
216.6321574263049001
 30
0.0
 11
3911.329043745457966
 21
216.6321574263049001
 31
0.0
  0
LINE
  5
CE6C
  8
0
 10
3911.329043745457966
 20
216.6321574263049001
 30
0.0
 11
3911.3233508795310627
 21
216.6376832183871102
 31
0.0
  0
LINE
  5
CE6D
  8
0
 10
3911.329043745457966
 20
216.6321574263049001
 30
0.0
 11
3911.329043745457966
 21
216.6184511421049024
 31
0.0
  0
LINE
  5
CE6E
  8
0
 10
3911.3545017100577752
 20
216.6245209462128969
 30
0.0
 11
3911.3545017100577752
 21
216.6184511421049024
 31
0.0
  0
LINE
  5
CE6F
  8
0
 10
3911.3749422401369884
 20
216.5342546715048968
 30
0.0
 11
3911.3842306933897817
 21
216.5342597743662907
 31
0.0
  0
ARC
  5
CE70
  8
0
 10
3911.3713917096929436
 20
216.5412860109881876
 30
0.0
 40
0.0146358294418854
 50
331.3099636809536719
 51
2.8109156111465019
  0
LINE
  5
CE71
  8
0
 10
3911.3860099294897736
 20
216.5420037528662931
 30
0.0
 11
3911.3860099294897736
 21
216.5557100370662909
 31
0.0
  0
LINE
  5
CE72
  8
0
 10
3911.3860099294897736
 20
216.5557100370662909
 30
0.0
 11
3911.3890727282259832
 21
216.5652314788378021
 31
0.0
  0
LINE
  5
CE73
  8
0
 10
3911.3890727282259832
 20
216.5652314788378021
 30
0.0
 11
3911.3741269000770444
 21
216.5643049459386873
 31
0.0
  0
LINE
  5
CE74
  8
0
 10
3911.3710253842718885
 20
216.5913466328933055
 30
0.0
 11
3911.3757559041901004
 21
216.5866470338663134
 31
0.0
  0
LINE
  5
CE75
  8
0
 10
3911.3757559041901004
 20
216.5866470338663134
 30
0.0
 11
3911.382094501184838
 21
216.5866470338663134
 31
0.0
  0
LINE
  5
CE76
  8
0
 10
3911.3711882048901316
 20
216.5156045988663038
 30
0.0
 11
3911.3712589234592087
 21
216.5305946982983016
 31
0.0
  0
LINE
  5
CE77
  8
0
 10
3911.1549307914401652
 20
216.478367545166293
 30
0.0
 11
3911.167659773790092
 21
216.478367545166293
 31
0.0
  0
LINE
  5
CE78
  8
0
 10
3911.167659773790092
 20
216.478367545166293
 30
0.0
 11
3911.1728404917239459
 21
216.4835143996048998
 31
0.0
  0
LINE
  5
CE79
  8
0
 10
3911.1549307914401652
 20
216.4646612609662952
 30
0.0
 11
3911.167659773790092
 21
216.4646612609662952
 31
0.0
  0
LINE
  5
CE7A
  8
0
 10
3911.167659773790092
 20
216.4646612609662952
 30
0.0
 11
3911.167659773790092
 21
216.478367545166293
 31
0.0
  0
LINE
  5
CE7B
  8
0
 10
3911.167659773790092
 20
216.4646612609662952
 30
0.0
 11
3911.1797350485630886
 21
216.4766576061788896
 31
0.0
  0
LINE
  5
CE7C
  8
0
 10
3911.1549307914401652
 20
216.5093045419662872
 30
0.0
 11
3911.167659773790092
 21
216.5093045419662872
 31
0.0
  0
LINE
  5
CE7D
  8
0
 10
3911.167659773790092
 20
216.5093045419662872
 30
0.0
 11
3911.1732853896050983
 21
216.5148933862344904
 31
0.0
  0
LINE
  5
CE7E
  8
0
 10
3911.1549307914401652
 20
216.4955982577662894
 30
0.0
 11
3911.167659773790092
 21
216.4955982577662894
 31
0.0
  0
LINE
  5
CE7F
  8
0
 10
3911.167659773790092
 20
216.4955982577662894
 30
0.0
 11
3911.167659773790092
 21
216.5093045419662872
 31
0.0
  0
LINE
  5
CE80
  8
0
 10
3911.167659773790092
 20
216.4955982577662894
 30
0.0
 11
3911.1801829315040777
 21
216.5080395583507027
 31
0.0
  0
LINE
  5
CE81
  8
0
 10
3911.1549307914401652
 20
216.5402415386662938
 30
0.0
 11
3911.167659773790092
 21
216.5402415386662938
 31
0.0
  0
LINE
  5
CE82
  8
0
 10
3911.167659773790092
 20
216.5402415386662938
 30
0.0
 11
3911.1728404917239459
 21
216.5453883931049006
 31
0.0
  0
LINE
  5
CE83
  8
0
 10
3911.1549307914401652
 20
216.526535254466296
 30
0.0
 11
3911.167659773790092
 21
216.526535254466296
 31
0.0
  0
LINE
  5
CE84
  8
0
 10
3911.167659773790092
 20
216.526535254466296
 30
0.0
 11
3911.167659773790092
 21
216.5402415386662938
 31
0.0
  0
LINE
  5
CE85
  8
0
 10
3911.167659773790092
 20
216.526535254466296
 30
0.0
 11
3911.1797350485630886
 21
216.5385315996788904
 31
0.0
  0
LINE
  5
CE86
  8
0
 10
3911.1549307914401652
 20
216.6021155322663105
 30
0.0
 11
3911.167659773790092
 21
216.6021155322663105
 31
0.0
  0
LINE
  5
CE87
  8
0
 10
3911.167659773790092
 20
216.6021155322663105
 30
0.0
 11
3911.1728404917239459
 21
216.607262386704889
 31
0.0
  0
LINE
  5
CE88
  8
0
 10
3911.1549307914401652
 20
216.5884092480663128
 30
0.0
 11
3911.167659773790092
 21
216.5884092480663128
 31
0.0
  0
LINE
  5
CE89
  8
0
 10
3911.167659773790092
 20
216.5884092480663128
 30
0.0
 11
3911.167659773790092
 21
216.6021155322663105
 31
0.0
  0
LINE
  5
CE8A
  8
0
 10
3911.167659773790092
 20
216.5884092480663128
 30
0.0
 11
3911.1797350485630886
 21
216.6004055932789072
 31
0.0
  0
LINE
  5
CE8B
  8
0
 10
3911.1549307914401652
 20
216.6330525289662887
 30
0.0
 11
3911.167659773790092
 21
216.6330525289662887
 31
0.0
  0
LINE
  5
CE8C
  8
0
 10
3911.167659773790092
 20
216.6330525289662887
 30
0.0
 11
3911.1728404917239459
 21
216.6381993834048956
 31
0.0
  0
LINE
  5
CE8D
  8
0
 10
3911.1549307914401652
 20
216.619346244766291
 30
0.0
 11
3911.167659773790092
 21
216.619346244766291
 31
0.0
  0
LINE
  5
CE8E
  8
0
 10
3911.167659773790092
 20
216.619346244766291
 30
0.0
 11
3911.167659773790092
 21
216.6330525289662887
 31
0.0
  0
LINE
  5
CE8F
  8
0
 10
3911.167659773790092
 20
216.619346244766291
 30
0.0
 11
3911.1797350485630886
 21
216.6313425899789138
 31
0.0
  0
LINE
  5
CE90
  8
0
 10
3911.1549307914401652
 20
216.6639895257663113
 30
0.0
 11
3911.167659773790092
 21
216.6639895257663113
 31
0.0
  0
LINE
  5
CE91
  8
0
 10
3911.167659773790092
 20
216.6639895257663113
 30
0.0
 11
3911.1728404917239459
 21
216.6691363802048897
 31
0.0
  0
LINE
  5
CE92
  8
0
 10
3911.1549307914401652
 20
216.6502832415663136
 30
0.0
 11
3911.167659773790092
 21
216.6502832415663136
 31
0.0
  0
LINE
  5
CE93
  8
0
 10
3911.167659773790092
 20
216.6502832415663136
 30
0.0
 11
3911.167659773790092
 21
216.6639895257663113
 31
0.0
  0
LINE
  5
CE94
  8
0
 10
3911.167659773790092
 20
216.6502832415663136
 30
0.0
 11
3911.1797350485630886
 21
216.662279586778908
 31
0.0
  0
ARC
  5
CE95
  8
0
 10
3911.154930791438801
 20
216.3009068802533932
 30
0.0
 40
0.3868072164936463
 50
85.4454466867166644
 51
94.5545533131003566
  0
LINE
  5
CE96
  8
0
 10
3911.0945460474022184
 20
216.4414588931549019
 30
0.0
 11
3911.0920688118990256
 21
216.4389978500051086
 31
0.0
  0
LINE
  5
CE97
  8
0
 10
3911.0818401053379603
 20
216.4501498244374034
 30
0.0
 11
3911.0818401053379603
 21
216.4432543792042907
 31
0.0
  0
ARC
  5
CE98
  8
0
 10
3911.0878401053378184
 20
216.4432543792042907
 30
0.0
 40
0.006
 50
180.0
 51
314.812130847584001
  0
LINE
  5
CE99
  8
0
 10
3911.2153155354731098
 20
216.4414588931549019
 30
0.0
 11
3911.2177927709781216
 21
216.4389978500051086
 31
0.0
  0
LINE
  5
CE9A
  8
0
 10
3911.2280214775378226
 20
216.4501498244374034
 30
0.0
 11
3911.2280214775378226
 21
216.4432543792042907
 31
0.0
  0
ARC
  5
CE9B
  8
0
 10
3911.2220214775379645
 20
216.4432543792042907
 30
0.0
 40
0.006
 50
225.187869152415999
 51
0.0
  0
LINE
  5
CE9C
  8
0
 10
3911.1410571745382185
 20
216.4368392522405031
 30
0.0
 11
3911.1410571745382185
 21
216.4565870782952004
 31
0.0
  0
LINE
  5
CE9D
  8
0
 10
3911.1308284680048928
 20
216.4325827230138088
 30
0.0
 11
3911.1219039783309199
 21
216.4414488779910926
 31
0.0
  0
ARC
  5
CE9E
  8
0
 10
3911.1350571745388152
 20
216.4368392522405031
 30
0.0
 40
0.006
 50
225.1878695242299102
 51
0.0000000000162844
  0
LINE
  5
CE9F
  8
0
 10
3911.1688044083380191
 20
216.4368392522405031
 30
0.0
 11
3911.1688044083380191
 21
216.4565870782952004
 31
0.0
  0
LINE
  5
CEA0
  8
0
 10
3911.1790331148708901
 20
216.4325827230138088
 30
0.0
 11
3911.187957604544863
 21
216.4414488779910926
 31
0.0
  0
ARC
  5
CEA1
  8
0
 10
3911.1748044083378772
 20
216.4368392522405031
 30
0.0
 40
0.006
 50
179.9999999999836859
 51
314.8121304757701182
  0
CIRCLE
  5
CEA2
  8
0
 10
3910.8923244833581521
 20
220.0632841318852968
 30
0.0
 40
0.0497706233683305
  0
CIRCLE
  5
CEA4
  8
0
 10
3911.4175353292048385
 20
220.0632841318852968
 30
0.0
 40
0.0497706233683305
  0
ENDSEC
  0
EOF
