  0
SECTION
  2
HEADER
  9
$ACADVER
  1
AC1009
  9
$INSBASE
 10
3944.6999119175347914
 20
224.9368777723771018
 30
0.0
  9
$EXTMIN
 10
3938.680452615887134
 20
224.9285356217405081
 30
-0.0000000000000058
  9
$EXTMAX
 10
3945.9059483539499524
 20
232.7963986105584979
 30
0.0000000000000104
  9
$LIMMIN
 10
0.0
 20
0.0
  9
$LIMMAX
 10
11.6929133858000007
 20
8.2677165353999982
  9
$ORTHOMODE
 70
     0
  9
$REGENMODE
 70
     1
  9
$FILLMODE
 70
     1
  9
$QTEXTMODE
 70
     0
  9
$MIRRTEXT
 70
     0
  9
$DRAGMODE
 70
     2
  9
$LTSCALE
 40
0.6431102362
  9
$OSMODE
 70
  4095
  9
$ATTMODE
 70
     1
  9
$TEXTSIZE
 40
0.2
  9
$TRACEWID
 40
0.05
  9
$TEXTSTYLE
  7
STANDARD
  9
$CLAYER
  8
0
  9
$CELTYPE
  6
BYLAYER
  9
$CECOLOR
 62
   256
  9
$DIMSCALE
 40
1.0
  9
$DIMASZ
 40
0.1875
  9
$DIMEXO
 40
0.0625
  9
$DIMDLI
 40
0.4443307087
  9
$DIMRND
 40
0.0
  9
$DIMDLE
 40
0.0
  9
$DIMEXE
 40
0.125
  9
$DIMTP
 40
0.01
  9
$DIMTM
 40
0.01
  9
$DIMTXT
 40
2.0
  9
$DIMCEN
 40
0.1052362205
  9
$DIMTSZ
 40
0.0
  9
$DIMTOL
 70
     1
  9
$DIMLIM
 70
     0
  9
$DIMTIH
 70
     1
  9
$DIMTOH
 70
     1
  9
$DIMSE1
 70
     0
  9
$DIMSE2
 70
     0
  9
$DIMTAD
 70
     0
  9
$DIMZIN
 70
     0
  9
$DIMBLK
  1

  9
$DIMASO
 70
     1
  9
$DIMSHO
 70
     1
  9
$DIMPOST
  1
\X
  9
$DIMAPOST
  1

  9
$DIMALT
 70
     1
  9
$DIMALTD
 70
     2
  9
$DIMALTF
 40
25.3999999999999986
  9
$DIMLFAC
 40
1.0
  9
$DIMTOFL
 70
     0
  9
$DIMTVP
 40
0.0
  9
$DIMTIX
 70
     0
  9
$DIMSOXD
 70
     0
  9
$DIMSAH
 70
     0
  9
$DIMBLK1
  1

  9
$DIMBLK2
  1

  9
$DIMSTYLE
  2
STANDARD
  9
$DIMCLRD
 70
     0
  9
$DIMCLRE
 70
     0
  9
$DIMCLRT
 70
     0
  9
$DIMTFAC
 40
1.0
  9
$DIMGAP
 40
0.09
  9
$LUNITS
 70
     2
  9
$LUPREC
 70
     4
  9
$SKETCHINC
 40
0.1
  9
$FILLETRAD
 40
0.0
  9
$AUNITS
 70
     0
  9
$AUPREC
 70
     0
  9
$MENU
  1
.
  9
$ELEVATION
 40
0.0
  9
$PELEVATION
 40
0.0
  9
$THICKNESS
 40
0.0
  9
$LIMCHECK
 70
     0
  9
$BLIPMODE
 70
     0
  9
$CHAMFERA
 40
0.0
  9
$CHAMFERB
 40
0.0
  9
$SKPOLY
 70
     0
  9
$TDCREATE
 40
2458060.468368056230247
  9
$TDUPDATE
 40
2459947.4828472221270204
  9
$TDINDWG
 40
0.6341737269
  9
$TDUSRTIMER
 40
0.6341737269
  9
$USRTIMER
 70
     1
  9
$ANGBASE
 50
0.0
  9
$ANGDIR
 70
     0
  9
$PDMODE
 70
     0
  9
$PDSIZE
 40
0.3125
  9
$PLINEWID
 40
0.0
  9
$COORDS
 70
     1
  9
$SPLFRAME
 70
     0
  9
$SPLINETYPE
 70
     6
  9
$SPLINESEGS
 70
     8
  9
$ATTDIA
 70
     1
  9
$ATTREQ
 70
     1
  9
$HANDLING
 70
     1
  9
$HANDSEED
  5
C793
  9
$SURFTAB1
 70
     6
  9
$SURFTAB2
 70
     6
  9
$SURFTYPE
 70
     6
  9
$SURFU
 70
     6
  9
$SURFV
 70
     6
  9
$UCSNAME
  2

  9
$UCSORG
 10
0.0
 20
0.0
 30
0.0
  9
$UCSXDIR
 10
1.0
 20
0.0
 30
0.0
  9
$UCSYDIR
 10
0.0
 20
1.0
 30
0.0
  9
$PUCSNAME
  2

  9
$PUCSORG
 10
0.0
 20
0.0
 30
0.0
  9
$PUCSXDIR
 10
1.0
 20
0.0
 30
0.0
  9
$PUCSYDIR
 10
0.0
 20
1.0
 30
0.0
  9
$USERI1
 70
     0
  9
$USERI2
 70
     0
  9
$USERI3
 70
     0
  9
$USERI4
 70
     0
  9
$USERI5
 70
     0
  9
$USERR1
 40
0.0
  9
$USERR2
 40
0.0
  9
$USERR3
 40
0.0
  9
$USERR4
 40
0.0
  9
$USERR5
 40
0.0
  9
$WORLDVIEW
 70
     1
  9
$SHADEDGE
 70
     3
  9
$SHADEDIF
 70
    70
  9
$TILEMODE
 70
     1
  9
$MAXACTVP
 70
    64
  9
$PLIMCHECK
 70
     0
  9
$PEXTMIN
 10
1.0000000000000000E+20
 20
1.0000000000000000E+20
 30
1.0000000000000000E+20
  9
$PEXTMAX
 10
-1.0000000000000000E+20
 20
-1.0000000000000000E+20
 30
-1.0000000000000000E+20
  9
$PLIMMIN
 10
0.0
 20
0.0
  9
$PLIMMAX
 10
12.0
 20
9.0
  9
$UNITMODE
 70
     0
  9
$VISRETAIN
 70
     1
  9
$PLINEGEN
 70
     0
  9
$PSLTSCALE
 70
     1
  0
ENDSEC
  0
SECTION
  2
TABLES
  0
TABLE
  2
VPORT
 70
     1
  0
VPORT
  2
*ACTIVE
 70
     0
 10
0.0
 20
0.0
 11
1.0
 21
1.0
 12
55.5997190396055814
 22
10.5376178719230609
 13
0.0
 23
0.0
 14
1.0
 24
1.0
 15
0.0
 25
0.0
 16
0.0
 26
0.0
 36
49.4172280973888718
 17
3886.6934814453129547
 27
218.324849244226499
 37
0.0
 40
7.9209644263128807
 41
1.7905405405405399
 42
50.0
 43
0.0
 44
0.0
 50
0.0
 51
0.0
 71
     0
 72
   100
 73
     1
 74
     1
 75
     0
 76
     0
 77
     0
 78
     0
  0
ENDTAB
  0
TABLE
  2
LTYPE
 70
     2
  0
LTYPE
  2
CONTINUOUS
 70
     0
  3
Solid line
 72
    65
 73
     0
 40
0.0
  0
LTYPE
  2
PHANTOM2
 70
     0
  3
___ _ _ ___ _ _ ___ _ _ ___ _ _
 72
    65
 73
     6
 40
1.25
 49
0.625
 49
-0.125
 49
0.125
 49
-0.125
 49
0.125
 49
-0.125
  0
ENDTAB
  0
TABLE
  2
LAYER
 70
     2
  0
LAYER
  2
0
 70
     0
 62
   255
  6
CONTINUOUS
  0
LAYER
  2
DEFPOINTS
 70
     0
 62
     7
  6
CONTINUOUS
  0
ENDTAB
  0
TABLE
  2
STYLE
 70
     1
  0
STYLE
  2
STANDARD
 70
     0
 40
0.0
 41
0.8
 50
0.0
 71
     0
 42
0.2
  3
txt
  4

  0
ENDTAB
  0
TABLE
  2
VIEW
 70
     0
  0
ENDTAB
  0
TABLE
  2
UCS
 70
     0
  0
ENDTAB
  0
TABLE
  2
APPID
 70
     9
  0
APPID
  2
ACAD
 70
     0
  0
APPID
  2
ACAD_MLEADERVER
 70
     0
  0
APPID
  2
ACAD_EXEMPT_FROM_CAD_STANDARDS
 70
     0
  0
APPID
  2
ACAD_NAV_VCDISPLAY
 70
     0
  0
APPID
  2
ACAECLAYERSTANDARD
 70
     0
  0
APPID
  2
ACCMTRANSPARENCY
 70
     0
  0
APPID
  2
ACAD_DSTYLE_DIMJAG
 70
     0
  0
APPID
  2
ACAD_DSTYLE_DIMTALN
 70
     0
  0
APPID
  2
ACDBATTR
 70
     0
  0
ENDTAB
  0
TABLE
  2
DIMSTYLE
 70
     1
  0
DIMSTYLE
  2
STANDARD
 70
     0
  3

  4

  5

  6

  7

 40
1.0
 41
0.1875
 42
0.0625
 43
0.38
 44
0.125
 45
0.0
 46
0.0
 47
0.01
 48
0.01
140
0.15625
141
0.09
142
0.0
143
25.3999999999999986
144
1.0
145
0.0
146
1.0
147
0.09
 71
     1
 72
     0
 73
     1
 74
     1
 75
     0
 76
     0
 77
     0
 78
     4
170
     0
171
     2
172
     0
173
     0
174
     0
175
     0
176
     0
177
     0
178
     0
  0
ENDTAB
  0
ENDSEC
  0
SECTION
  2
BLOCKS
  0
BLOCK
  8
0
  2
$MODEL_SPACE
 70
     0
 10
0.0
 20
0.0
 30
0.0
  3
$MODEL_SPACE
  1

  0
ENDBLK
  5
21
  8
0
  0
BLOCK
 67
     1
  8
0
  2
$PAPER_SPACE
 70
     0
 10
0.0
 20
0.0
 30
0.0
  3
$PAPER_SPACE
  1

  0
ENDBLK
  5
1D
 67
     1
  8
0
  0
ENDSEC
  0
SECTION
  2
ENTITIES
  0
ATTDEF
  5
3930
  8
DEFPOINTS
 10
3944.6971809536339606
 20
224.9430068547347901
 30
0.0
 40
0.001
  1
K-14402ME-4AND
  3

  2
MODELNUMBER
 70
     0
1001
ACDBATTR
1070
     0
1070
     1
  0
ATTDEF
  5
3931
  8
DEFPOINTS
 10
3944.6971809536339606
 20
224.9413401880682102
 30
0.0
 40
0.001
  1
PURIST
  3

  2
TRADENAME
 70
     0
1001
ACDBATTR
1070
     0
1070
     1
  0
ATTDEF
  5
3932
  8
DEFPOINTS
 10
3944.6971809536339606
 20
224.9396735214014882
 30
0.0
 40
0.001
  1
BATHROOM SINK FAUCET
  3

  2
PRODUCT
 70
     0
1001
ACDBATTR
1070
     0
1070
     1
  0
ARC
  5
C567
  8
0
 10
3943.8476629069750743
 20
231.2924103684933073
 30
0.0
 40
0.0300001145201206
 50
90.0108333305278165
 51
177.999745684456002
  0
LINE
  5
C568
  8
0
 10
3940.6225431022839985
 20
228.9468777723770927
 30
0.0
 11
3943.7899119175840497
 21
228.9468777723770927
 31
0.0
  0
LINE
  5
C569
  8
0
 10
3943.6099119175851229
 20
224.9368777723771018
 30
0.0
 11
3945.7899119174830957
 21
224.9368777723771018
 31
0.0
  0
LINE
  5
C56A
  8
0
 10
3943.7899119175840497
 20
225.2868777723770961
 30
0.0
 11
3943.7899119175840497
 21
228.1368777723772041
 31
0.0
  0
LINE
  5
C56B
  8
0
 10
3943.7899119175840497
 20
228.9468777723770927
 30
0.0
 11
3943.7899119175840497
 21
230.3918777723770859
 31
0.0
  0
LINE
  5
C56C
  8
0
 10
3943.5799119175831038
 20
224.9668777723775861
 30
0.0
 11
3943.5799119175831038
 21
225.0768777723770881
 31
0.0
  0
LINE
  5
C56D
  8
0
 10
3943.6099119175828491
 20
225.106877772377203
 30
0.0
 11
3945.7899119174830957
 21
225.106877772377203
 31
0.0
  0
ARC
  5
C56E
  8
0
 10
3943.6099119175828491
 20
224.9668777723771882
 30
0.0
 40
0.0300000000000011
 50
180.0000000000015916
 51
270.0000000021365167
  0
ARC
  5
C56F
  8
0
 10
3943.6099119175828491
 20
225.0768777723770881
 30
0.0
 40
0.0300000000000003
 50
90.0
 51
180.0
  0
ARC
  5
C570
  8
0
 10
3943.6099119175828491
 20
225.2868777723770961
 30
0.0
 40
0.1799999999999997
 50
270.0
 51
0.0
  0
LINE
  5
C571
  8
0
 10
3943.7899119175840497
 20
230.3918777723770859
 30
0.0
 11
3945.609911917484169
 21
230.3918777723770859
 31
0.0
  0
LINE
  5
C572
  8
0
 10
3943.8213924632827911
 20
230.5173417189926965
 30
0.0
 11
3944.6754697236137872
 21
230.5173417189926965
 31
0.0
  0
ARC
  5
C573
  8
0
 10
3943.8214433884390928
 20
230.5470938702050887
 30
0.0
 40
0.0297521947953323
 50
177.5560240044181057
 51
269.9019299954480857
  0
LINE
  5
C574
  8
0
 10
3943.7917182563837741
 20
230.5483625779926911
 30
0.0
 11
3943.8176810723621202
 21
231.2934574904697058
 31
0.0
  0
LINE
  5
C575
  8
0
 10
3943.8476572346339708
 20
231.3224104824770961
 30
0.0
 11
3945.5547220837220266
 21
231.3224104824770961
 31
0.0
  0
LINE
  5
C576
  8
0
 10
3944.4997026790651944
 20
231.8973433167930978
 30
0.0
 11
3944.9009611777851205
 21
231.8973433167930978
 31
0.0
  0
LINE
  5
C577
  8
0
 10
3944.4802359661839546
 20
231.8776909116926959
 30
0.0
 11
3944.4763069029891085
 21
231.6526047474341965
 31
0.0
  0
ARC
  5
C578
  8
0
 10
3944.1263602142830678
 20
231.6587133531926952
 30
0.0
 40
0.3500000000000004
 50
286.0024471922089901
 51
358.9999568569991766
  0
ARC
  5
C579
  8
0
 10
3944.4996956120821778
 20
231.8778827268334055
 30
0.0
 40
0.0194605912429415
 50
89.9791934199164984
 51
180.5647503631012114
  0
ARC
  5
C57A
  8
0
 10
3944.5006112966511864
 20
231.9173550767341965
 30
0.0
 40
0.0200323768398152
 50
180.2563393515694941
 51
267.4003174815886155
  0
LINE
  5
C57B
  8
0
 10
3945.609911917484169
 20
225.2868777723770961
 30
0.0
 11
3945.609911917484169
 21
230.3918777723770859
 31
0.0
  0
LINE
  5
C57C
  8
0
 10
3945.8199119174842053
 20
224.9668777723775861
 30
0.0
 11
3945.8199119174842053
 21
225.0768777723770881
 31
0.0
  0
ARC
  5
C57D
  8
0
 10
3945.7899119174830957
 20
224.9668777723771882
 30
0.0
 40
0.0300000000000011
 50
269.9999999978634833
 51
359.9999999999984084
  0
ARC
  5
C57E
  8
0
 10
3945.7899119174830957
 20
225.0768777723770881
 30
0.0
 40
0.0300000000000003
 50
0.0
 51
90.0
  0
ARC
  5
C57F
  8
0
 10
3945.7899119174830957
 20
225.2868777723770961
 30
0.0
 40
0.1799999999999997
 50
180.0
 51
270.0
  0
LINE
  5
C580
  8
0
 10
3945.5993777676840182
 20
230.8377669874926994
 30
0.0
 11
3945.5965993017671281
 21
230.9173888022758092
 31
0.0
  0
LINE
  5
C581
  8
0
 10
3945.5840388769829588
 20
231.2773409584926867
 30
0.0
 11
3945.5834761377709583
 21
231.2934560869927054
 31
0.0
  0
ARC
  5
C582
  8
0
 10
3945.5534443420779098
 20
231.2923868346397001
 30
0.0
 40
0.0300508245007171
 50
2.0390981774972761
 51
87.563085809797613
  0
LINE
  5
C583
  8
0
 10
3944.9209221723249357
 20
231.877690587384194
 30
0.0
 11
3944.9235169320791101
 21
231.6526047474341965
 31
0.0
  0
ARC
  5
C584
  8
0
 10
3945.2734636207837866
 20
231.6587133531926952
 30
0.0
 40
0.3500000000000004
 50
181.0000431429992034
 51
253.9975528077910099
  0
ARC
  5
C585
  8
0
 10
3944.9009219924591889
 20
231.8773401046173035
 30
0.0
 40
0.0200032505568736
 50
1.0039473780802071
 51
89.8877604826782033
  0
ARC
  5
C586
  8
0
 10
3944.9005759919468801
 20
231.9173428132191077
 30
0.0
 40
0.0200032053786066
 50
271.1033675104970939
 51
359.9962773465783243
  0
LINE
  5
C587
  8
0
 10
3940.6225431022890007
 20
228.1368777723772041
 30
0.0
 11
3943.7899119175840497
 21
228.1368777723772041
 31
0.0
  0
ARC
  5
C588
  8
0
 10
3942.9937687780970919
 20
228.5418777723770916
 30
0.0
 40
0.8932350746317435
 50
333.0374460237588892
 51
26.9625539762395796
  0
ARC
  5
C589
  8
0
 10
3940.6225431022890007
 20
227.2058777723518119
 30
0.0
 40
0.93100000002533
 50
90.0
 51
144.9999999948917946
  0
LINE
  5
C58A
  8
0
 10
3939.8599125490832193
 20
227.7398774346771972
 30
0.0
 11
3939.756262972076911
 21
227.5927142238172962
 31
0.0
  0
LINE
  5
C58B
  8
0
 10
3939.7533654155599834
 20
227.5886002299837116
 30
0.0
 11
3939.5460846631817731
 21
227.2942999351772073
 31
0.0
  0
ARC
  5
C58C
  8
0
 10
3939.5368735503789139
 20
227.3019943183325893
 30
0.0
 40
0.0120020052993173
 50
274.8732553382753849
 51
320.1267445058034014
  0
ARC
  5
C58D
  8
0
 10
3939.5386541850762114
 20
227.3024494173608048
 30
0.0
 40
0.0124370243460217
 50
238.5082161521532953
 51
266.4917838478821182
  0
LINE
  5
C58E
  8
0
 10
3939.532157378419015
 20
227.2918441791343014
 30
0.0
 11
3938.8874987780832271
 21
227.7432389905771117
 31
0.0
  0
ARC
  5
C58F
  8
0
 10
3938.8932205104688364
 20
227.7514403490951054
 30
0.0
 40
0.0100000251519011
 50
145.0000597644674087
 51
235.0981887872897005
  0
LINE
  5
C590
  8
0
 10
3938.8850289634387991
 20
227.7571761193406132
 30
0.0
 11
3939.0906140778452027
 21
228.0525087801977122
 31
0.0
  0
LINE
  5
C591
  8
0
 10
3939.0935614531231295
 20
228.0567428230457949
 30
0.0
 11
3939.1963993931822188
 21
228.2044743480772127
 31
0.0
  0
ARC
  5
C592
  8
0
 10
3940.6225431022839985
 20
227.2058777723703997
 30
0.0
 40
1.7410000000067121
 50
90.0
 51
144.9999999993860058
  0
ARC
  5
C593
  8
0
 10
3939.0951874146521732
 20
228.0465277573725018
 30
0.0
 40
0.0075291462716624
 50
64.0664634069335506
 51
127.4030200716612029
  0
ARC
  5
C594
  8
0
 10
3939.7453774412761049
 20
227.5905134347997887
 30
0.0
 40
0.0082138958985369
 50
346.5307809935490013
 51
43.4116500378200811
  0
LINE
  5
C595
  8
0
 10
3939.0935614531231295
 20
228.0567428230457949
 30
0.0
 11
3939.756262972076911
 21
227.5927142238172962
 31
0.0
  0
ARC
  5
C596
  8
0
 10
3943.9249119175838132
 20
230.4418777723772109
 30
0.0
 40
0.0599999999999955
 50
303.5573097617996154
 51
0.0
  0
ARC
  5
C597
  8
0
 10
3945.4749119175839951
 20
230.4418777723772109
 30
0.0
 40
0.0600000000000046
 50
180.0
 51
236.442690238200413
  0
LINE
  5
C598
  8
0
 10
3945.4149119175840497
 20
230.4418777723772109
 30
0.0
 11
3945.4149119175840497
 21
230.7018245414969044
 31
0.0
  0
ARC
  5
C599
  8
0
 10
3944.6750713373921826
 20
230.6373410728409112
 30
0.0
 40
0.1200000151481857
 50
270.1902157350506855
 51
293.9999496487715192
  0
LINE
  5
C59A
  8
0
 10
3944.7238796443839419
 20
230.5277155611927071
 30
0.0
 11
3945.3286273958060519
 21
230.7969659707048038
 31
0.0
  0
ARC
  5
C59B
  8
0
 10
3945.3774368610479542
 20
230.6873378575799052
 30
0.0
 40
0.1200028628178535
 50
90.0005221472795114
 51
113.9999496487715049
  0
LINE
  5
C59C
  8
0
 10
3945.3774357674387829
 20
230.8073407203926877
 30
0.0
 11
3945.5699960115762224
 21
230.8073424752305982
 31
0.0
  0
ARC
  5
C59D
  8
0
 10
3945.5699957436499972
 20
230.8367423595618959
 30
0.0
 40
0.0293998843324759
 50
270.0005221472795256
 51
1.9972441483352921
  0
ARC
  5
C59E
  8
0
 10
3945.5785582473840805
 20
230.9473409630926994
 30
0.0
 40
0.0200000000000281
 50
315.6986915840432175
 51
347.8033045480631813
  0
ARC
  5
C59F
  8
0
 10
3944.8845843099279591
 20
231.0973415437175902
 30
0.0
 40
0.7300000000391184
 50
347.8033045480631813
 51
12.1965993124266294
  0
ARC
  5
C5A0
  8
0
 10
3945.5785584942150308
 20
231.2473409588372988
 30
0.0
 40
0.0200000049731873
 50
12.1965993124314096
 51
79.1055387826386323
  0
ARC
  5
C5A1
  8
0
 10
3946.4627393033460976
 20
231.1278077275447913
 30
0.0
 40
0.8913330614566591
 50
170.3421853845655107
 51
193.6548316317046954
  0
ARC
  5
C5A2
  8
0
 10
3944.0754165141388512
 20
231.9369531394742978
 30
0.0
 40
0.8453901920719372
 50
358.6707153516908875
 51
89.9885188874134059
  0
ARC
  5
C5A3
  8
0
 10
3944.0752340811668546
 20
231.9365402603787061
 30
0.0
 40
0.4058030543921021
 50
357.2775444078841929
 51
89.9982121182037247
  0
LINE
  5
C5A4
  8
0
 10
3941.4599121188489335
 20
232.7823433145732963
 30
0.0
 11
3944.075585916144064
 21
232.7823433145732963
 31
0.0
  0
LINE
  5
C5A5
  8
0
 10
3941.4599117507159463
 20
232.3423433145732986
 30
0.0
 11
3944.0752467440161126
 21
232.3423433145732986
 31
0.0
  0
ARC
  5
C5A6
  8
0
 10
3941.4599136261099375
 20
232.3523451812897918
 30
0.0
 40
0.010001866892382
 50
179.9921844441618077
 51
269.9892567879293779
  0
LINE
  5
C5A7
  8
0
 10
3941.4499117593099982
 20
232.3523465456163137
 30
0.0
 11
3941.4499121104818187
 21
232.772344408292696
 31
0.0
  0
ARC
  5
C5A8
  8
0
 10
3941.4599102436350222
 20
232.772345181566692
 30
0.0
 40
0.0099981331824479
 50
89.9892538083457652
 51
180.0044313608865139
  0
LINE
  5
C5A9
  8
0
 10
3943.984911917484169
 20
230.4418777723772109
 30
0.0
 11
3943.984911917484169
 21
230.5173417189926965
 31
0.0
  0
LINE
  5
C5AA
  8
0
 10
3945.404859470521842
 20
230.7118777364526068
 30
0.0
 11
3945.1375156406570568
 21
230.7118777364526068
 31
0.0
  0
LINE
  5
C5AB
  8
0
 10
3945.404859470521842
 20
230.7118777364526068
 30
0.0
 11
3945.4149119175840497
 21
230.7018245414969044
 31
0.0
  0
LINE
  5
C5AC
  8
0
 10
3945.4149119175840497
 20
230.7018245414969044
 30
0.0
 11
3945.1149357416888961
 21
230.7018245414969044
 31
0.0
  0
LINE
  5
C682
  8
0
 10
3943.7899119175840497
 20
225.2868777723770961
 30
0.0
 11
3945.609911917484169
 21
225.2868777723770961
 31
0.0
  0
LINE
  5
C683
  8
0
 10
3943.7899119175840497
 20
225.3168777723772109
 30
0.0
 11
3945.609911917484169
 21
225.3168777723772109
 31
0.0
  0
ENDSEC
  0
EOF
