  0
SECTION
  2
HEADER
  9
$ACADVER
  1
AC1009
  9
$INSBASE
 10
3945.2917306162457862
 20
229.9377245735452107
 30
0.0
  9
$EXTMIN
 10
3944.1717306163459398
 20
224.1210331413776942
 30
0.0
  9
$EXTMAX
 10
3946.4117306161469969
 20
231.0577245735451868
 30
0.0
  9
$LIMMIN
 10
0.0
 20
0.0
  9
$LIMMAX
 10
11.6929133858000007
 20
8.2677165353999982
  9
$ORTHOMODE
 70
     0
  9
$REGENMODE
 70
     1
  9
$FILLMODE
 70
     1
  9
$QTEXTMODE
 70
     0
  9
$MIRRTEXT
 70
     0
  9
$DRAGMODE
 70
     2
  9
$LTSCALE
 40
0.6431102362
  9
$OSMODE
 70
  4095
  9
$ATTMODE
 70
     1
  9
$TEXTSIZE
 40
0.2
  9
$TRACEWID
 40
0.05
  9
$TEXTSTYLE
  7
STANDARD
  9
$CLAYER
  8
0
  9
$CELTYPE
  6
BYLAYER
  9
$CECOLOR
 62
   256
  9
$DIMSCALE
 40
1.0
  9
$DIMASZ
 40
0.1875
  9
$DIMEXO
 40
0.0625
  9
$DIMDLI
 40
0.4443307087
  9
$DIMRND
 40
0.0
  9
$DIMDLE
 40
0.0
  9
$DIMEXE
 40
0.125
  9
$DIMTP
 40
0.01
  9
$DIMTM
 40
0.01
  9
$DIMTXT
 40
2.0
  9
$DIMCEN
 40
0.1052362205
  9
$DIMTSZ
 40
0.0
  9
$DIMTOL
 70
     1
  9
$DIMLIM
 70
     0
  9
$DIMTIH
 70
     1
  9
$DIMTOH
 70
     1
  9
$DIMSE1
 70
     0
  9
$DIMSE2
 70
     0
  9
$DIMTAD
 70
     0
  9
$DIMZIN
 70
     0
  9
$DIMBLK
  1

  9
$DIMASO
 70
     1
  9
$DIMSHO
 70
     1
  9
$DIMPOST
  1
\X
  9
$DIMAPOST
  1

  9
$DIMALT
 70
     1
  9
$DIMALTD
 70
     2
  9
$DIMALTF
 40
25.3999999999999986
  9
$DIMLFAC
 40
1.0
  9
$DIMTOFL
 70
     0
  9
$DIMTVP
 40
0.0
  9
$DIMTIX
 70
     0
  9
$DIMSOXD
 70
     0
  9
$DIMSAH
 70
     0
  9
$DIMBLK1
  1

  9
$DIMBLK2
  1

  9
$DIMSTYLE
  2
STANDARD
  9
$DIMCLRD
 70
     0
  9
$DIMCLRE
 70
     0
  9
$DIMCLRT
 70
     0
  9
$DIMTFAC
 40
1.0
  9
$DIMGAP
 40
0.09
  9
$LUNITS
 70
     2
  9
$LUPREC
 70
     4
  9
$SKETCHINC
 40
0.1
  9
$FILLETRAD
 40
0.0
  9
$AUNITS
 70
     0
  9
$AUPREC
 70
     0
  9
$MENU
  1
.
  9
$ELEVATION
 40
0.0
  9
$PELEVATION
 40
0.0
  9
$THICKNESS
 40
0.0
  9
$LIMCHECK
 70
     0
  9
$BLIPMODE
 70
     0
  9
$CHAMFERA
 40
0.0
  9
$CHAMFERB
 40
0.0
  9
$SKPOLY
 70
     0
  9
$TDCREATE
 40
2458060.468368056230247
  9
$TDUPDATE
 40
2459947.4810879630967975
  9
$TDINDWG
 40
0.6321019676
  9
$TDUSRTIMER
 40
0.6321019676
  9
$USRTIMER
 70
     1
  9
$ANGBASE
 50
0.0
  9
$ANGDIR
 70
     0
  9
$PDMODE
 70
     0
  9
$PDSIZE
 40
0.3125
  9
$PLINEWID
 40
0.0
  9
$COORDS
 70
     1
  9
$SPLFRAME
 70
     0
  9
$SPLINETYPE
 70
     6
  9
$SPLINESEGS
 70
     8
  9
$ATTDIA
 70
     1
  9
$ATTREQ
 70
     1
  9
$HANDLING
 70
     1
  9
$HANDSEED
  5
C730
  9
$SURFTAB1
 70
     6
  9
$SURFTAB2
 70
     6
  9
$SURFTYPE
 70
     6
  9
$SURFU
 70
     6
  9
$SURFV
 70
     6
  9
$UCSNAME
  2

  9
$UCSORG
 10
0.0
 20
0.0
 30
0.0
  9
$UCSXDIR
 10
1.0
 20
0.0
 30
0.0
  9
$UCSYDIR
 10
0.0
 20
1.0
 30
0.0
  9
$PUCSNAME
  2

  9
$PUCSORG
 10
0.0
 20
0.0
 30
0.0
  9
$PUCSXDIR
 10
1.0
 20
0.0
 30
0.0
  9
$PUCSYDIR
 10
0.0
 20
1.0
 30
0.0
  9
$USERI1
 70
     0
  9
$USERI2
 70
     0
  9
$USERI3
 70
     0
  9
$USERI4
 70
     0
  9
$USERI5
 70
     0
  9
$USERR1
 40
0.0
  9
$USERR2
 40
0.0
  9
$USERR3
 40
0.0
  9
$USERR4
 40
0.0
  9
$USERR5
 40
0.0
  9
$WORLDVIEW
 70
     1
  9
$SHADEDGE
 70
     3
  9
$SHADEDIF
 70
    70
  9
$TILEMODE
 70
     1
  9
$MAXACTVP
 70
    64
  9
$PLIMCHECK
 70
     0
  9
$PEXTMIN
 10
1.0000000000000000E+20
 20
1.0000000000000000E+20
 30
1.0000000000000000E+20
  9
$PEXTMAX
 10
-1.0000000000000000E+20
 20
-1.0000000000000000E+20
 30
-1.0000000000000000E+20
  9
$PLIMMIN
 10
0.0
 20
0.0
  9
$PLIMMAX
 10
12.0
 20
9.0
  9
$UNITMODE
 70
     0
  9
$VISRETAIN
 70
     1
  9
$PLINEGEN
 70
     0
  9
$PSLTSCALE
 70
     1
  0
ENDSEC
  0
SECTION
  2
TABLES
  0
TABLE
  2
VPORT
 70
     1
  0
VPORT
  2
*ACTIVE
 70
     0
 10
0.0
 20
0.0
 11
1.0
 21
1.0
 12
58.5982491709339683
 22
9.2645296132350268
 13
0.0
 23
0.0
 14
1.0
 24
1.0
 15
0.0
 25
0.0
 16
0.0
 26
0.0
 36
49.4172280973888718
 17
3886.6934814453129547
 27
218.324849244226499
 37
0.0
 40
6.9835082472327397
 41
1.7905405405405399
 42
50.0
 43
0.0
 44
0.0
 50
0.0
 51
0.0
 71
     0
 72
   100
 73
     1
 74
     1
 75
     0
 76
     0
 77
     0
 78
     0
  0
ENDTAB
  0
TABLE
  2
LTYPE
 70
     2
  0
LTYPE
  2
CONTINUOUS
 70
     0
  3
Solid line
 72
    65
 73
     0
 40
0.0
  0
LTYPE
  2
PHANTOM2
 70
     0
  3
___ _ _ ___ _ _ ___ _ _ ___ _ _
 72
    65
 73
     6
 40
1.25
 49
0.625
 49
-0.125
 49
0.125
 49
-0.125
 49
0.125
 49
-0.125
  0
ENDTAB
  0
TABLE
  2
LAYER
 70
     2
  0
LAYER
  2
0
 70
     0
 62
   255
  6
CONTINUOUS
  0
LAYER
  2
DEFPOINTS
 70
     0
 62
     7
  6
CONTINUOUS
  0
ENDTAB
  0
TABLE
  2
STYLE
 70
     1
  0
STYLE
  2
STANDARD
 70
     0
 40
0.0
 41
0.8
 50
0.0
 71
     0
 42
0.2
  3
txt
  4

  0
ENDTAB
  0
TABLE
  2
VIEW
 70
     0
  0
ENDTAB
  0
TABLE
  2
UCS
 70
     0
  0
ENDTAB
  0
TABLE
  2
APPID
 70
     9
  0
APPID
  2
ACAD
 70
     0
  0
APPID
  2
ACAD_MLEADERVER
 70
     0
  0
APPID
  2
ACAD_EXEMPT_FROM_CAD_STANDARDS
 70
     0
  0
APPID
  2
ACAD_NAV_VCDISPLAY
 70
     0
  0
APPID
  2
ACAECLAYERSTANDARD
 70
     0
  0
APPID
  2
ACCMTRANSPARENCY
 70
     0
  0
APPID
  2
ACAD_DSTYLE_DIMJAG
 70
     0
  0
APPID
  2
ACAD_DSTYLE_DIMTALN
 70
     0
  0
APPID
  2
ACDBATTR
 70
     0
  0
ENDTAB
  0
TABLE
  2
DIMSTYLE
 70
     1
  0
DIMSTYLE
  2
STANDARD
 70
     0
  3

  4

  5

  6

  7

 40
1.0
 41
0.1875
 42
0.0625
 43
0.38
 44
0.125
 45
0.0
 46
0.0
 47
0.01
 48
0.01
140
0.15625
141
0.09
142
0.0
143
25.3999999999999986
144
1.0
145
0.0
146
1.0
147
0.09
 71
     1
 72
     0
 73
     1
 74
     1
 75
     0
 76
     0
 77
     0
 78
     4
170
     0
171
     2
172
     0
173
     0
174
     0
175
     0
176
     0
177
     0
178
     0
  0
ENDTAB
  0
ENDSEC
  0
SECTION
  2
BLOCKS
  0
BLOCK
  8
0
  2
$MODEL_SPACE
 70
     0
 10
0.0
 20
0.0
 30
0.0
  3
$MODEL_SPACE
  1

  0
ENDBLK
  5
21
  8
0
  0
BLOCK
 67
     1
  8
0
  2
$PAPER_SPACE
 70
     0
 10
0.0
 20
0.0
 30
0.0
  3
$PAPER_SPACE
  1

  0
ENDBLK
  5
1D
 67
     1
  8
0
  0
ENDSEC
  0
SECTION
  2
ENTITIES
  0
ATTDEF
  5
3930
  8
DEFPOINTS
 10
3945.2868163617781647
 20
229.9325023786173006
 30
0.0
 40
0.001
  1
K-14402ME-4AND
  3

  2
MODELNUMBER
 70
     0
1001
ACDBATTR
1070
     0
1070
     1
  0
ATTDEF
  5
3931
  8
DEFPOINTS
 10
3945.2868163617781647
 20
229.930835711950607
 30
0.0
 40
0.001
  1
PURIST
  3

  2
TRADENAME
 70
     0
1001
ACDBATTR
1070
     0
1070
     1
  0
ATTDEF
  5
3932
  8
DEFPOINTS
 10
3945.2868163617781647
 20
229.9291690452839134
 30
0.0
 40
0.001
  1
BATHROOM SINK FAUCET
  3

  2
PRODUCT
 70
     0
1001
ACDBATTR
1070
     0
1070
     1
  0
ARC
  5
C608
  8
0
 10
3945.2917306163471949
 20
229.9377245735452107
 30
0.0
 40
0.908220723940297
 50
100.307002621441697
 51
255.9818362188242133
  0
ARC
  5
C609
  8
0
 10
3945.2917306163458306
 20
229.9377245735452107
 30
0.0
 40
1.119999999999999
 50
90.0000000025534064
 51
248.8010709801440896
  0
ARC
  5
C60A
  8
0
 10
3945.2917306163458306
 20
229.9377245735452107
 30
0.0
 40
0.9100000000000001
 50
100.0760201834855962
 51
256.0098038296297887
  0
ARC
  5
C60B
  8
0
 10
3945.2917306163458306
 20
229.9377245735452107
 30
0.0
 40
0.8822310971554653
 50
90.0000000064616472
 51
255.5600418614127136
  0
LINE
  5
C60C
  8
0
 10
3945.1225747082339694
 20
230.8096669650921058
 30
0.0
 11
3945.1225746962450103
 21
230.8163710291628945
 31
0.0
  0
ARC
  5
C60D
  8
0
 10
3945.1426237779751318
 20
230.8163710650159999
 30
0.0
 40
0.0200490817297504
 50
102.8298848182651994
 51
180.0001024602470068
  0
ARC
  5
C60E
  8
0
 10
3945.131024894402799
 20
230.7792271194049079
 30
0.0
 40
0.0357516686411513
 50
103.6716873311412996
 51
121.3996149870857977
  0
ARC
  5
C60F
  8
0
 10
3945.114840153330988
 20
231.0000601891566987
 30
0.0
 40
0.190332745809932
 50
269.26486039201518
 51
279.479678111476801
  0
ARC
  5
C610
  8
0
 10
3945.2960429003251193
 20
229.6392036000769963
 30
0.0
 40
1.1826555849954541
 50
90.2089164635297465
 51
97.2795695065252914
  0
ARC
  5
C611
  8
0
 10
3945.2917306162958084
 20
224.5338668399776054
 30
0.0
 40
0.4128336985999167
 50
191.1795065816064039
 51
348.8204934183935961
  0
ARC
  5
C612
  8
0
 10
3945.2917306162471505
 20
229.9380342805440876
 30
0.0
 40
0.2203611245426723
 50
3.290445531846435
 51
176.7095544681536126
  0
ARC
  5
C613
  8
0
 10
3945.2917306162971727
 20
229.9387348159908981
 30
0.0
 40
0.2249390517442368
 50
347.968486311349011
 51
192.031513566954203
  0
ARC
  5
C614
  8
0
 10
3945.2917306162971727
 20
230.2582852719864945
 30
0.0
 40
0.5976970303415855
 50
90.0000000047680686
 51
104.8872409870406983
  0
LINE
  5
C615
  8
0
 10
3945.0817326019950997
 20
226.7006853825359087
 30
0.0
 11
3945.5017282772319049
 21
226.7006779640319962
 31
0.0
  0
LINE
  5
C617
  8
0
 10
3944.8867306162960631
 20
224.4538252089355126
 30
0.0
 11
3944.8867306162960631
 21
229.1228166033058073
 31
0.0
  0
ARC
  5
C618
  8
0
 10
3945.291730616147106
 20
229.9377245735452107
 30
0.0
 40
0.908220723940297
 50
284.0181637811758151
 51
79.6929973785582604
  0
ARC
  5
C619
  8
0
 10
3945.2917306161480155
 20
229.9377245735452107
 30
0.0
 40
1.119999999999999
 50
291.1989290198558251
 51
89.9999999974465936
  0
ARC
  5
C61A
  8
0
 10
3945.2917306161480155
 20
229.9377245735452107
 30
0.0
 40
0.9100000000000001
 50
283.9901961703702113
 51
79.9239798165143469
  0
ARC
  5
C61B
  8
0
 10
3945.2917306161480155
 20
229.9377245735452107
 30
0.0
 40
0.8822310971554653
 50
284.4399581385873148
 51
89.9999999935383386
  0
LINE
  5
C61C
  8
0
 10
3945.4608865242589673
 20
230.8096669650921058
 30
0.0
 11
3945.4608865362479264
 21
230.8163710291628945
 31
0.0
  0
ARC
  5
C61D
  8
0
 10
3945.4408374545178049
 20
230.8163710650159999
 30
0.0
 40
0.0200490817297504
 50
359.9998975397530216
 51
77.1701151817347721
  0
ARC
  5
C61E
  8
0
 10
3945.4524363380901377
 20
230.7792271194049079
 30
0.0
 40
0.0357516686411513
 50
58.6003850129142165
 51
76.3283126688587146
  0
ARC
  5
C61F
  8
0
 10
3945.4686210791628582
 20
231.0000601891566987
 30
0.0
 40
0.190332745809932
 50
260.520321888523199
 51
270.73513960798482
  0
ARC
  5
C620
  8
0
 10
3945.2874183321678174
 20
229.6392036000769963
 30
0.0
 40
1.1826555849954541
 50
82.7204304934747086
 51
89.7910835364702535
  0
ARC
  5
C621
  8
0
 10
3945.2917306161962188
 20
230.2582852719864945
 30
0.0
 40
0.5976970303415855
 50
75.1127590129592306
 51
89.9999999952319172
  0
LINE
  5
C622
  8
0
 10
3945.6967306161968736
 20
224.4538252089355126
 30
0.0
 11
3945.6967306161968736
 21
229.1228166033058073
 31
0.0
  0
LINE
  5
C623
  8
0
 10
3945.5117284538650893
 20
226.7106779640303955
 30
0.0
 11
3945.5117284538650893
 21
229.9506824682707133
 31
0.0
  0
LINE
  5
C624
  8
0
 10
3945.0717327786278474
 20
226.710685382534308
 30
0.0
 11
3945.0717327786278474
 21
229.9506824682707133
 31
0.0
  0
ARC
  5
C625
  8
0
 10
3945.5017284538657805
 20
226.7106779640303955
 30
0.0
 40
0.01
 50
269.9989879681995149
 51
0.0000000000211698
  0
ARC
  5
C626
  8
0
 10
3945.0817327786280657
 20
226.710685382534308
 30
0.0
 40
0.01
 50
180.0
 51
269.9989879682515834
  0
ENDSEC
  0
EOF
