  0
SECTION
  2
HEADER
  9
$ACADVER
  1
AC1009
  9
$INSBASE
 10
3930.5446862902422254
 20
228.0417537699148909
 30
0.0
  9
$EXTMIN
 10
3929.4246862903410147
 20
228.0417537699148909
 30
0.0
  9
$EXTMAX
 10
3931.6646862901429813
 20
235.8872193121110001
 30
0.0
  9
$LIMMIN
 10
0.0
 20
0.0
  9
$LIMMAX
 10
11.6929133858000007
 20
8.2677165353999982
  9
$ORTHOMODE
 70
     0
  9
$REGENMODE
 70
     1
  9
$FILLMODE
 70
     1
  9
$QTEXTMODE
 70
     0
  9
$MIRRTEXT
 70
     0
  9
$DRAGMODE
 70
     2
  9
$LTSCALE
 40
0.6431102362
  9
$OSMODE
 70
  4095
  9
$ATTMODE
 70
     1
  9
$TEXTSIZE
 40
0.2
  9
$TRACEWID
 40
0.05
  9
$TEXTSTYLE
  7
STANDARD
  9
$CLAYER
  8
0
  9
$CELTYPE
  6
BYLAYER
  9
$CECOLOR
 62
   256
  9
$DIMSCALE
 40
1.0
  9
$DIMASZ
 40
0.1875
  9
$DIMEXO
 40
0.0625
  9
$DIMDLI
 40
0.4443307087
  9
$DIMRND
 40
0.0
  9
$DIMDLE
 40
0.0
  9
$DIMEXE
 40
0.125
  9
$DIMTP
 40
0.01
  9
$DIMTM
 40
0.01
  9
$DIMTXT
 40
2.0
  9
$DIMCEN
 40
0.1052362205
  9
$DIMTSZ
 40
0.0
  9
$DIMTOL
 70
     1
  9
$DIMLIM
 70
     0
  9
$DIMTIH
 70
     1
  9
$DIMTOH
 70
     1
  9
$DIMSE1
 70
     0
  9
$DIMSE2
 70
     0
  9
$DIMTAD
 70
     0
  9
$DIMZIN
 70
     0
  9
$DIMBLK
  1

  9
$DIMASO
 70
     1
  9
$DIMSHO
 70
     1
  9
$DIMPOST
  1
\X
  9
$DIMAPOST
  1

  9
$DIMALT
 70
     1
  9
$DIMALTD
 70
     2
  9
$DIMALTF
 40
25.3999999999999986
  9
$DIMLFAC
 40
1.0
  9
$DIMTOFL
 70
     0
  9
$DIMTVP
 40
0.0
  9
$DIMTIX
 70
     0
  9
$DIMSOXD
 70
     0
  9
$DIMSAH
 70
     0
  9
$DIMBLK1
  1

  9
$DIMBLK2
  1

  9
$DIMSTYLE
  2
STANDARD
  9
$DIMCLRD
 70
     0
  9
$DIMCLRE
 70
     0
  9
$DIMCLRT
 70
     0
  9
$DIMTFAC
 40
1.0
  9
$DIMGAP
 40
0.09
  9
$LUNITS
 70
     2
  9
$LUPREC
 70
     4
  9
$SKETCHINC
 40
0.1
  9
$FILLETRAD
 40
0.0
  9
$AUNITS
 70
     0
  9
$AUPREC
 70
     0
  9
$MENU
  1
.
  9
$ELEVATION
 40
0.0
  9
$PELEVATION
 40
0.0
  9
$THICKNESS
 40
0.0
  9
$LIMCHECK
 70
     0
  9
$BLIPMODE
 70
     0
  9
$CHAMFERA
 40
0.0
  9
$CHAMFERB
 40
0.0
  9
$SKPOLY
 70
     0
  9
$TDCREATE
 40
2458060.468368056230247
  9
$TDUPDATE
 40
2459947.481597222853452
  9
$TDINDWG
 40
0.6333866898
  9
$TDUSRTIMER
 40
0.6333866898
  9
$USRTIMER
 70
     1
  9
$ANGBASE
 50
0.0
  9
$ANGDIR
 70
     0
  9
$PDMODE
 70
     0
  9
$PDSIZE
 40
0.3125
  9
$PLINEWID
 40
0.0
  9
$COORDS
 70
     1
  9
$SPLFRAME
 70
     0
  9
$SPLINETYPE
 70
     6
  9
$SPLINESEGS
 70
     8
  9
$ATTDIA
 70
     1
  9
$ATTREQ
 70
     1
  9
$HANDLING
 70
     1
  9
$HANDSEED
  5
C8AF
  9
$SURFTAB1
 70
     6
  9
$SURFTAB2
 70
     6
  9
$SURFTYPE
 70
     6
  9
$SURFU
 70
     6
  9
$SURFV
 70
     6
  9
$UCSNAME
  2

  9
$UCSORG
 10
0.0
 20
0.0
 30
0.0
  9
$UCSXDIR
 10
1.0
 20
0.0
 30
0.0
  9
$UCSYDIR
 10
0.0
 20
1.0
 30
0.0
  9
$PUCSNAME
  2

  9
$PUCSORG
 10
0.0
 20
0.0
 30
0.0
  9
$PUCSXDIR
 10
1.0
 20
0.0
 30
0.0
  9
$PUCSYDIR
 10
0.0
 20
1.0
 30
0.0
  9
$USERI1
 70
     0
  9
$USERI2
 70
     0
  9
$USERI3
 70
     0
  9
$USERI4
 70
     0
  9
$USERI5
 70
     0
  9
$USERR1
 40
0.0
  9
$USERR2
 40
0.0
  9
$USERR3
 40
0.0
  9
$USERR4
 40
0.0
  9
$USERR5
 40
0.0
  9
$WORLDVIEW
 70
     1
  9
$SHADEDGE
 70
     3
  9
$SHADEDIF
 70
    70
  9
$TILEMODE
 70
     1
  9
$MAXACTVP
 70
    64
  9
$PLIMCHECK
 70
     0
  9
$PEXTMIN
 10
1.0000000000000000E+20
 20
1.0000000000000000E+20
 30
1.0000000000000000E+20
  9
$PEXTMAX
 10
-1.0000000000000000E+20
 20
-1.0000000000000000E+20
 30
-1.0000000000000000E+20
  9
$PLIMMIN
 10
0.0
 20
0.0
  9
$PLIMMAX
 10
12.0
 20
9.0
  9
$UNITMODE
 70
     0
  9
$VISRETAIN
 70
     1
  9
$PLINEGEN
 70
     0
  9
$PSLTSCALE
 70
     1
  0
ENDSEC
  0
SECTION
  2
TABLES
  0
TABLE
  2
VPORT
 70
     1
  0
VPORT
  2
*ACTIVE
 70
     0
 10
0.0
 20
0.0
 11
1.0
 21
1.0
 12
43.8512048449290432
 22
13.6396372967864892
 13
0.0
 23
0.0
 14
1.0
 24
1.0
 15
0.0
 25
0.0
 16
0.0
 26
0.0
 36
49.4172280973888718
 17
3886.6934814453129547
 27
218.324849244226499
 37
0.0
 40
7.8984158158217559
 41
1.7905405405405399
 42
50.0
 43
0.0
 44
0.0
 50
0.0
 51
0.0
 71
     0
 72
   100
 73
     1
 74
     1
 75
     0
 76
     0
 77
     0
 78
     0
  0
ENDTAB
  0
TABLE
  2
LTYPE
 70
     3
  0
LTYPE
  2
CONTINUOUS
 70
     0
  3
Solid line
 72
    65
 73
     0
 40
0.0
  0
LTYPE
  2
PHANTOM2
 70
     0
  3
___ _ _ ___ _ _ ___ _ _ ___ _ _
 72
    65
 73
     6
 40
1.25
 49
0.625
 49
-0.125
 49
0.125
 49
-0.125
 49
0.125
 49
-0.125
  0
ENDTAB
  0
TABLE
  2
LAYER
 70
     2
  0
LAYER
  2
0
 70
     0
 62
   255
  6
CONTINUOUS
  0
LAYER
  2
DEFPOINTS
 70
     0
 62
     7
  6
CONTINUOUS
  0
ENDTAB
  0
TABLE
  2
STYLE
 70
     1
  0
STYLE
  2
STANDARD
 70
     0
 40
0.0
 41
0.8
 50
0.0
 71
     0
 42
0.2
  3
txt
  4

  0
ENDTAB
  0
TABLE
  2
VIEW
 70
     0
  0
ENDTAB
  0
TABLE
  2
UCS
 70
     0
  0
ENDTAB
  0
TABLE
  2
APPID
 70
     9
  0
APPID
  2
ACAD
 70
     0
  0
APPID
  2
ACAD_MLEADERVER
 70
     0
  0
APPID
  2
ACAD_EXEMPT_FROM_CAD_STANDARDS
 70
     0
  0
APPID
  2
ACAD_NAV_VCDISPLAY
 70
     0
  0
APPID
  2
ACAECLAYERSTANDARD
 70
     0
  0
APPID
  2
ACCMTRANSPARENCY
 70
     0
  0
APPID
  2
ACAD_DSTYLE_DIMJAG
 70
     0
  0
APPID
  2
ACAD_DSTYLE_DIMTALN
 70
     0
  0
APPID
  2
ACDBATTR
 70
     0
  0
ENDTAB
  0
TABLE
  2
DIMSTYLE
 70
     2
  0
DIMSTYLE
  2
STANDARD
 70
     0
  3

  4

  5

  6

  7

 40
1.0
 41
0.1875
 42
0.0625
 43
0.38
 44
0.125
 45
0.0
 46
0.0
 47
0.01
 48
0.01
140
0.15625
141
0.09
142
0.0
143
25.3999999999999986
144
1.0
145
0.0
146
1.0
147
0.09
 71
     1
 72
     0
 73
     1
 74
     1
 75
     0
 76
     0
 77
     0
 78
     4
170
     0
171
     2
172
     0
173
     0
174
     0
175
     0
176
     0
177
     0
178
     0
  0
ENDTAB
  0
ENDSEC
  0
SECTION
  2
BLOCKS
  0
BLOCK
  8
0
  2
$MODEL_SPACE
 70
     0
 10
0.0
 20
0.0
 30
0.0
  3
$MODEL_SPACE
  1

  0
ENDBLK
  5
21
  8
0
  0
BLOCK
 67
     1
  8
0
  2
$PAPER_SPACE
 70
     0
 10
0.0
 20
0.0
 30
0.0
  3
$PAPER_SPACE
  1

  0
ENDBLK
  5
1D
 67
     1
  8
0
  0
ENDSEC
  0
SECTION
  2
ENTITIES
  0
ATTDEF
  5
3930
  8
DEFPOINTS
 10
3930.5419553263409398
 20
228.0478828522726076
 30
0.0
 40
0.001
  1
K-14402ME-4AND
  3

  2
MODELNUMBER
 70
     0
1001
ACDBATTR
1070
     0
1070
     1
  0
ATTDEF
  5
3931
  8
DEFPOINTS
 10
3930.5419553263409398
 20
228.046216185605914
 30
0.0
 40
0.001
  1
PURIST
  3

  2
TRADENAME
 70
     0
1001
ACDBATTR
1070
     0
1070
     1
  0
ATTDEF
  5
3932
  8
DEFPOINTS
 10
3930.5419553263409398
 20
228.044549518939192
 30
0.0
 40
0.001
  1
BATHROOM SINK FAUCET
  3

  2
PRODUCT
 70
     0
1001
ACDBATTR
1070
     0
1070
     1
  0
ARC
  5
C587
  8
0
 10
3930.5499539180418651
 20
231.0480728918464877
 30
0.0
 40
0.6531824356226172
 50
244.1572411163384118
 51
269.537929839836977
  0
ARC
  5
C588
  8
0
 10
3930.549799763899955
 20
230.8875534840161095
 30
0.0
 40
0.4365000652408714
 50
234.0247718645638884
 51
269.3287809459570781
  0
ARC
  5
C589
  8
0
 10
3930.3665007510307987
 20
230.6341970162366977
 30
0.0
 40
0.1237906563468106
 50
162.5291791066173914
 51
233.7970619484464976
  0
ARC
  5
C58A
  8
0
 10
3930.414980410372209
 20
230.5912625866816086
 30
0.0
 40
0.1848188622273377
 50
108.4826069084570008
 51
154.3170326982159111
  0
ARC
  5
C58B
  8
0
 10
3930.5480550108759417
 20
230.2891741018050027
 30
0.0
 40
0.5144141090574896
 50
90.3752129866611966
 51
111.8754052154193062
  0
LINE
  5
C58C
  8
0
 10
3929.4546862903412148
 20
228.0417537699148909
 30
0.0
 11
3931.6346862901427812
 21
228.0417537699148909
 31
0.0
  0
LINE
  5
C58D
  8
0
 10
3929.6346862902910289
 20
228.3917537699147999
 30
0.0
 11
3929.6346862902910289
 21
233.4967537699147897
 31
0.0
  0
LINE
  5
C58E
  8
0
 10
3929.4546862902911926
 20
228.2117537699149068
 30
0.0
 11
3931.6346862901909844
 21
228.2117537699149068
 31
0.0
  0
ARC
  5
C58F
  8
0
 10
3929.4546862902911926
 20
228.3917537699147999
 30
0.0
 40
0.1799999999999997
 50
270.0
 51
0.0
  0
LINE
  5
C590
  8
0
 10
3929.6346862902910289
 20
233.4967537699147897
 30
0.0
 11
3931.4546862901920576
 21
233.4967537699147897
 31
0.0
  0
LINE
  5
C591
  8
0
 10
3929.6664752643441716
 20
233.6222177165304004
 30
0.0
 11
3931.4228973161389149
 21
233.6222177165304004
 31
0.0
  0
LINE
  5
C592
  8
0
 10
3929.6364934603639085
 20
233.6532624318363105
 30
0.0
 11
3929.6624553651809038
 21
234.3983311953207078
 31
0.0
  0
ARC
  5
C593
  8
0
 10
3929.6664752643441716
 20
233.6522177165304015
 30
0.0
 40
0.03
 50
178.0043372438813094
 51
270.0
  0
LINE
  5
C594
  8
0
 10
3929.6924371691611668
 20
234.4272864800148
 30
0.0
 11
3931.3969354113228292
 21
234.4272864800148
 31
0.0
  0
ARC
  5
C595
  8
0
 10
3929.6924371691611668
 20
234.3972864800147988
 30
0.0
 40
0.03
 50
90.0
 51
178.0043372438813094
  0
LINE
  5
C596
  8
0
 10
3930.3473884526229085
 20
235.0022193143308016
 30
0.0
 11
3930.741984127860178
 21
235.0022193143308016
 31
0.0
  0
LINE
  5
C597
  8
0
 10
3930.139686290291138
 20
231.6467537699649029
 30
0.0
 11
3930.139686290291138
 21
230.6307704179016014
 31
0.0
  0
ARC
  5
C598
  8
0
 10
3929.9747497976059094
 20
234.763589350730399
 30
0.0
 40
0.3500000000000004
 50
286.0821825944316856
 51
358.9272476467858155
  0
ARC
  5
C599
  8
0
 10
3930.392533671019919
 20
230.7028038423734984
 30
0.0
 40
0.2739647461260457
 50
214.4960867788778955
 51
242.3109785801829901
  0
ARC
  5
C59A
  8
0
 10
3930.3136631731540547
 20
230.641428743628893
 30
0.0
 40
0.1743030569956239
 50
183.5057232942540111
 51
212.5514062296497002
  0
ARC
  5
C59B
  8
0
 10
3930.3346528302781735
 20
230.6097832202524103
 30
0.0
 40
0.1960928713124855
 50
121.6872261349007971
 51
173.8560467059907069
  0
ARC
  5
C59C
  8
0
 10
3930.5478307268449498
 20
230.2341413835237063
 30
0.0
 40
0.6279174369079698
 50
90.2869225932229398
 51
120.2345240949989034
  0
ARC
  5
C59D
  8
0
 10
3930.3633052971590587
 20
230.8924142404918882
 30
0.0
 40
0.2266904358740153
 50
123.5253024735027054
 51
170.5575900999940018
  0
ARC
  5
C59E
  8
0
 10
3930.5491481259177817
 20
230.5186509781501911
 30
0.0
 40
0.6429833235636169
 50
90.3975941450993474
 51
118.9308066780493931
  0
ARC
  5
C59F
  8
0
 10
3930.5446862902408611
 20
231.6467537699649029
 30
0.0
 40
0.4049999999500012
 50
0.0
 51
180.0
  0
ARC
  5
C5A0
  8
0
 10
3929.7696862902907924
 20
233.5467537699148011
 30
0.0
 40
0.060000000000014
 50
303.5573097619139276
 51
0.0
  0
LINE
  5
C5A1
  8
0
 10
3929.8296862902921021
 20
233.5467537699148011
 30
0.0
 11
3929.8296862902921021
 21
233.6222177165304004
 31
0.0
  0
LINE
  5
C5A2
  8
0
 10
3930.2936862902920439
 20
230.6904317528787942
 30
0.0
 11
3930.2936862902920439
 21
230.6276844345113943
 31
0.0
  0
LINE
  5
C5A3
  8
0
 10
3930.2967765167918515
 20
230.7154729671902089
 30
0.0
 11
3930.2967765167918515
 21
230.7333395073179076
 31
0.0
  0
ARC
  5
C5A4
  8
0
 10
3930.3794903609091307
 20
230.6925543314212916
 30
0.0
 40
0.0858303202501421
 50
164.5128289253109983
 51
181.4170655693314984
  0
ARC
  5
C5A5
  8
0
 10
3930.5443999036510832
 20
230.906834855589608
 30
0.0
 40
0.4224822751652769
 50
256.0094883944040021
 51
270.0388388938354183
  0
ARC
  5
C5A6
  8
0
 10
3930.5150977127382248
 20
230.7892272193936947
 30
0.0
 40
0.3012792451543225
 50
238.1214078281956006
 51
256.0094883944040021
  0
ARC
  5
C5A7
  8
0
 10
3930.4371248204361109
 20
230.6638541376781859
 30
0.0
 40
0.1536371727190638
 50
211.3930701537566961
 51
238.1214078281956006
  0
ARC
  5
C5A8
  8
0
 10
3930.3776545439918664
 20
230.6275631980132061
 30
0.0
 40
0.0839683412237187
 50
179.9172742729176946
 51
211.3930701537566961
  0
ARC
  5
C5A9
  8
0
 10
3930.3789281288459279
 20
230.6893854193087066
 30
0.0
 40
0.1166795794952703
 50
193.2828560591455869
 51
224.8603767439049079
  0
ARC
  5
C5AA
  8
0
 10
3930.3486448894059322
 20
230.6822363318202065
 30
0.0
 40
0.085563923582524
 50
168.7970410453849865
 51
193.2828560591455869
  0
ARC
  5
C5AB
  8
0
 10
3930.389784850624892
 20
230.7379972135865955
 30
0.0
 40
0.1291293573638602
 50
196.7376836636445034
 51
221.909241853180589
  0
LINE
  5
C5AC
  8
0
 10
3930.2936862902920439
 20
230.6723025611902926
 30
0.0
 11
3930.272084308292051
 21
230.6882559984902912
 31
0.0
  0
LINE
  5
C5AD
  8
0
 10
3930.272084308292051
 20
230.6882559984902912
 30
0.0
 11
3930.2687883931971555
 21
230.7043373670227027
 31
0.0
  0
ARC
  5
C5AE
  8
0
 10
3930.4931731386332103
 20
230.8206415410602119
 30
0.0
 40
0.3250989577982019
 50
232.3779553560281101
 51
256.0536347229710259
  0
ARC
  5
C5AF
  8
0
 10
3930.3860406840908581
 20
230.6816378805139038
 30
0.0
 40
0.1496014351330997
 50
196.7489070639223883
 51
232.3779553560281101
  0
ARC
  5
C5B0
  8
0
 10
3930.5619084469981317
 20
230.2045436865907959
 30
0.0
 40
0.568746677431884
 50
91.7352325664501649
 51
98.9411819910811943
  0
ARC
  5
C5B1
  8
0
 10
3930.532645464325924
 20
230.4143577758150059
 30
0.0
 40
0.3569532943350222
 50
99.5354147790120152
 51
114.8603255740513021
  0
ARC
  5
C5B2
  8
0
 10
3930.4643774907108309
 20
230.5616955992933867
 30
0.0
 40
0.1945681027417885
 50
114.8603255740518989
 51
140.1807055317937056
  0
ARC
  5
C5B3
  8
0
 10
3930.3856324113507981
 20
230.6273484638394962
 30
0.0
 40
0.0920445144973671
 50
140.1807055317937056
 51
177.3505212721007922
  0
ARC
  5
C5B4
  8
0
 10
3930.3114102250501674
 20
230.6372912957268966
 30
0.0
 40
0.0147380656447447
 50
239.1369001581180953
 51
306.374801373175103
  0
ARC
  5
C5B5
  8
0
 10
3930.3180647308818152
 20
230.628257027741995
 30
0.0
 40
0.0035175288534599
 50
306.3748013731531046
 51
40.94226136898736
  0
ARC
  5
C5B6
  8
0
 10
3930.3115246133420442
 20
230.6202245391760073
 30
0.0
 40
0.013836616045197
 50
48.3409307948052103
 51
131.8193141640761894
  0
ARC
  5
C5B7
  8
0
 10
3930.3056480836257833
 20
230.6282654127300873
 30
0.0
 40
0.004046734596848
 50
145.8636590973461011
 51
243.6158597563207877
  0
ARC
  5
C5B8
  8
0
 10
3930.3241413242408271
 20
230.5881555798704028
 30
0.0
 40
0.0147380656447447
 50
239.1369001581180953
 51
306.374801373175103
  0
ARC
  5
C5B9
  8
0
 10
3930.3307958300720202
 20
230.5791213118855012
 30
0.0
 40
0.0035175288534599
 50
306.3748013731531046
 51
40.94226136898736
  0
ARC
  5
C5BA
  8
0
 10
3930.3242557125317944
 20
230.5710888233195135
 30
0.0
 40
0.013836616045197
 50
48.3409307948052103
 51
131.8193141640761894
  0
ARC
  5
C5BB
  8
0
 10
3930.3183791828159883
 20
230.5791296968735082
 30
0.0
 40
0.004046734596848
 50
145.8636590973461011
 51
243.6158597563207877
  0
ARC
  5
C5BC
  8
0
 10
3930.3771542438339566
 20
230.5411399978040947
 30
0.0
 40
0.0147380656447447
 50
239.1369001581180953
 51
306.374801373175103
  0
ARC
  5
C5BD
  8
0
 10
3930.3838087496651497
 20
230.5321057298191079
 30
0.0
 40
0.0035175288534599
 50
306.3748013731531046
 51
40.94226136898736
  0
ARC
  5
C5BE
  8
0
 10
3930.3772686321240144
 20
230.5240732412532054
 30
0.0
 40
0.013836616045197
 50
48.3409307948052103
 51
131.8193141640761894
  0
ARC
  5
C5BF
  8
0
 10
3930.3713921024082083
 20
230.5321141148072002
 30
0.0
 40
0.004046734596848
 50
145.8636590973461011
 51
243.6158597563207877
  0
ARC
  5
C5C0
  8
0
 10
3930.4539448004361475
 20
230.5125409483819965
 30
0.0
 40
0.0147380656447447
 50
239.1369001581180953
 51
306.374801373175103
  0
ARC
  5
C5C1
  8
0
 10
3930.4605993062668858
 20
230.5035066803970096
 30
0.0
 40
0.0035175288534599
 50
306.3748013731531046
 51
40.94226136898736
  0
ARC
  5
C5C2
  8
0
 10
3930.4540591887280243
 20
230.4954741918311925
 30
0.0
 40
0.013836616045197
 50
48.3409307948052103
 51
131.8193141640761894
  0
ARC
  5
C5C3
  8
0
 10
3930.448182659010854
 20
230.5035150653851019
 30
0.0
 40
0.004046734596848
 50
145.8636590973461011
 51
243.6158597563207877
  0
ARC
  5
C5C4
  8
0
 10
3930.5060974015141255
 20
230.5243170190022113
 30
0.0
 40
0.0147380656447447
 50
239.1369001581180953
 51
306.374801373175103
  0
ARC
  5
C5C5
  8
0
 10
3930.5127519073457734
 20
230.5152827510173097
 30
0.0
 40
0.0035175288534599
 50
306.3748013731531046
 51
40.94226136898736
  0
ARC
  5
C5C6
  8
0
 10
3930.5062117898060023
 20
230.5072502624514073
 30
0.0
 40
0.013836616045197
 50
48.3409307948052103
 51
131.8193141640761894
  0
ARC
  5
C5C7
  8
0
 10
3930.500335260088832
 20
230.515291136005402
 30
0.0
 40
0.004046734596848
 50
145.8636590973461011
 51
243.6158597563207877
  0
ARC
  5
C5C8
  8
0
 10
3930.4873268938417823
 20
230.5578569238697924
 30
0.0
 40
0.0147380656447447
 50
239.1369001581180953
 51
306.374801373175103
  0
ARC
  5
C5C9
  8
0
 10
3930.4939813996738849
 20
230.5488226558848055
 30
0.0
 40
0.0035175288534599
 50
306.3748013731531046
 51
40.94226136898736
  0
ARC
  5
C5CA
  8
0
 10
3930.4874412821341139
 20
230.5407901673189031
 30
0.0
 40
0.013836616045197
 50
48.3409307948052103
 51
131.8193141640761894
  0
ARC
  5
C5CB
  8
0
 10
3930.4815647524169435
 20
230.5488310408728978
 30
0.0
 40
0.004046734596848
 50
145.8636590973461011
 51
243.6158597563207877
  0
ARC
  5
C5CC
  8
0
 10
3930.4337135722521452
 20
230.5421424094296867
 30
0.0
 40
0.0147380656447447
 50
239.1369001581180953
 51
306.374801373175103
  0
ARC
  5
C5CD
  8
0
 10
3930.4403680780837931
 20
230.5331081414446999
 30
0.0
 40
0.0035175288534599
 50
306.3748013731531046
 51
40.94226136898736
  0
ARC
  5
C5CE
  8
0
 10
3930.4338279605431126
 20
230.5250756528787974
 30
0.0
 40
0.013836616045197
 50
48.3409307948052103
 51
131.8193141640761894
  0
ARC
  5
C5CF
  8
0
 10
3930.4279514308268517
 20
230.5331165264327922
 30
0.0
 40
0.004046734596848
 50
145.8636590973461011
 51
243.6158597563207877
  0
ARC
  5
C5D0
  8
0
 10
3930.4379369150037746
 20
230.5773240959607051
 30
0.0
 40
0.0147380656447447
 50
239.1369001581180953
 51
306.374801373175103
  0
ARC
  5
C5D1
  8
0
 10
3930.4445914208358772
 20
230.5682898279756898
 30
0.0
 40
0.0035175288534599
 50
306.3748013731531046
 51
40.94226136898736
  0
ARC
  5
C5D2
  8
0
 10
3930.4380513032961062
 20
230.5602573394097874
 30
0.0
 40
0.013836616045197
 50
48.3409307948052103
 51
131.8193141640761894
  0
ARC
  5
C5D3
  8
0
 10
3930.4321747735789359
 20
230.5682982129638106
 30
0.0
 40
0.004046734596848
 50
145.8636590973461011
 51
243.6158597563207877
  0
ARC
  5
C5D4
  8
0
 10
3930.4886173716140547
 20
230.5896377007875913
 30
0.0
 40
0.0147380656447447
 50
239.1369001581180953
 51
306.374801373175103
  0
ARC
  5
C5D5
  8
0
 10
3930.4952718774447931
 20
230.5806034328026044
 30
0.0
 40
0.0035175288534599
 50
306.3748013731531046
 51
40.94226136898736
  0
ARC
  5
C5D6
  8
0
 10
3930.488731759905022
 20
230.572570944236702
 30
0.0
 40
0.013836616045197
 50
48.3409307948052103
 51
131.8193141640761894
  0
ARC
  5
C5D7
  8
0
 10
3930.4828552301878517
 20
230.5806118177906967
 30
0.0
 40
0.004046734596848
 50
145.8636590973461011
 51
243.6158597563207877
  0
ARC
  5
C5D8
  8
0
 10
3930.3770500539021668
 20
230.5745095784874934
 30
0.0
 40
0.0147380656447447
 50
239.1369001581180953
 51
306.374801373175103
  0
ARC
  5
C5D9
  8
0
 10
3930.3837045597329052
 20
230.5654753105025065
 30
0.0
 40
0.0035175288534599
 50
306.3748013731531046
 51
40.94226136898736
  0
ARC
  5
C5DA
  8
0
 10
3930.3771644421931342
 20
230.5574428219366041
 30
0.0
 40
0.013836616045197
 50
48.3409307948052103
 51
131.8193141640761894
  0
ARC
  5
C5DB
  8
0
 10
3930.3712879124768733
 20
230.5654836954905988
 30
0.0
 40
0.004046734596848
 50
145.8636590973461011
 51
243.6158597563207877
  0
ARC
  5
C5DC
  8
0
 10
3930.5250837618641526
 20
230.5815287379647032
 30
0.0
 40
0.0147380656447447
 50
239.1369001581180953
 51
306.374801373175103
  0
ARC
  5
C5DD
  8
0
 10
3930.5317382676958005
 20
230.5724944699798016
 30
0.0
 40
0.0035175288534599
 50
306.3748013731531046
 51
40.94226136898736
  0
ARC
  5
C5DE
  8
0
 10
3930.5251981501560294
 20
230.5644619814138139
 30
0.0
 40
0.013836616045197
 50
48.3409307948052103
 51
131.8193141640761894
  0
ARC
  5
C5DF
  8
0
 10
3930.5193216204402233
 20
230.5725028549678086
 30
0.0
 40
0.004046734596848
 50
145.8636590973461011
 51
243.6158597563207877
  0
ARC
  5
C5E0
  8
0
 10
3930.5087553184571334
 20
230.6167999973733913
 30
0.0
 40
0.0147380656447447
 50
239.1369001581180953
 51
306.374801373175103
  0
ARC
  5
C5E1
  8
0
 10
3930.5154098242878717
 20
230.6077657293884045
 30
0.0
 40
0.0035175288534599
 50
306.3748013731531046
 51
40.94226136898736
  0
ARC
  5
C5E2
  8
0
 10
3930.5088697067481007
 20
230.599733240822502
 30
0.0
 40
0.013836616045197
 50
48.3409307948052103
 51
131.8193141640761894
  0
ARC
  5
C5E3
  8
0
 10
3930.5029931770318399
 20
230.6077741143764968
 30
0.0
 40
0.004046734596848
 50
145.8636590973461011
 51
243.6158597563207877
  0
ARC
  5
C5E4
  8
0
 10
3930.4943133007509459
 20
230.637530873937493
 30
0.0
 40
0.0147380656447447
 50
239.1369001581180953
 51
306.374801373175103
  0
ARC
  5
C5E5
  8
0
 10
3930.500967806582139
 20
230.6284966059525061
 30
0.0
 40
0.0035175288534599
 50
306.3748013731531046
 51
40.94226136898736
  0
ARC
  5
C5E6
  8
0
 10
3930.4944276890419133
 20
230.6204641173866037
 30
0.0
 40
0.013836616045197
 50
48.3409307948052103
 51
131.8193141640761894
  0
ARC
  5
C5E7
  8
0
 10
3930.4885511593261072
 20
230.6285049909405984
 30
0.0
 40
0.004046734596848
 50
145.8636590973461011
 51
243.6158597563207877
  0
ARC
  5
C5E8
  8
0
 10
3930.4605208772550213
 20
230.6055431877049955
 30
0.0
 40
0.0147380656447447
 50
239.1369001581180953
 51
306.374801373175103
  0
ARC
  5
C5E9
  8
0
 10
3930.4671753830871239
 20
230.5965089197200086
 30
0.0
 40
0.0035175288534599
 50
306.3748013731531046
 51
40.94226136898736
  0
ARC
  5
C5EA
  8
0
 10
3930.4606352655459887
 20
230.5884764311541062
 30
0.0
 40
0.013836616045197
 50
48.3409307948052103
 51
131.8193141640761894
  0
ARC
  5
C5EB
  8
0
 10
3930.4547587358301826
 20
230.5965173047081009
 30
0.0
 40
0.004046734596848
 50
145.8636590973461011
 51
243.6158597563207877
  0
ARC
  5
C5EC
  8
0
 10
3930.4462790525149103
 20
230.6263864043455101
 30
0.0
 40
0.0147380656447447
 50
239.1369001581180953
 51
306.374801373175103
  0
ARC
  5
C5ED
  8
0
 10
3930.4529335583470129
 20
230.6173521363604948
 30
0.0
 40
0.0035175288534599
 50
306.3748013731531046
 51
40.94226136898736
  0
ARC
  5
C5EE
  8
0
 10
3930.4463934408058776
 20
230.6093196477945924
 30
0.0
 40
0.013836616045197
 50
48.3409307948052103
 51
131.8193141640761894
  0
ARC
  5
C5EF
  8
0
 10
3930.4405169110900715
 20
230.6173605213485871
 30
0.0
 40
0.004046734596848
 50
145.8636590973461011
 51
243.6158597563207877
  0
ARC
  5
C5F0
  8
0
 10
3930.4057175743660082
 20
230.6055431877049955
 30
0.0
 40
0.0147380656447447
 50
239.1369001581180953
 51
306.374801373175103
  0
ARC
  5
C5F1
  8
0
 10
3930.4123720801981108
 20
230.5965089197200086
 30
0.0
 40
0.0035175288534599
 50
306.3748013731531046
 51
40.94226136898736
  0
ARC
  5
C5F2
  8
0
 10
3930.4058319626569755
 20
230.5884764311541062
 30
0.0
 40
0.013836616045197
 50
48.3409307948052103
 51
131.8193141640761894
  0
ARC
  5
C5F3
  8
0
 10
3930.3999554329411694
 20
230.5965173047081009
 30
0.0
 40
0.004046734596848
 50
145.8636590973461011
 51
243.6158597563207877
  0
ARC
  5
C5F4
  8
0
 10
3930.3486620338808279
 20
230.6149238624286966
 30
0.0
 40
0.0147380656447447
 50
239.1369001581180953
 51
306.374801373175103
  0
ARC
  5
C5F5
  8
0
 10
3930.355316539712021
 20
230.6058895944437097
 30
0.0
 40
0.0035175288534599
 50
306.3748013731531046
 51
40.94226136898736
  0
ARC
  5
C5F6
  8
0
 10
3930.3487764221717953
 20
230.5978571058778073
 30
0.0
 40
0.013836616045197
 50
48.3409307948052103
 51
131.8193141640761894
  0
ARC
  5
C5F7
  8
0
 10
3930.3428998924559892
 20
230.605897979431802
 30
0.0
 40
0.004046734596848
 50
145.8636590973461011
 51
243.6158597563207877
  0
ARC
  5
C5F8
  8
0
 10
3930.3944148993850831
 20
230.6373320591414995
 30
0.0
 40
0.0147380656447447
 50
239.1369001581180953
 51
306.374801373175103
  0
ARC
  5
C5F9
  8
0
 10
3930.4010694052171857
 20
230.6282977911565979
 30
0.0
 40
0.0035175288534599
 50
306.3748013731531046
 51
40.94226136898736
  0
ARC
  5
C5FA
  8
0
 10
3930.3945292876760504
 20
230.6202653025906102
 30
0.0
 40
0.013836616045197
 50
48.3409307948052103
 51
131.8193141640761894
  0
ARC
  5
C5FB
  8
0
 10
3930.3886527579597896
 20
230.6283061761446902
 30
0.0
 40
0.004046734596848
 50
145.8636590973461011
 51
243.6158597563207877
  0
ARC
  5
C5FC
  8
0
 10
3930.4461961184019856
 20
230.6482361620440997
 30
0.0
 40
0.0147380656447447
 50
239.1369001581180953
 51
306.374801373175103
  0
ARC
  5
C5FD
  8
0
 10
3930.4528506242331787
 20
230.6392018940591129
 30
0.0
 40
0.0035175288534599
 50
306.3748013731531046
 51
40.94226136898736
  0
ARC
  5
C5FE
  8
0
 10
3930.4463105066938624
 20
230.6311694054932104
 30
0.0
 40
0.013836616045197
 50
48.3409307948052103
 51
131.8193141640761894
  0
ARC
  5
C5FF
  8
0
 10
3930.4404339769780563
 20
230.6392102790472052
 30
0.0
 40
0.004046734596848
 50
145.8636590973461011
 51
243.6158597563207877
  0
ARC
  5
C600
  8
0
 10
3930.5093192153258315
 20
230.6579363899359976
 30
0.0
 40
0.0147380656447447
 50
239.1369001581180953
 51
306.374801373175103
  0
ARC
  5
C601
  8
0
 10
3930.5159737211579341
 20
230.6489021219510107
 30
0.0
 40
0.0035175288534599
 50
306.3748013731531046
 51
40.94226136898736
  0
ARC
  5
C602
  8
0
 10
3930.5094336036167988
 20
230.6408696333851083
 30
0.0
 40
0.013836616045197
 50
48.3409307948052103
 51
131.8193141640761894
  0
ARC
  5
C603
  8
0
 10
3930.5035570739009927
 20
230.648910506939103
 30
0.0
 40
0.004046734596848
 50
145.8636590973461011
 51
243.6158597563207877
  0
ARC
  5
C604
  8
0
 10
3930.488674147824895
 20
230.6853279019649108
 30
0.0
 40
0.0147380656447447
 50
239.1369001581180953
 51
306.374801373175103
  0
ARC
  5
C605
  8
0
 10
3930.4953286536569976
 20
230.6762936339798955
 30
0.0
 40
0.0035175288534599
 50
306.3748013731531046
 51
40.94226136898736
  0
ARC
  5
C606
  8
0
 10
3930.4887885361158624
 20
230.6682611454139931
 30
0.0
 40
0.013836616045197
 50
48.3409307948052103
 51
131.8193141640761894
  0
ARC
  5
C607
  8
0
 10
3930.4829120064000563
 20
230.6763020189679878
 30
0.0
 40
0.004046734596848
 50
145.8636590973461011
 51
243.6158597563207877
  0
ARC
  5
C608
  8
0
 10
3930.4607094155080631
 20
230.6688179435332984
 30
0.0
 40
0.0147380656447447
 50
239.1369001581180953
 51
306.374801373175103
  0
ARC
  5
C609
  8
0
 10
3930.4673639213388014
 20
230.6597836755483968
 30
0.0
 40
0.0035175288534599
 50
306.3748013731531046
 51
40.94226136898736
  0
ARC
  5
C60A
  8
0
 10
3930.4608238037990304
 20
230.6517511869824943
 30
0.0
 40
0.013836616045197
 50
48.3409307948052103
 51
131.8193141640761894
  0
ARC
  5
C60B
  8
0
 10
3930.4549472740832243
 20
230.6597920605364891
 30
0.0
 40
0.004046734596848
 50
145.8636590973461011
 51
243.6158597563207877
  0
ARC
  5
C60C
  8
0
 10
3930.4047409548070391
 20
230.6692840327065994
 30
0.0
 40
0.0147380656447447
 50
239.1369001581180953
 51
306.374801373175103
  0
ARC
  5
C60D
  8
0
 10
3930.4113954606377774
 20
230.6602497647216126
 30
0.0
 40
0.0035175288534599
 50
306.3748013731531046
 51
40.94226136898736
  0
ARC
  5
C60E
  8
0
 10
3930.4048553430980064
 20
230.6522172761557101
 30
0.0
 40
0.013836616045197
 50
48.3409307948052103
 51
131.8193141640761894
  0
ARC
  5
C60F
  8
0
 10
3930.3989788133822003
 20
230.6602581497097049
 30
0.0
 40
0.004046734596848
 50
145.8636590973461011
 51
243.6158597563207877
  0
ARC
  5
C610
  8
0
 10
3930.3490382514419252
 20
230.6601877809517873
 30
0.0
 40
0.0147380656447447
 50
239.1369001581180953
 51
306.374801373175103
  0
ARC
  5
C611
  8
0
 10
3930.3556927572740278
 20
230.6511535129668005
 30
0.0
 40
0.0035175288534599
 50
306.3748013731531046
 51
40.94226136898736
  0
ARC
  5
C612
  8
0
 10
3930.3491526397338021
 20
230.643121024400898
 30
0.0
 40
0.013836616045197
 50
48.3409307948052103
 51
131.8193141640761894
  0
ARC
  5
C613
  8
0
 10
3930.3432761100170865
 20
230.6511618979548928
 30
0.0
 40
0.004046734596848
 50
145.8636590973461011
 51
243.6158597563207877
  0
ARC
  5
C614
  8
0
 10
3930.3235009813370198
 20
230.6862919736844901
 30
0.0
 40
0.0147380656447447
 50
239.1369001581180953
 51
306.374801373175103
  0
ARC
  5
C615
  8
0
 10
3930.3301554871691224
 20
230.6772577056995033
 30
0.0
 40
0.0035175288534599
 50
306.3748013731531046
 51
40.94226136898736
  0
ARC
  5
C616
  8
0
 10
3930.3236153696279871
 20
230.6692252171336008
 30
0.0
 40
0.013836616045197
 50
48.3409307948052103
 51
131.8193141640761894
  0
ARC
  5
C617
  8
0
 10
3930.317738839912181
 20
230.6772660906875956
 30
0.0
 40
0.004046734596848
 50
145.8636590973461011
 51
243.6158597563207877
  0
ARC
  5
C618
  8
0
 10
3930.376427491143204
 20
230.6998001258984914
 30
0.0
 40
0.0147380656447447
 50
239.1369001581180953
 51
306.374801373175103
  0
ARC
  5
C619
  8
0
 10
3930.3830819969748518
 20
230.6907658579135045
 30
0.0
 40
0.0035175288534599
 50
306.3748013731531046
 51
40.94226136898736
  0
ARC
  5
C61A
  8
0
 10
3930.3765418794341713
 20
230.6827333693476021
 30
0.0
 40
0.013836616045197
 50
48.3409307948052103
 51
131.8193141640761894
  0
ARC
  5
C61B
  8
0
 10
3930.3706653497179104
 20
230.6907742429015968
 30
0.0
 40
0.004046734596848
 50
145.8636590973461011
 51
243.6158597563207877
  0
ARC
  5
C61C
  8
0
 10
3930.4393011760821537
 20
230.6975487833528859
 30
0.0
 40
0.0147380656447447
 50
239.1369001581180953
 51
306.374801373175103
  0
ARC
  5
C61D
  8
0
 10
3930.4459556819138015
 20
230.6885145153678991
 30
0.0
 40
0.0035175288534599
 50
306.3748013731531046
 51
40.94226136898736
  0
ARC
  5
C61E
  8
0
 10
3930.4394155643740305
 20
230.6804820268019967
 30
0.0
 40
0.013836616045197
 50
48.3409307948052103
 51
131.8193141640761894
  0
ARC
  5
C61F
  8
0
 10
3930.4335390346568602
 20
230.6885229003559914
 30
0.0
 40
0.004046734596848
 50
145.8636590973461011
 51
243.6158597563207877
  0
ARC
  5
C620
  8
0
 10
3930.4870439576220633
 20
230.7173134653590978
 30
0.0
 40
0.0147380656447447
 50
239.1369001581180953
 51
306.374801373175103
  0
ARC
  5
C621
  8
0
 10
3930.4936984634528017
 20
230.7082791973741109
 30
0.0
 40
0.0035175288534599
 50
306.3748013731531046
 51
40.94226136898736
  0
ARC
  5
C622
  8
0
 10
3930.4871583459130306
 20
230.7002467088082085
 30
0.0
 40
0.013836616045197
 50
48.3409307948052103
 51
131.8193141640761894
  0
ARC
  5
C623
  8
0
 10
3930.4812818161972245
 20
230.7082875823622032
 30
0.0
 40
0.004046734596848
 50
145.8636590973461011
 51
243.6158597563207877
  0
ARC
  5
C624
  8
0
 10
3930.5056598553378535
 20
230.7494289772841967
 30
0.0
 40
0.0147380656447447
 50
239.1369001581180953
 51
306.374801373175103
  0
ARC
  5
C625
  8
0
 10
3930.5123143611690466
 20
230.7403947092992098
 30
0.0
 40
0.0035175288534599
 50
306.3748013731531046
 51
40.94226136898736
  0
ARC
  5
C626
  8
0
 10
3930.5057742436279113
 20
230.7323622207333074
 30
0.0
 40
0.013836616045197
 50
48.3409307948052103
 51
131.8193141640761894
  0
ARC
  5
C627
  8
0
 10
3930.4998977139121052
 20
230.7404030942873021
 30
0.0
 40
0.004046734596848
 50
145.8636590973461011
 51
243.6158597563207877
  0
ARC
  5
C628
  8
0
 10
3930.454316036120872
 20
230.7626353542077879
 30
0.0
 40
0.0147380656447447
 50
239.1369001581180953
 51
306.374801373175103
  0
ARC
  5
C629
  8
0
 10
3930.4609705419520651
 20
230.7536010862228011
 30
0.0
 40
0.0035175288534599
 50
306.3748013731531046
 51
40.94226136898736
  0
ARC
  5
C62A
  8
0
 10
3930.4544304244118393
 20
230.7455685976568986
 30
0.0
 40
0.013836616045197
 50
48.3409307948052103
 51
131.8193141640761894
  0
ARC
  5
C62B
  8
0
 10
3930.4485538946951237
 20
230.7536094712108934
 30
0.0
 40
0.004046734596848
 50
145.8636590973461011
 51
243.6158597563207877
  0
ARC
  5
C62C
  8
0
 10
3930.4335983878340812
 20
230.7329210061296862
 30
0.0
 40
0.0147380656447447
 50
239.1369001581180953
 51
306.374801373175103
  0
ARC
  5
C62D
  8
0
 10
3930.4402528936661838
 20
230.7238867381446994
 30
0.0
 40
0.0035175288534599
 50
306.3748013731531046
 51
40.94226136898736
  0
ARC
  5
C62E
  8
0
 10
3930.433712776125958
 20
230.715854249578797
 30
0.0
 40
0.013836616045197
 50
48.3409307948052103
 51
131.8193141640761894
  0
ARC
  5
C62F
  8
0
 10
3930.4278362464101519
 20
230.7238951231327917
 30
0.0
 40
0.004046734596848
 50
145.8636590973461011
 51
243.6158597563207877
  0
ARC
  5
C630
  8
0
 10
3930.3777506946880749
 20
230.7332211334343128
 30
0.0
 40
0.0147380656447447
 50
239.1369001581180953
 51
306.374801373175103
  0
ARC
  5
C631
  8
0
 10
3930.3844052005201775
 20
230.7241868654492976
 30
0.0
 40
0.0035175288534599
 50
306.3748013731531046
 51
40.94226136898736
  0
ARC
  5
C632
  8
0
 10
3930.3778650829799517
 20
230.7161543768833951
 30
0.0
 40
0.013836616045197
 50
48.3409307948052103
 51
131.8193141640761894
  0
ARC
  5
C633
  8
0
 10
3930.3719885532627814
 20
230.7241952504373899
 30
0.0
 40
0.004046734596848
 50
145.8636590973461011
 51
243.6158597563207877
  0
ARC
  5
C634
  8
0
 10
3930.5253313095840895
 20
230.6936290490193926
 30
0.0
 40
0.0147380656447447
 50
239.1369001581180953
 51
306.374801373175103
  0
ARC
  5
C635
  8
0
 10
3930.5319858154161921
 20
230.6845947810344057
 30
0.0
 40
0.0035175288534599
 50
306.3748013731531046
 51
40.94226136898736
  0
ARC
  5
C636
  8
0
 10
3930.5254456978759663
 20
230.6765622924685886
 30
0.0
 40
0.013836616045197
 50
48.3409307948052103
 51
131.8193141640761894
  0
ARC
  5
C637
  8
0
 10
3930.5195691681587959
 20
230.6846031660226117
 30
0.0
 40
0.004046734596848
 50
145.8636590973461011
 51
243.6158597563207877
  0
ARC
  5
C638
  8
0
 10
3930.5447608080539794
 20
230.5014295492294139
 30
0.0
 40
0.0147380656447447
 50
233.625198626824897
 51
300.86309984188199
  0
ARC
  5
C639
  8
0
 10
3930.5381063022218768
 20
230.4923952812443986
 30
0.0
 40
0.0035175288534599
 50
139.0577386310125974
 51
233.6251986268468954
  0
ARC
  5
C63A
  8
0
 10
3930.5446464197630121
 20
230.4843627926784961
 30
0.0
 40
0.013836616045197
 50
48.1806858359238106
 51
131.659069205194811
  0
ARC
  5
C63B
  8
0
 10
3930.5505229494788182
 20
230.4924036662324909
 30
0.0
 40
0.004046734596848
 50
296.3841402436790986
 51
34.1363409026538633
  0
LINE
  5
C63D
  8
0
 10
3929.4246862903410147
 20
228.181753769914792
 30
0.0
 11
3929.4246862903410147
 21
228.071753769914892
 31
0.0
  0
ARC
  5
C63E
  8
0
 10
3929.4546862903412148
 20
228.071753769914892
 30
0.0
 40
0.03
 50
180.0
 51
270.0
  0
ARC
  5
C63F
  8
0
 10
3929.4546862903412148
 20
228.181753769914792
 30
0.0
 40
0.03
 50
90.0
 51
180.0
  0
ARC
  5
C640
  8
0
 10
3930.5394186624412214
 20
231.0480728918464877
 30
0.0
 40
0.6531824356226172
 50
270.462070160163023
 51
295.8427588836614746
  0
ARC
  5
C641
  8
0
 10
3930.5395728165831315
 20
230.8875534840161095
 30
0.0
 40
0.4365000652408714
 50
270.6712190540429219
 51
305.9752281354361116
  0
ARC
  5
C642
  8
0
 10
3930.722871829451833
 20
230.6341970162366977
 30
0.0
 40
0.1237906563468106
 50
306.202938051553474
 51
17.4708208933826086
  0
ARC
  5
C643
  8
0
 10
3930.6743921701108775
 20
230.5912625866816086
 30
0.0
 40
0.1848188622273377
 50
25.6829673017841209
 51
71.517393091542985
  0
ARC
  5
C644
  8
0
 10
3930.5413175696080543
 20
230.2891741018050027
 30
0.0
 40
0.5144141090574896
 50
68.1245947845807223
 51
89.6247870133388176
  0
LINE
  5
C645
  8
0
 10
3931.4546862901920576
 20
228.3917537699147999
 30
0.0
 11
3931.4546862901920576
 21
233.4967537699147897
 31
0.0
  0
LINE
  5
C646
  8
0
 10
3930.949686290192858
 20
231.6467537699649029
 30
0.0
 11
3930.949686290192858
 21
230.6307704179016014
 31
0.0
  0
ARC
  5
C647
  8
0
 10
3931.1146227828780866
 20
234.763589350730399
 30
0.0
 40
0.3500000000000004
 50
181.0727523532142129
 51
253.9178174055687123
  0
ARC
  5
C648
  8
0
 10
3930.696838909464077
 20
230.7028038423734984
 30
0.0
 40
0.2739647461260457
 50
297.6890214198169815
 51
325.5039132211221045
  0
ARC
  5
C649
  8
0
 10
3930.7757094073290318
 20
230.641428743628893
 30
0.0
 40
0.1743030569956239
 50
327.4485937703503282
 51
356.4942767057460173
  0
ARC
  5
C64A
  8
0
 10
3930.7547197502058225
 20
230.6097832202524103
 30
0.0
 40
0.1960928713124855
 50
6.143953294009294
 51
58.31277386509921
  0
ARC
  5
C64B
  8
0
 10
3930.5415418536390462
 20
230.2341413835237063
 30
0.0
 40
0.6279174369079698
 50
59.7654759050010327
 51
89.7130774067770744
  0
ARC
  5
C64C
  8
0
 10
3930.7260672833249373
 20
230.8924142404918882
 30
0.0
 40
0.2266904358740153
 50
9.4424099000059734
 51
56.4746975264972875
  0
ARC
  5
C64D
  8
0
 10
3930.5312975149031445
 20
230.4845366811630072
 30
0.0
 40
0.6772145028182229
 50
61.8044312396683324
 51
88.8671679371643108
  0
ARC
  5
C64E
  8
0
 10
3931.3196862901932036
 20
233.5467537699148011
 30
0.0
 40
0.060000000000014
 50
180.0
 51
236.512717782208
  0
LINE
  5
C64F
  8
0
 10
3931.2596862901909844
 20
233.5467537699148011
 30
0.0
 11
3931.2596862901909844
 21
233.6222177165304004
 31
0.0
  0
LINE
  5
C650
  8
0
 10
3930.7956862901919521
 20
230.6904317528787942
 30
0.0
 11
3930.7956862901919521
 21
230.6276844345113943
 31
0.0
  0
LINE
  5
C651
  8
0
 10
3930.7925960636921445
 20
230.7154729671902089
 30
0.0
 11
3930.7925960636921445
 21
230.7333395073179076
 31
0.0
  0
ARC
  5
C652
  8
0
 10
3930.7098822195739558
 20
230.6925543314212916
 30
0.0
 40
0.0858303202501421
 50
358.5829344306683879
 51
15.4871710746889502
  0
ARC
  5
C653
  8
0
 10
3930.5449726768329128
 20
230.906834855589608
 30
0.0
 40
0.4224822751652769
 50
269.9611611061645817
 51
283.9905116055959979
  0
ARC
  5
C654
  8
0
 10
3930.5742748677448617
 20
230.7892272193936947
 30
0.0
 40
0.3012792451543225
 50
283.9905116055959979
 51
301.8785921718044278
  0
ARC
  5
C655
  8
0
 10
3930.6522477600478851
 20
230.6638541376781859
 30
0.0
 40
0.1536371727190638
 50
301.8785921718044278
 51
328.6069298462431902
  0
ARC
  5
C656
  8
0
 10
3930.7117180364912201
 20
230.6275631980132061
 30
0.0
 40
0.0839683412237187
 50
328.6069298462431902
 51
0.0827257270822817
  0
ARC
  5
C657
  8
0
 10
3930.7104444516371586
 20
230.6893854193087066
 30
0.0
 40
0.1166795794952703
 50
315.1396232560950921
 51
346.7171439408543847
  0
ARC
  5
C658
  8
0
 10
3930.7407276910771543
 20
230.6822363318202065
 30
0.0
 40
0.085563923582524
 50
346.7171439408543847
 51
11.2029589546150099
  0
ARC
  5
C659
  8
0
 10
3930.699587729859104
 20
230.7379972135865955
 30
0.0
 40
0.1291293573638602
 50
318.0907581468193257
 51
343.262316336355525
  0
LINE
  5
C65A
  8
0
 10
3930.7956862901919521
 20
230.6723025611902926
 30
0.0
 11
3930.8172882721910355
 21
230.6882559984902912
 31
0.0
  0
LINE
  5
C65B
  8
0
 10
3930.8172882721910355
 20
230.6882559984902912
 30
0.0
 11
3930.8205841872868405
 21
230.7043373670227027
 31
0.0
  0
ARC
  5
C65C
  8
0
 10
3930.5961994418507857
 20
230.8206415410602119
 30
0.0
 40
0.3250989577982019
 50
283.9463652770290878
 51
307.6220446439720035
  0
ARC
  5
C65D
  8
0
 10
3930.7033318963917736
 20
230.6816378805139038
 30
0.0
 40
0.1496014351330997
 50
307.6220446439720035
 51
343.2510929360774981
  0
ARC
  5
C65E
  8
0
 10
3930.5274641334849548
 20
230.2045436865907106
 30
0.0
 40
0.5687466774319088
 50
81.0588180089187915
 51
88.2647674335498351
  0
ARC
  5
C65F
  8
0
 10
3930.556727116158072
 20
230.4143577758150059
 30
0.0
 40
0.3569532943350222
 50
65.1396744259487264
 51
80.464585220987999
  0
ARC
  5
C660
  8
0
 10
3930.6249950897718008
 20
230.5616955992933867
 30
0.0
 40
0.1945681027417885
 50
39.8192944682062731
 51
65.1396744259480442
  0
ARC
  5
C661
  8
0
 10
3930.7037401691318337
 20
230.6273484638394962
 30
0.0
 40
0.0920445144973671
 50
2.649478727899178
 51
39.8192944682062731
  0
ARC
  5
C662
  8
0
 10
3930.7779623554329191
 20
230.6372912957268966
 30
0.0
 40
0.0147380656447447
 50
233.625198626824897
 51
300.86309984188199
  0
ARC
  5
C663
  8
0
 10
3930.7713078496021808
 20
230.628257027741995
 30
0.0
 40
0.0035175288534599
 50
139.0577386310125974
 51
233.6251986268468954
  0
ARC
  5
C664
  8
0
 10
3930.7778479671410423
 20
230.6202245391760073
 30
0.0
 40
0.013836616045197
 50
48.1806858359238106
 51
131.659069205194811
  0
ARC
  5
C665
  8
0
 10
3930.7837244968582127
 20
230.6282654127300873
 30
0.0
 40
0.004046734596848
 50
296.3841402436790986
 51
34.1363409026538633
  0
ARC
  5
C666
  8
0
 10
3930.7652312562431689
 20
230.5881555798704028
 30
0.0
 40
0.0147380656447447
 50
233.625198626824897
 51
300.86309984188199
  0
ARC
  5
C667
  8
0
 10
3930.7585767504119758
 20
230.5791213118855012
 30
0.0
 40
0.0035175288534599
 50
139.0577386310125974
 51
233.6251986268468954
  0
ARC
  5
C668
  8
0
 10
3930.7651168679508373
 20
230.5710888233195135
 30
0.0
 40
0.013836616045197
 50
48.1806858359238106
 51
131.659069205194811
  0
ARC
  5
C669
  8
0
 10
3930.7709933976680077
 20
230.5791296968735082
 30
0.0
 40
0.004046734596848
 50
296.3841402436790986
 51
34.1363409026538633
  0
ARC
  5
C66A
  8
0
 10
3930.7122183366500394
 20
230.5411399978040947
 30
0.0
 40
0.0147380656447447
 50
233.625198626824897
 51
300.86309984188199
  0
ARC
  5
C66B
  8
0
 10
3930.7055638308188463
 20
230.5321057298191079
 30
0.0
 40
0.0035175288534599
 50
139.0577386310125974
 51
233.6251986268468954
  0
ARC
  5
C66C
  8
0
 10
3930.7121039483590721
 20
230.5240732412532054
 30
0.0
 40
0.013836616045197
 50
48.1806858359238106
 51
131.659069205194811
  0
ARC
  5
C66D
  8
0
 10
3930.7179804780748782
 20
230.5321141148072002
 30
0.0
 40
0.004046734596848
 50
296.3841402436790986
 51
34.1363409026538633
  0
ARC
  5
C66E
  8
0
 10
3930.6354277800478485
 20
230.5125409483819965
 30
0.0
 40
0.0147380656447447
 50
233.625198626824897
 51
300.86309984188199
  0
ARC
  5
C66F
  8
0
 10
3930.6287732742171102
 20
230.5035066803970096
 30
0.0
 40
0.0035175288534599
 50
139.0577386310125974
 51
233.6251986268468954
  0
ARC
  5
C670
  8
0
 10
3930.6353133917559717
 20
230.4954741918311925
 30
0.0
 40
0.013836616045197
 50
48.1806858359238106
 51
131.659069205194811
  0
ARC
  5
C671
  8
0
 10
3930.6411899214717778
 20
230.5035150653851019
 30
0.0
 40
0.004046734596848
 50
296.3841402436790986
 51
34.1363409026538633
  0
ARC
  5
C672
  8
0
 10
3930.583275178968961
 20
230.5243170190022113
 30
0.0
 40
0.0147380656447447
 50
233.625198626824897
 51
300.86309984188199
  0
ARC
  5
C673
  8
0
 10
3930.5766206731382226
 20
230.5152827510173097
 30
0.0
 40
0.0035175288534599
 50
139.0577386310125974
 51
233.6251986268468954
  0
ARC
  5
C674
  8
0
 10
3930.5831607906779936
 20
230.5072502624514073
 30
0.0
 40
0.013836616045197
 50
48.1806858359238106
 51
131.659069205194811
  0
ARC
  5
C675
  8
0
 10
3930.5890373203937997
 20
230.515291136005402
 30
0.0
 40
0.004046734596848
 50
296.3841402436790986
 51
34.1363409026538633
  0
ARC
  5
C676
  8
0
 10
3930.60204568663994
 20
230.5578569238697924
 30
0.0
 40
0.0147380656447447
 50
233.625198626824897
 51
300.86309984188199
  0
ARC
  5
C677
  8
0
 10
3930.5953911808101111
 20
230.5488226558848055
 30
0.0
 40
0.0035175288534599
 50
139.0577386310125974
 51
233.6251986268468954
  0
ARC
  5
C678
  8
0
 10
3930.6019312983498821
 20
230.5407901673189031
 30
0.0
 40
0.013836616045197
 50
48.1806858359238106
 51
131.659069205194811
  0
ARC
  5
C679
  8
0
 10
3930.607807828066143
 20
230.5488310408728978
 30
0.0
 40
0.004046734596848
 50
296.3841402436790986
 51
34.1363409026538633
  0
ARC
  5
C67A
  8
0
 10
3930.6556590082318507
 20
230.5421424094296867
 30
0.0
 40
0.0147380656447447
 50
233.625198626824897
 51
300.86309984188199
  0
ARC
  5
C67B
  8
0
 10
3930.6490045024002029
 20
230.5331081414446999
 30
0.0
 40
0.0035175288534599
 50
139.0577386310125974
 51
233.6251986268468954
  0
ARC
  5
C67C
  8
0
 10
3930.6555446199399739
 20
230.5250756528787974
 30
0.0
 40
0.013836616045197
 50
48.1806858359238106
 51
131.659069205194811
  0
ARC
  5
C67D
  8
0
 10
3930.6614211496571443
 20
230.5331165264327922
 30
0.0
 40
0.004046734596848
 50
296.3841402436790986
 51
34.1363409026538633
  0
ARC
  5
C67E
  8
0
 10
3930.6514356654788571
 20
230.5773240959607051
 30
0.0
 40
0.0147380656447447
 50
233.625198626824897
 51
300.86309984188199
  0
ARC
  5
C67F
  8
0
 10
3930.6447811596472093
 20
230.5682898279756898
 30
0.0
 40
0.0035175288534599
 50
139.0577386310125974
 51
233.6251986268468954
  0
ARC
  5
C680
  8
0
 10
3930.6513212771878898
 20
230.5602573394097874
 30
0.0
 40
0.013836616045197
 50
48.1806858359238106
 51
131.659069205194811
  0
ARC
  5
C681
  8
0
 10
3930.6571978069041506
 20
230.5682982129638106
 30
0.0
 40
0.004046734596848
 50
296.3841402436790986
 51
34.1363409026538633
  0
ARC
  5
C682
  8
0
 10
3930.6007552088699413
 20
230.5896377007875913
 30
0.0
 40
0.0147380656447447
 50
233.625198626824897
 51
300.86309984188199
  0
ARC
  5
C683
  8
0
 10
3930.5941007030378387
 20
230.5806034328026044
 30
0.0
 40
0.0035175288534599
 50
139.0577386310125974
 51
233.6251986268468954
  0
ARC
  5
C684
  8
0
 10
3930.6006408205789739
 20
230.572570944236702
 30
0.0
 40
0.013836616045197
 50
48.1806858359238106
 51
131.659069205194811
  0
ARC
  5
C685
  8
0
 10
3930.60651735029478
 20
230.5806118177906967
 30
0.0
 40
0.004046734596848
 50
296.3841402436790986
 51
34.1363409026538633
  0
ARC
  5
C686
  8
0
 10
3930.7123225265818292
 20
230.5745095784874934
 30
0.0
 40
0.0147380656447447
 50
233.625198626824897
 51
300.86309984188199
  0
ARC
  5
C687
  8
0
 10
3930.7056680207501813
 20
230.5654753105025065
 30
0.0
 40
0.0035175288534599
 50
139.0577386310125974
 51
233.6251986268468954
  0
ARC
  5
C688
  8
0
 10
3930.7122081382908618
 20
230.5574428219366041
 30
0.0
 40
0.013836616045197
 50
48.1806858359238106
 51
131.659069205194811
  0
ARC
  5
C689
  8
0
 10
3930.7180846680071227
 20
230.5654836954905988
 30
0.0
 40
0.004046734596848
 50
296.3841402436790986
 51
34.1363409026538633
  0
ARC
  5
C68A
  8
0
 10
3930.5642888186189339
 20
230.5815287379647032
 30
0.0
 40
0.0147380656447447
 50
233.625198626824897
 51
300.86309984188199
  0
ARC
  5
C68B
  8
0
 10
3930.5576343127868313
 20
230.5724944699798016
 30
0.0
 40
0.0035175288534599
 50
139.0577386310125974
 51
233.6251986268468954
  0
ARC
  5
C68C
  8
0
 10
3930.5641744303270571
 20
230.5644619814138139
 30
0.0
 40
0.013836616045197
 50
48.1806858359238106
 51
131.659069205194811
  0
ARC
  5
C68D
  8
0
 10
3930.5700509600437726
 20
230.5725028549678086
 30
0.0
 40
0.004046734596848
 50
296.3841402436790986
 51
34.1363409026538633
  0
ARC
  5
C68E
  8
0
 10
3930.5806172620268626
 20
230.6167999973733913
 30
0.0
 40
0.0147380656447447
 50
233.625198626824897
 51
300.86309984188199
  0
ARC
  5
C68F
  8
0
 10
3930.5739627561952148
 20
230.6077657293884045
 30
0.0
 40
0.0035175288534599
 50
139.0577386310125974
 51
233.6251986268468954
  0
ARC
  5
C690
  8
0
 10
3930.5805028737358953
 20
230.599733240822502
 30
0.0
 40
0.013836616045197
 50
48.1806858359238106
 51
131.659069205194811
  0
ARC
  5
C691
  8
0
 10
3930.5863794034521561
 20
230.6077741143764968
 30
0.0
 40
0.004046734596848
 50
296.3841402436790986
 51
34.1363409026538633
  0
ARC
  5
C692
  8
0
 10
3930.5950592797330501
 20
230.637530873937493
 30
0.0
 40
0.0147380656447447
 50
233.625198626824897
 51
300.86309984188199
  0
ARC
  5
C693
  8
0
 10
3930.588404773901857
 20
230.6284966059525061
 30
0.0
 40
0.0035175288534599
 50
139.0577386310125974
 51
233.6251986268468954
  0
ARC
  5
C694
  8
0
 10
3930.5949448914411732
 20
230.6204641173866037
 30
0.0
 40
0.013836616045197
 50
48.1806858359238106
 51
131.659069205194811
  0
ARC
  5
C695
  8
0
 10
3930.6008214211569793
 20
230.6285049909405984
 30
0.0
 40
0.004046734596848
 50
296.3841402436790986
 51
34.1363409026538633
  0
ARC
  5
C696
  8
0
 10
3930.6288517032280652
 20
230.6055431877049955
 30
0.0
 40
0.0147380656447447
 50
233.625198626824897
 51
300.86309984188199
  0
ARC
  5
C697
  8
0
 10
3930.6221971973959626
 20
230.5965089197200086
 30
0.0
 40
0.0035175288534599
 50
139.0577386310125974
 51
233.6251986268468954
  0
ARC
  5
C698
  8
0
 10
3930.6287373149370978
 20
230.5884764311541062
 30
0.0
 40
0.013836616045197
 50
48.1806858359238106
 51
131.659069205194811
  0
ARC
  5
C699
  8
0
 10
3930.6346138446529039
 20
230.5965173047081009
 30
0.0
 40
0.004046734596848
 50
296.3841402436790986
 51
34.1363409026538633
  0
ARC
  5
C69A
  8
0
 10
3930.6430935279681762
 20
230.6263864043455101
 30
0.0
 40
0.0147380656447447
 50
233.625198626824897
 51
300.86309984188199
  0
ARC
  5
C69B
  8
0
 10
3930.6364390221369831
 20
230.6173521363604948
 30
0.0
 40
0.0035175288534599
 50
139.0577386310125974
 51
233.6251986268468954
  0
ARC
  5
C69C
  8
0
 10
3930.6429791396758446
 20
230.6093196477945924
 30
0.0
 40
0.013836616045197
 50
48.1806858359238106
 51
131.659069205194811
  0
ARC
  5
C69D
  8
0
 10
3930.648855669393015
 20
230.6173605213485871
 30
0.0
 40
0.004046734596848
 50
296.3841402436790986
 51
34.1363409026538633
  0
ARC
  5
C69E
  8
0
 10
3930.6836550061179878
 20
230.6055431877049955
 30
0.0
 40
0.0147380656447447
 50
233.625198626824897
 51
300.86309984188199
  0
ARC
  5
C69F
  8
0
 10
3930.6770005002858852
 20
230.5965089197200086
 30
0.0
 40
0.0035175288534599
 50
139.0577386310125974
 51
233.6251986268468954
  0
ARC
  5
C6A0
  8
0
 10
3930.683540617826111
 20
230.5884764311541062
 30
0.0
 40
0.013836616045197
 50
48.1806858359238106
 51
131.659069205194811
  0
ARC
  5
C6A1
  8
0
 10
3930.6894171475428266
 20
230.5965173047081009
 30
0.0
 40
0.004046734596848
 50
296.3841402436790986
 51
34.1363409026538633
  0
ARC
  5
C6A2
  8
0
 10
3930.740710546603168
 20
230.6149238624286966
 30
0.0
 40
0.0147380656447447
 50
233.625198626824897
 51
300.86309984188199
  0
ARC
  5
C6A3
  8
0
 10
3930.7340560407710655
 20
230.6058895944437097
 30
0.0
 40
0.0035175288534599
 50
139.0577386310125974
 51
233.6251986268468954
  0
ARC
  5
C6A4
  8
0
 10
3930.7405961583108365
 20
230.5978571058778073
 30
0.0
 40
0.013836616045197
 50
48.1806858359238106
 51
131.659069205194811
  0
ARC
  5
C6A5
  8
0
 10
3930.7464726880270973
 20
230.605897979431802
 30
0.0
 40
0.004046734596848
 50
296.3841402436790986
 51
34.1363409026538633
  0
ARC
  5
C6A6
  8
0
 10
3930.6949576810980034
 20
230.6373320591414995
 30
0.0
 40
0.0147380656447447
 50
233.625198626824897
 51
300.86309984188199
  0
ARC
  5
C6A7
  8
0
 10
3930.6883031752668103
 20
230.6282977911565979
 30
0.0
 40
0.0035175288534599
 50
139.0577386310125974
 51
233.6251986268468954
  0
ARC
  5
C6A8
  8
0
 10
3930.6948432928070361
 20
230.6202653025906102
 30
0.0
 40
0.013836616045197
 50
48.1806858359238106
 51
131.659069205194811
  0
ARC
  5
C6A9
  8
0
 10
3930.7007198225242064
 20
230.6283061761446902
 30
0.0
 40
0.004046734596848
 50
296.3841402436790986
 51
34.1363409026538633
  0
ARC
  5
C6AA
  8
0
 10
3930.6431764620811009
 20
230.6482361620440997
 30
0.0
 40
0.0147380656447447
 50
233.625198626824897
 51
300.86309984188199
  0
ARC
  5
C6AB
  8
0
 10
3930.6365219562499078
 20
230.6392018940591129
 30
0.0
 40
0.0035175288534599
 50
139.0577386310125974
 51
233.6251986268468954
  0
ARC
  5
C6AC
  8
0
 10
3930.6430620737901336
 20
230.6311694054932104
 30
0.0
 40
0.013836616045197
 50
48.1806858359238106
 51
131.659069205194811
  0
ARC
  5
C6AD
  8
0
 10
3930.6489386035059397
 20
230.6392102790472052
 30
0.0
 40
0.004046734596848
 50
296.3841402436790986
 51
34.1363409026538633
  0
ARC
  5
C6AE
  8
0
 10
3930.5800533651568003
 20
230.6579363899359976
 30
0.0
 40
0.0147380656447447
 50
233.625198626824897
 51
300.86309984188199
  0
ARC
  5
C6AF
  8
0
 10
3930.5733988593251524
 20
230.6489021219510107
 30
0.0
 40
0.0035175288534599
 50
139.0577386310125974
 51
233.6251986268468954
  0
ARC
  5
C6B0
  8
0
 10
3930.579938976865833
 20
230.6408696333851083
 30
0.0
 40
0.013836616045197
 50
48.1806858359238106
 51
131.659069205194811
  0
ARC
  5
C6B1
  8
0
 10
3930.5858155065820938
 20
230.648910506939103
 30
0.0
 40
0.004046734596848
 50
296.3841402436790986
 51
34.1363409026538633
  0
ARC
  5
C6B2
  8
0
 10
3930.6006984326581915
 20
230.6853279019649108
 30
0.0
 40
0.0147380656447447
 50
233.625198626824897
 51
300.86309984188199
  0
ARC
  5
C6B3
  8
0
 10
3930.5940439268269984
 20
230.6762936339798955
 30
0.0
 40
0.0035175288534599
 50
139.0577386310125974
 51
233.6251986268468954
  0
ARC
  5
C6B4
  8
0
 10
3930.6005840443672241
 20
230.6682611454139931
 30
0.0
 40
0.013836616045197
 50
48.1806858359238106
 51
131.659069205194811
  0
ARC
  5
C6B5
  8
0
 10
3930.6064605740830302
 20
230.6763020189679878
 30
0.0
 40
0.004046734596848
 50
296.3841402436790986
 51
34.1363409026538633
  0
ARC
  5
C6B6
  8
0
 10
3930.6286631649759329
 20
230.6688179435332984
 30
0.0
 40
0.0147380656447447
 50
233.625198626824897
 51
300.86309984188199
  0
ARC
  5
C6B7
  8
0
 10
3930.6220086591438303
 20
230.6597836755483968
 30
0.0
 40
0.0035175288534599
 50
139.0577386310125974
 51
233.6251986268468954
  0
ARC
  5
C6B8
  8
0
 10
3930.6285487766840561
 20
230.6517511869824943
 30
0.0
 40
0.013836616045197
 50
48.1806858359238106
 51
131.659069205194811
  0
ARC
  5
C6B9
  8
0
 10
3930.6344253064012264
 20
230.6597920605364891
 30
0.0
 40
0.004046734596848
 50
296.3841402436790986
 51
34.1363409026538633
  0
ARC
  5
C6BA
  8
0
 10
3930.6846316256769569
 20
230.6692840327065994
 30
0.0
 40
0.0147380656447447
 50
233.625198626824897
 51
300.86309984188199
  0
ARC
  5
C6BB
  8
0
 10
3930.6779771198462186
 20
230.6602497647216126
 30
0.0
 40
0.0035175288534599
 50
139.0577386310125974
 51
233.6251986268468954
  0
ARC
  5
C6BC
  8
0
 10
3930.6845172373859896
 20
230.6522172761557101
 30
0.0
 40
0.013836616045197
 50
48.1806858359238106
 51
131.659069205194811
  0
ARC
  5
C6BD
  8
0
 10
3930.6903937671017957
 20
230.6602581497097049
 30
0.0
 40
0.004046734596848
 50
296.3841402436790986
 51
34.1363409026538633
  0
ARC
  5
C6BE
  8
0
 10
3930.7403343290411613
 20
230.6601877809517873
 30
0.0
 40
0.0147380656447447
 50
233.625198626824897
 51
300.86309984188199
  0
ARC
  5
C6BF
  8
0
 10
3930.7336798232099682
 20
230.6511535129668005
 30
0.0
 40
0.0035175288534599
 50
139.0577386310125974
 51
233.6251986268468954
  0
ARC
  5
C6C0
  8
0
 10
3930.7402199407501939
 20
230.643121024400898
 30
0.0
 40
0.013836616045197
 50
48.1806858359238106
 51
131.659069205194811
  0
ARC
  5
C6C1
  8
0
 10
3930.746096470466
 20
230.6511618979548928
 30
0.0
 40
0.004046734596848
 50
296.3841402436790986
 51
34.1363409026538633
  0
ARC
  5
C6C2
  8
0
 10
3930.7658715991460667
 20
230.6862919736844901
 30
0.0
 40
0.0147380656447447
 50
233.625198626824897
 51
300.86309984188199
  0
ARC
  5
C6C3
  8
0
 10
3930.7592170933148736
 20
230.6772577056995033
 30
0.0
 40
0.0035175288534599
 50
139.0577386310125974
 51
233.6251986268468954
  0
ARC
  5
C6C4
  8
0
 10
3930.7657572108550994
 20
230.6692252171336008
 30
0.0
 40
0.013836616045197
 50
48.1806858359238106
 51
131.659069205194811
  0
ARC
  5
C6C5
  8
0
 10
3930.7716337405709055
 20
230.6772660906875956
 30
0.0
 40
0.004046734596848
 50
296.3841402436790986
 51
34.1363409026538633
  0
ARC
  5
C6C6
  8
0
 10
3930.712945089340792
 20
230.6998001258984914
 30
0.0
 40
0.0147380656447447
 50
233.625198626824897
 51
300.86309984188199
  0
ARC
  5
C6C7
  8
0
 10
3930.7062905835091442
 20
230.6907658579135045
 30
0.0
 40
0.0035175288534599
 50
139.0577386310125974
 51
233.6251986268468954
  0
ARC
  5
C6C8
  8
0
 10
3930.7128307010489152
 20
230.6827333693476021
 30
0.0
 40
0.013836616045197
 50
48.1806858359238106
 51
131.659069205194811
  0
ARC
  5
C6C9
  8
0
 10
3930.7187072307660856
 20
230.6907742429015968
 30
0.0
 40
0.004046734596848
 50
296.3841402436790986
 51
34.1363409026538633
  0
ARC
  5
C6CA
  8
0
 10
3930.6500714044018423
 20
230.6975487833528859
 30
0.0
 40
0.0147380656447447
 50
233.625198626824897
 51
300.86309984188199
  0
ARC
  5
C6CB
  8
0
 10
3930.6434168985701945
 20
230.6885145153678991
 30
0.0
 40
0.0035175288534599
 50
139.0577386310125974
 51
233.6251986268468954
  0
ARC
  5
C6CC
  8
0
 10
3930.6499570161099655
 20
230.6804820268019967
 30
0.0
 40
0.013836616045197
 50
48.1806858359238106
 51
131.659069205194811
  0
ARC
  5
C6CD
  8
0
 10
3930.6558335458262263
 20
230.6885229003559914
 30
0.0
 40
0.004046734596848
 50
296.3841402436790986
 51
34.1363409026538633
  0
ARC
  5
C6CE
  8
0
 10
3930.6023286228619327
 20
230.7173134653590978
 30
0.0
 40
0.0147380656447447
 50
233.625198626824897
 51
300.86309984188199
  0
ARC
  5
C6CF
  8
0
 10
3930.5956741170298301
 20
230.7082791973741109
 30
0.0
 40
0.0035175288534599
 50
139.0577386310125974
 51
233.6251986268468954
  0
ARC
  5
C6D0
  8
0
 10
3930.6022142345700559
 20
230.7002467088082085
 30
0.0
 40
0.013836616045197
 50
48.1806858359238106
 51
131.659069205194811
  0
ARC
  5
C6D1
  8
0
 10
3930.6080907642872262
 20
230.7082875823622032
 30
0.0
 40
0.004046734596848
 50
296.3841402436790986
 51
34.1363409026538633
  0
ARC
  5
C6D2
  8
0
 10
3930.5837127251461425
 20
230.7494289772841967
 30
0.0
 40
0.0147380656447447
 50
233.625198626824897
 51
300.86309984188199
  0
ARC
  5
C6D3
  8
0
 10
3930.5770582193149494
 20
230.7403947092992098
 30
0.0
 40
0.0035175288534599
 50
139.0577386310125974
 51
233.6251986268468954
  0
ARC
  5
C6D4
  8
0
 10
3930.5835983368551751
 20
230.7323622207333074
 30
0.0
 40
0.013836616045197
 50
48.1806858359238106
 51
131.659069205194811
  0
ARC
  5
C6D5
  8
0
 10
3930.5894748665709812
 20
230.7404030942873021
 30
0.0
 40
0.004046734596848
 50
296.3841402436790986
 51
34.1363409026538633
  0
ARC
  5
C6D6
  8
0
 10
3930.635056544363124
 20
230.7626353542077879
 30
0.0
 40
0.0147380656447447
 50
233.625198626824897
 51
300.86309984188199
  0
ARC
  5
C6D7
  8
0
 10
3930.6284020385310214
 20
230.7536010862228011
 30
0.0
 40
0.0035175288534599
 50
139.0577386310125974
 51
233.6251986268468954
  0
ARC
  5
C6D8
  8
0
 10
3930.6349421560707924
 20
230.7455685976568986
 30
0.0
 40
0.013836616045197
 50
48.1806858359238106
 51
131.659069205194811
  0
ARC
  5
C6D9
  8
0
 10
3930.6408186857870533
 20
230.7536094712108934
 30
0.0
 40
0.004046734596848
 50
296.3841402436790986
 51
34.1363409026538633
  0
ARC
  5
C6DA
  8
0
 10
3930.6557741926490053
 20
230.7329210061296862
 30
0.0
 40
0.0147380656447447
 50
233.625198626824897
 51
300.86309984188199
  0
ARC
  5
C6DB
  8
0
 10
3930.6491196868169027
 20
230.7238867381446994
 30
0.0
 40
0.0035175288534599
 50
139.0577386310125974
 51
233.6251986268468954
  0
ARC
  5
C6DC
  8
0
 10
3930.6556598043580379
 20
230.715854249578797
 30
0.0
 40
0.013836616045197
 50
48.1806858359238106
 51
131.659069205194811
  0
ARC
  5
C6DD
  8
0
 10
3930.661536334073844
 20
230.7238951231327917
 30
0.0
 40
0.004046734596848
 50
296.3841402436790986
 51
34.1363409026538633
  0
ARC
  5
C6DE
  8
0
 10
3930.7116218857950116
 20
230.7332211334343128
 30
0.0
 40
0.0147380656447447
 50
233.625198626824897
 51
300.86309984188199
  0
ARC
  5
C6DF
  8
0
 10
3930.7049673799638185
 20
230.7241868654492976
 30
0.0
 40
0.0035175288534599
 50
139.0577386310125974
 51
233.6251986268468954
  0
ARC
  5
C6E0
  8
0
 10
3930.7115074975040443
 20
230.7161543768833951
 30
0.0
 40
0.013836616045197
 50
48.1806858359238106
 51
131.659069205194811
  0
ARC
  5
C6E1
  8
0
 10
3930.7173840272198504
 20
230.7241952504373899
 30
0.0
 40
0.004046734596848
 50
296.3841402436790986
 51
34.1363409026538633
  0
ARC
  5
C6E2
  8
0
 10
3930.564041270898997
 20
230.6936290490193926
 30
0.0
 40
0.0147380656447447
 50
233.625198626824897
 51
300.86309984188199
  0
ARC
  5
C6E3
  8
0
 10
3930.5573867650678039
 20
230.6845947810344057
 30
0.0
 40
0.0035175288534599
 50
139.0577386310125974
 51
233.6251986268468954
  0
ARC
  5
C6E4
  8
0
 10
3930.5639268826080297
 20
230.6765622924685886
 30
0.0
 40
0.013836616045197
 50
48.1806858359238106
 51
131.659069205194811
  0
ARC
  5
C6E5
  8
0
 10
3930.5698034123238358
 20
230.6846031660226117
 30
0.0
 40
0.004046734596848
 50
296.3841402436790986
 51
34.1363409026538633
  0
ARC
  5
C6E6
  8
0
 10
3930.5447608080539794
 20
230.5493720530822941
 30
0.0
 40
0.0147380656447447
 50
233.625198626824897
 51
300.86309984188199
  0
ARC
  5
C6E7
  8
0
 10
3930.5381063022218768
 20
230.5403377850973072
 30
0.0
 40
0.0035175288534599
 50
139.0577386310125974
 51
233.6251986268468954
  0
ARC
  5
C6E8
  8
0
 10
3930.5446464197630121
 20
230.5323052965314048
 30
0.0
 40
0.013836616045197
 50
48.1806858359238106
 51
131.659069205194811
  0
ARC
  5
C6E9
  8
0
 10
3930.5505229494788182
 20
230.5403461700853995
 30
0.0
 40
0.004046734596848
 50
296.3841402436790986
 51
34.1363409026538633
  0
ARC
  5
C6EA
  8
0
 10
3930.5447608080539794
 20
230.611442708076595
 30
0.0
 40
0.0147380656447447
 50
233.625198626824897
 51
300.86309984188199
  0
ARC
  5
C6EB
  8
0
 10
3930.5381063022218768
 20
230.6024084400916081
 30
0.0
 40
0.0035175288534599
 50
139.0577386310125974
 51
233.6251986268468954
  0
ARC
  5
C6EC
  8
0
 10
3930.5446464197630121
 20
230.5943759515257057
 30
0.0
 40
0.013836616045197
 50
48.1806858359238106
 51
131.659069205194811
  0
ARC
  5
C6ED
  8
0
 10
3930.5505229494788182
 20
230.6024168250797004
 30
0.0
 40
0.004046734596848
 50
296.3841402436790986
 51
34.1363409026538633
  0
ARC
  5
C6EE
  8
0
 10
3930.5447608080539794
 20
230.7255637224932912
 30
0.0
 40
0.0147380656447447
 50
233.625198626824897
 51
300.86309984188199
  0
ARC
  5
C6EF
  8
0
 10
3930.5381063022218768
 20
230.7165294545083043
 30
0.0
 40
0.0035175288534599
 50
139.0577386310125974
 51
233.6251986268468954
  0
ARC
  5
C6F0
  8
0
 10
3930.5446464197630121
 20
230.7084969659424019
 30
0.0
 40
0.013836616045197
 50
48.1806858359238106
 51
131.659069205194811
  0
ARC
  5
C6F1
  8
0
 10
3930.5505229494788182
 20
230.7165378394963966
 30
0.0
 40
0.004046734596848
 50
296.3841402436790986
 51
34.1363409026538633
  0
ARC
  5
C6F2
  8
0
 10
3930.5447608080539794
 20
230.7745871493582968
 30
0.0
 40
0.0147380656447447
 50
233.625198626824897
 51
300.86309984188199
  0
ARC
  5
C6F3
  8
0
 10
3930.5381063022218768
 20
230.7655528813733099
 30
0.0
 40
0.0035175288534599
 50
139.0577386310125974
 51
233.6251986268468954
  0
ARC
  5
C6F4
  8
0
 10
3930.5446464197630121
 20
230.7575203928074075
 30
0.0
 40
0.013836616045197
 50
48.1806858359238106
 51
131.659069205194811
  0
ARC
  5
C6F5
  8
0
 10
3930.5505229494788182
 20
230.7655612663614022
 30
0.0
 40
0.004046734596848
 50
296.3841402436790986
 51
34.1363409026538633
  0
ARC
  5
C6F6
  8
0
 10
3930.5447608080539794
 20
230.6670331338791016
 30
0.0
 40
0.0147380656447447
 50
233.625198626824897
 51
300.86309984188199
  0
ARC
  5
C6F7
  8
0
 10
3930.5381063022218768
 20
230.6579988658942
 30
0.0
 40
0.0035175288534599
 50
139.0577386310125974
 51
233.6251986268468954
  0
ARC
  5
C6F8
  8
0
 10
3930.5446464197630121
 20
230.6499663773282975
 30
0.0
 40
0.013836616045197
 50
48.1806858359238106
 51
131.659069205194811
  0
ARC
  5
C6F9
  8
0
 10
3930.5505229494788182
 20
230.6580072508822923
 30
0.0
 40
0.004046734596848
 50
296.3841402436790986
 51
34.1363409026538633
  0
LINE
  5
C6FA
  8
0
 10
3931.452879120119178
 20
233.6532624318363105
 30
0.0
 11
3931.4269172153030922
 21
234.3983311953207078
 31
0.0
  0
ARC
  5
C6FB
  8
0
 10
3931.4228973161389149
 20
233.6522177165304015
 30
0.0
 40
0.03
 50
270.0
 51
1.995662756118685
  0
ARC
  5
C6FC
  8
0
 10
3931.3969354113228292
 20
234.3972864800147988
 30
0.0
 40
0.03
 50
1.995662756118685
 51
90.0
  0
CIRCLE
  5
C6FD
  8
0
 10
3930.5446862902422254
 20
235.6672214744922087
 30
0.0
 40
0.2199978376187932
  0
LINE
  5
C6FE
  8
0
 10
3930.7646841278601642
 20
235.0249193143309014
 30
0.0
 11
3930.7646841278601642
 21
235.6672214744922087
 31
0.0
  0
LINE
  5
C6FF
  8
0
 10
3930.3246884526229223
 20
235.0249193143309014
 30
0.0
 11
3930.3246884526229223
 21
235.6672214744922087
 31
0.0
  0
ARC
  5
C700
  8
0
 10
3930.741984127860178
 20
235.0249193143309014
 30
0.0
 40
0.0227
 50
270.0
 51
0.0000000000016284
  0
ARC
  5
C701
  8
0
 10
3930.3473884526229085
 20
235.0249193143309014
 30
0.0
 40
0.0227
 50
180.0
 51
270.0
  0
LINE
  5
C702
  8
0
 10
3930.7646841278601642
 20
234.7570366623723999
 30
0.0
 11
3930.7646841278601642
 21
234.979519314330787
 31
0.0
  0
LINE
  5
C703
  8
0
 10
3930.3246884526229223
 20
234.7570366623723999
 30
0.0
 11
3930.3246884526229223
 21
234.979519314330787
 31
0.0
  0
ARC
  5
C704
  8
0
 10
3930.741984127860178
 20
234.979519314330787
 30
0.0
 40
0.0227
 50
0.0
 51
90.0
  0
ARC
  5
C705
  8
0
 10
3930.3473884526229085
 20
234.979519314330787
 30
0.0
 40
0.0227
 50
90.0
 51
180.0000000000015916
  0
CIRCLE
  5
C706
  8
0
 10
3930.5446862902422254
 20
235.6672183369148001
 30
0.0
 40
0.1788854381524197
  0
ARC
  5
C707
  8
0
 10
3931.6346862901909844
 20
228.3917537699147999
 30
0.0
 40
0.1799999999999997
 50
180.0
 51
270.0
  0
LINE
  5
C708
  8
0
 10
3931.6646862901420718
 20
228.181753769914792
 30
0.0
 11
3931.6646862901420718
 21
228.071753769914892
 31
0.0
  0
ARC
  5
C709
  8
0
 10
3931.6346862901427812
 20
228.071753769914892
 30
0.0
 40
0.03
 50
270.0
 51
0.0
  0
ARC
  5
C70A
  8
0
 10
3931.6346862901427812
 20
228.181753769914792
 30
0.0
 40
0.03
 50
0.0
 51
90.0
  0
LINE
  5
C7DF
  8
0
 10
3929.6346862902910289
 20
228.3917537699147999
 30
0.0
 11
3931.4546862901920576
 21
228.3917537699147999
 31
0.0
  0
LINE
  5
C7E0
  8
0
 10
3929.6346862902910289
 20
228.4217537699148863
 30
0.0
 11
3931.4546862901920576
 21
228.4217537699148863
 31
0.0
  0
ENDSEC
  0
EOF
