  0
SECTION
  2
HEADER
  9
$ACADVER
  1
AC1009
  9
$INSBASE
 10
3873.6375608522571383
 20
217.9286077956145959
 30
0.0
  9
$EXTMIN
 10
3872.5175608523068149
 20
212.1119077955532077
 30
0.0
  9
$EXTMAX
 10
3874.757560852207007
 20
219.418607795614605
 30
0.0
  9
$LIMMIN
 10
0.0
 20
0.0
  9
$LIMMAX
 10
11.6929133858000007
 20
8.2677165353999982
  9
$ORTHOMODE
 70
     1
  9
$REGENMODE
 70
     1
  9
$FILLMODE
 70
     1
  9
$QTEXTMODE
 70
     0
  9
$MIRRTEXT
 70
     0
  9
$DRAGMODE
 70
     2
  9
$LTSCALE
 40
0.6431102362
  9
$OSMODE
 70
  3839
  9
$ATTMODE
 70
     1
  9
$TEXTSIZE
 40
0.2
  9
$TRACEWID
 40
0.05
  9
$TEXTSTYLE
  7
STANDARD
  9
$CLAYER
  8
0
  9
$CELTYPE
  6
BYLAYER
  9
$CECOLOR
 62
     1
  9
$DIMSCALE
 40
1.0
  9
$DIMASZ
 40
0.1875
  9
$DIMEXO
 40
0.0625
  9
$DIMDLI
 40
0.4443307087
  9
$DIMRND
 40
0.0
  9
$DIMDLE
 40
0.0
  9
$DIMEXE
 40
0.125
  9
$DIMTP
 40
0.01
  9
$DIMTM
 40
0.01
  9
$DIMTXT
 40
2.0
  9
$DIMCEN
 40
0.1052362205
  9
$DIMTSZ
 40
0.0
  9
$DIMTOL
 70
     1
  9
$DIMLIM
 70
     0
  9
$DIMTIH
 70
     1
  9
$DIMTOH
 70
     1
  9
$DIMSE1
 70
     0
  9
$DIMSE2
 70
     0
  9
$DIMTAD
 70
     0
  9
$DIMZIN
 70
     0
  9
$DIMBLK
  1

  9
$DIMASO
 70
     1
  9
$DIMSHO
 70
     1
  9
$DIMPOST
  1
\X
  9
$DIMAPOST
  1

  9
$DIMALT
 70
     1
  9
$DIMALTD
 70
     2
  9
$DIMALTF
 40
25.3999999999999986
  9
$DIMLFAC
 40
1.0
  9
$DIMTOFL
 70
     0
  9
$DIMTVP
 40
0.0
  9
$DIMTIX
 70
     0
  9
$DIMSOXD
 70
     0
  9
$DIMSAH
 70
     0
  9
$DIMBLK1
  1

  9
$DIMBLK2
  1

  9
$DIMSTYLE
  2
STANDARD
  9
$DIMCLRD
 70
     0
  9
$DIMCLRE
 70
     0
  9
$DIMCLRT
 70
     0
  9
$DIMTFAC
 40
1.0
  9
$DIMGAP
 40
0.09
  9
$LUNITS
 70
     2
  9
$LUPREC
 70
     4
  9
$SKETCHINC
 40
0.1
  9
$FILLETRAD
 40
0.0
  9
$AUNITS
 70
     0
  9
$AUPREC
 70
     0
  9
$MENU
  1
.
  9
$ELEVATION
 40
0.0
  9
$PELEVATION
 40
0.0
  9
$THICKNESS
 40
0.0
  9
$LIMCHECK
 70
     0
  9
$BLIPMODE
 70
     0
  9
$CHAMFERA
 40
0.0
  9
$CHAMFERB
 40
0.0
  9
$SKPOLY
 70
     0
  9
$TDCREATE
 40
2458060.468368056230247
  9
$TDUPDATE
 40
2459039.798136574216187
  9
$TDINDWG
 40
0.7130394676
  9
$TDUSRTIMER
 40
0.7130394676
  9
$USRTIMER
 70
     1
  9
$ANGBASE
 50
0.0
  9
$ANGDIR
 70
     0
  9
$PDMODE
 70
     0
  9
$PDSIZE
 40
0.3125
  9
$PLINEWID
 40
0.0
  9
$COORDS
 70
     1
  9
$SPLFRAME
 70
     0
  9
$SPLINETYPE
 70
     6
  9
$SPLINESEGS
 70
     8
  9
$ATTDIA
 70
     1
  9
$ATTREQ
 70
     1
  9
$HANDLING
 70
     1
  9
$HANDSEED
  5
B06A
  9
$SURFTAB1
 70
     6
  9
$SURFTAB2
 70
     6
  9
$SURFTYPE
 70
     6
  9
$SURFU
 70
     6
  9
$SURFV
 70
     6
  9
$UCSNAME
  2

  9
$UCSORG
 10
0.0
 20
0.0
 30
0.0
  9
$UCSXDIR
 10
1.0
 20
0.0
 30
0.0
  9
$UCSYDIR
 10
0.0
 20
1.0
 30
0.0
  9
$PUCSNAME
  2

  9
$PUCSORG
 10
0.0
 20
0.0
 30
0.0
  9
$PUCSXDIR
 10
1.0
 20
0.0
 30
0.0
  9
$PUCSYDIR
 10
0.0
 20
1.0
 30
0.0
  9
$USERI1
 70
     0
  9
$USERI2
 70
     0
  9
$USERI3
 70
     0
  9
$USERI4
 70
     0
  9
$USERI5
 70
     0
  9
$USERR1
 40
0.0
  9
$USERR2
 40
0.0
  9
$USERR3
 40
0.0
  9
$USERR4
 40
0.0
  9
$USERR5
 40
0.0
  9
$WORLDVIEW
 70
     1
  9
$SHADEDGE
 70
     3
  9
$SHADEDIF
 70
    70
  9
$TILEMODE
 70
     1
  9
$MAXACTVP
 70
    64
  9
$PLIMCHECK
 70
     0
  9
$PEXTMIN
 10
1.0000000000000000E+20
 20
1.0000000000000000E+20
 30
1.0000000000000000E+20
  9
$PEXTMAX
 10
-1.0000000000000000E+20
 20
-1.0000000000000000E+20
 30
-1.0000000000000000E+20
  9
$PLIMMIN
 10
0.0
 20
0.0
  9
$PLIMMAX
 10
12.0
 20
9.0
  9
$UNITMODE
 70
     0
  9
$VISRETAIN
 70
     1
  9
$PLINEGEN
 70
     0
  9
$PSLTSCALE
 70
     1
  0
ENDSEC
  0
SECTION
  2
TABLES
  0
TABLE
  2
VPORT
 70
     1
  0
VPORT
  2
*ACTIVE
 70
     0
 10
0.0
 20
0.0
 11
1.0
 21
1.0
 12
0.0
 22
0.0
 13
0.0
 23
0.0
 14
1.0
 24
1.0
 15
0.0
 25
0.0
 16
0.0
 26
0.0
 36
31.7251865378544906
 17
3873.6375732421879547
 27
215.7652587890625
 37
0.0
 40
7.6417733055534756
 41
3.314341846758349
 42
50.0
 43
0.0
 44
0.0
 50
0.0
 51
0.0
 71
     0
 72
   100
 73
     1
 74
     1
 75
     0
 76
     0
 77
     0
 78
     0
  0
ENDTAB
  0
TABLE
  2
LTYPE
 70
     2
  0
LTYPE
  2
CONTINUOUS
 70
     0
  3
Solid line
 72
    65
 73
     0
 40
0.0
  0
LTYPE
  2
PHANTOM2
 70
     0
  3
___ _ _ ___ _ _ ___ _ _ ___ _ _
 72
    65
 73
     6
 40
1.25
 49
0.625
 49
-0.125
 49
0.125
 49
-0.125
 49
0.125
 49
-0.125
  0
ENDTAB
  0
TABLE
  2
LAYER
 70
     2
  0
LAYER
  2
0
 70
     0
 62
   255
  6
CONTINUOUS
  0
LAYER
  2
DEFPOINTS
 70
     0
 62
     7
  6
CONTINUOUS
  0
ENDTAB
  0
TABLE
  2
STYLE
 70
     1
  0
STYLE
  2
STANDARD
 70
     0
 40
0.0
 41
0.8
 50
0.0
 71
     0
 42
0.2
  3
txt
  4

  0
ENDTAB
  0
TABLE
  2
VIEW
 70
     0
  0
ENDTAB
  0
TABLE
  2
UCS
 70
     0
  0
ENDTAB
  0
TABLE
  2
APPID
 70
     9
  0
APPID
  2
ACAD
 70
     0
  0
APPID
  2
ACAD_MLEADERVER
 70
     0
  0
APPID
  2
ACAD_EXEMPT_FROM_CAD_STANDARDS
 70
     0
  0
APPID
  2
ACAD_NAV_VCDISPLAY
 70
     0
  0
APPID
  2
ACAECLAYERSTANDARD
 70
     0
  0
APPID
  2
ACCMTRANSPARENCY
 70
     0
  0
APPID
  2
ACAD_DSTYLE_DIMJAG
 70
     0
  0
APPID
  2
ACAD_DSTYLE_DIMTALN
 70
     0
  0
APPID
  2
ACDBATTR
 70
     0
  0
ENDTAB
  0
TABLE
  2
DIMSTYLE
 70
     1
  0
DIMSTYLE
  2
STANDARD
 70
     0
  3

  4

  5

  6

  7

 40
1.0
 41
0.1875
 42
0.0625
 43
0.38
 44
0.125
 45
0.0
 46
0.0
 47
0.01
 48
0.01
140
0.15625
141
0.09
142
0.0
143
25.3999999999999986
144
1.0
145
0.0
146
1.0
147
0.09
 71
     1
 72
     0
 73
     1
 74
     1
 75
     0
 76
     0
 77
     0
 78
     4
170
     0
171
     2
172
     0
173
     0
174
     0
175
     0
176
     0
177
     0
178
     0
  0
ENDTAB
  0
ENDSEC
  0
SECTION
  2
BLOCKS
  0
BLOCK
  8
0
  2
$MODEL_SPACE
 70
     0
 10
0.0
 20
0.0
 30
0.0
  3
$MODEL_SPACE
  1

  0
ENDBLK
  5
21
  8
0
  0
BLOCK
 67
     1
  8
0
  2
$PAPER_SPACE
 70
     0
 10
0.0
 20
0.0
 30
0.0
  3
$PAPER_SPACE
  1

  0
ENDBLK
  5
1D
 67
     1
  8
0
  0
BLOCK
  8
0
  2
_FILLED
 70
     0
 10
0.0
 20
0.0
 30
0.0
  3
_FILLED
  1

  0
SOLID
  5
6F59
  8
0
  6
BYBLOCK
 62
     0
 10
0.0
 20
0.0
 30
0.0
 11
-1.0
 21
0.1666666667
 31
0.0
 12
-1.0
 22
-0.1666666667
 32
0.0
 13
-1.0
 23
-0.1666666667
 33
0.0
  0
ENDBLK
  5
6F5A
  8
0
  6
BYBLOCK
 62
     0
  0
BLOCK
  8
0
  2
_CLOSED
 70
     0
 10
0.0
 20
0.0
 30
0.0
  3
_CLOSED
  1

  0
LINE
  5
9506
  8
0
  6
BYBLOCK
 62
     0
 10
0.0
 20
0.0
 30
0.0
 11
-1.0
 21
0.1666666667
 31
0.0
  0
LINE
  5
9507
  8
0
  6
BYBLOCK
 62
     0
 10
-1.0
 20
0.1666666667
 30
0.0
 11
-1.0
 21
-0.1666666667
 31
0.0
  0
LINE
  5
9508
  8
0
  6
BYBLOCK
 62
     0
 10
-1.0
 20
-0.1666666667
 30
0.0
 11
0.0
 21
0.0
 31
0.0
  0
LINE
  5
9509
  8
0
  6
BYBLOCK
 62
     0
 10
-1.0
 20
0.0
 30
0.0
 11
0.0
 21
0.0
 31
0.0
  0
ENDBLK
  5
950A
  8
0
  6
BYBLOCK
 62
     0
  0
ENDSEC
  0
SECTION
  2
ENTITIES
  0
ATTDEF
  5
3930
  8
DEFPOINTS
 10
3873.638128246719134
 20
217.932245500078011
 30
0.0
 40
0.001
  1
K-14402IN-4A
  3

  2
MODELNUMBER
 70
     0
1001
ACDBATTR
1070
     0
1070
     1
  0
ATTDEF
  5
3931
  8
DEFPOINTS
 10
3873.638128246719134
 20
217.930578833411289
 30
0.0
 40
0.001
  1
PURIST
  3

  2
TRADENAME
 70
     0
1001
ACDBATTR
1070
     0
1070
     1
  0
ATTDEF
  5
3932
  8
DEFPOINTS
 10
3873.638128246719134
 20
217.9289121667447091
 30
0.0
 40
0.001
  1
BATHROOM SINK FAUCET
  3

  2
PRODUCT
 70
     0
1001
ACDBATTR
1070
     0
1070
     1
  0
LINE
  5
AD5E
  8
0
 10
3873.2325608523069604
 20
212.4442724440141035
 30
0.0
 11
3873.2325608523069604
 21
217.1136998253504942
 31
0.0
  0
LINE
  5
AD5F
  8
0
 10
3873.4182280550221549
 20
214.6886471588786094
 30
0.0
 11
3873.4182280550221549
 21
217.9286077956145959
 31
0.0
  0
ARC
  5
AD60
  8
0
 10
3873.6375608523071605
 20
217.9286077956145959
 30
0.0
 40
1.119999999999999
 50
99.6365607893343395
 51
248.8010709828579081
  0
ARC
  5
AD61
  8
0
 10
3873.6375608523071605
 20
217.9286077956145959
 30
0.0
 40
0.9100000000000001
 50
100.0760201834858947
 51
250.7450244112137909
  0
ARC
  5
AD62
  8
0
 10
3873.6375608523071605
 20
217.9286077956145959
 30
0.0
 40
0.9100000000000001
 50
284.0336265857191052
 51
284.6852201667174995
  0
LINE
  5
AD63
  8
0
 10
3873.4500752235071559
 20
219.418607795614605
 30
0.0
 11
3873.4500752235071559
 21
218.8190847122124012
 31
0.0
  0
LINE
  5
AD64
  8
0
 10
3873.4500608523071605
 20
219.418607795614605
 30
0.0
 11
3873.8250464810071207
 21
219.418607795614605
 31
0.0
  0
ARC
  5
AD65
  8
0
 10
3873.6375608523071605
 20
217.9286077956145959
 30
0.0
 40
0.8822310971554653
 50
284.484845018252372
 51
255.6046368246229008
  0
LINE
  5
AD66
  8
0
 10
3873.4684049438051261
 20
218.800767884951
 30
0.0
 11
3873.4684049322058854
 21
218.8072542512321945
 31
0.0
  0
ARC
  5
AD67
  8
0
 10
3873.488454013936007
 20
218.8072542870854136
 30
0.0
 40
0.0200490817297504
 50
102.8298848182658958
 51
180.0001024602470068
  0
ARC
  5
AD68
  8
0
 10
3873.4768551303650383
 20
218.7701103414742931
 30
0.0
 40
0.0357516686411513
 50
103.6716873311412996
 51
121.3996149870849024
  0
ARC
  5
AD69
  8
0
 10
3873.4606703892918631
 20
218.9909434112261124
 30
0.0
 40
0.190332745809932
 50
269.26486039201518
 51
279.4796781114770852
  0
ARC
  5
AD6A
  8
0
 10
3873.6418731362859944
 20
217.63008682214641
 30
0.0
 40
1.1826555849954541
 50
90.2089164635297465
 51
97.2795695065252914
  0
LINE
  5
AD6B
  8
0
 10
3874.0425608522068615
 20
212.4442724440141035
 30
0.0
 11
3874.0425608522068615
 21
217.1136998253504942
 31
0.0
  0
ARC
  5
AD6C
  8
0
 10
3873.6375608522071161
 20
217.9286077956145959
 30
0.0
 40
1.119999999999999
 50
291.1989290171421203
 51
80.3634392106656463
  0
ARC
  5
AD6D
  8
0
 10
3873.6375608522071161
 20
217.9286077956145959
 30
0.0
 40
0.9100000000000001
 50
284.0336265921837935
 51
284.6852201698542899
  0
LINE
  5
AD6E
  8
0
 10
3873.8250464810071207
 20
219.418607795614605
 30
0.0
 11
3873.8250464810071207
 21
218.8190847122124012
 31
0.0
  0
LINE
  5
AD70
  8
0
 10
3873.8067167607091505
 20
218.800767884951
 30
0.0
 11
3873.806716772307027
 21
218.8072542512321945
 31
0.0
  0
ARC
  5
AD71
  8
0
 10
3873.7866676905778149
 20
218.8072542870854136
 30
0.0
 40
0.0200490817297504
 50
359.9998975397513732
 51
77.1701151817340332
  0
ARC
  5
AD72
  8
0
 10
3873.7982665741501478
 20
218.7701103414742931
 30
0.0
 40
0.0357516686411513
 50
58.6003850129150834
 51
76.3283126688587146
  0
ARC
  5
AD73
  8
0
 10
3873.8144513152219588
 20
218.9909434112261124
 30
0.0
 40
0.190332745809932
 50
260.5203218885229148
 51
270.73513960798482
  0
ARC
  5
AD74
  8
0
 10
3873.6332485682278275
 20
217.63008682214641
 30
0.0
 40
1.1826555849954541
 50
82.7204304934747086
 51
89.7910835364702535
  0
ARC
  5
AD75
  8
0
 10
3873.6375608522557741
 20
212.5248447020150024
 30
0.0
 40
0.4129369064618413
 50
191.2517349883547126
 51
348.7482650116945138
  0
ARC
  5
AD76
  8
0
 10
3873.6382280021070983
 20
217.9292905714636106
 30
0.0
 40
0.2200010065902083
 50
359.8221815531359766
 51
180.177818446863995
  0
ARC
  5
AD77
  8
0
 10
3873.6375608522571383
 20
217.9296180380603118
 30
0.0
 40
0.2249390517442368
 50
348.8156804062380729
 51
192.8188115939462079
  0
ARC
  5
AD78
  8
0
 10
3873.6375608522571383
 20
218.2491684940559935
 30
0.0
 40
0.5976970303415855
 50
75.1127590129596427
 51
104.8872409870403004
  0
LINE
  5
AD7E
  8
0
 10
3873.8582279491938607
 20
217.9286077956145959
 30
0.0
 11
3873.8582279491938607
 21
214.6885335035200058
 31
0.0
  0
ARC
  5
AD7F
  8
0
 10
3873.4282284097480442
 20
214.6886092836622879
 30
0.0
 40
0.0100004264492051
 50
179.7829997310739998
 51
269.9989879682254923
  0
LINE
  5
AD80
  8
0
 10
3873.4282282331068927
 20
214.6786088572146127
 30
0.0
 11
3873.8482282330410271
 21
214.6786014386343027
 31
0.0
  0
ARC
  5
AD81
  8
0
 10
3873.8482284096699004
 20
214.6886012073549068
 30
0.0
 40
0.0099997687221339
 50
269.9989879682254923
 51
359.6120736640515929
  0
ARC
  5
AE2F
  8
0
 10
3872.9986867713419088
 20
215.8425348340614107
 30
0.0
 40
1.2954290183357551
 50
71.3666087940521692
 51
74.6329777699061339
  0
ARC
  5
AE30
  8
0
 10
3873.6375608523071605
 20
217.9286077956145959
 30
0.0
 40
0.908220723940297
 50
100.307002621441697
 51
250.5477921256467937
  0
ARC
  5
AE31
  8
0
 10
3873.6375608523071605
 20
217.9286077956145959
 30
0.0
 40
0.908220723940297
 50
255.5120121157412996
 51
256.0250745215591905
  0
ARC
  5
AE32
  8
0
 10
3873.6375608523071605
 20
217.9286077956145959
 30
0.0
 40
0.9082207239402965
 50
284.0616845952117728
 51
284.4879878807601017
  0
ARC
  5
AE33
  8
0
 10
3873.6375608523071605
 20
217.9286077956145959
 30
0.0
 40
0.9082207239402965
 50
289.4522078649031869
 51
79.6929973866090648
  0
LINE
  5
AE34
  8
0
 10
3873.4182280550221549
 20
217.0673644270733007
 30
0.0
 11
3873.3313881278068038
 21
217.0939626985145878
 31
0.0
  0
LINE
  5
AE35
  8
0
 10
3873.3313881278068038
 20
217.0939626985145878
 30
0.0
 11
3873.3279349210069995
 21
217.0826677597376886
 31
0.0
  0
LINE
  5
AE36
  8
0
 10
3873.3279349210069995
 20
217.0826677597376886
 30
0.0
 11
3873.4182280550221549
 21
217.054827786447305
 31
0.0
  0
ARC
  5
AE37
  8
0
 10
3873.390102749306152
 20
217.117695416142908
 30
0.0
 40
0.0713582677264865
 50
209.3971810228611901
 51
293.2124869569345833
  0
LINE
  5
AE38
  8
0
 10
3873.3419769749070838
 20
217.0916497918146035
 30
0.0
 11
3873.3416586383400499
 21
217.0908169355485029
 31
0.0
  0
ARC
  5
AE39
  8
0
 10
3874.2764349331719131
 20
215.8425348340614107
 30
0.0
 40
1.2954290183357551
 50
105.3670222300937951
 51
108.6333912059478024
  0
LINE
  5
AE3A
  8
0
 10
3873.8582279491938607
 20
217.0677731108067121
 30
0.0
 11
3873.9437335767070181
 21
217.0939626985145878
 31
0.0
  0
LINE
  5
AE3B
  8
0
 10
3873.9437335767070181
 20
217.0939626985145878
 30
0.0
 11
3873.9471867835068224
 21
217.0826677597376886
 31
0.0
  0
LINE
  5
AE3C
  8
0
 10
3873.9471867835068224
 20
217.0826677597376886
 30
0.0
 11
3873.8582279491938607
 21
217.0552391894676987
 31
0.0
  0
ARC
  5
AE3D
  8
0
 10
3873.8850189552081247
 20
217.117695416142908
 30
0.0
 40
0.0713582677264865
 50
247.9482663827340048
 51
330.6028189771387815
  0
LINE
  5
AE3E
  8
0
 10
3873.9331447296071929
 20
217.0916497918146035
 30
0.0
 11
3873.9334630661742267
 21
217.0908169355485029
 31
0.0
  0
LINE
  5
AE3F
  8
0
 10
3873.8625303326070934
 20
217.0700605255146058
 30
0.0
 11
3873.8628018504628017
 21
217.0691740547202073
 31
0.0
  0
ARC
  5
AE40
  8
0
 10
3873.6375608523071605
 20
217.9286077956145959
 30
0.0
 40
0.9100000000000001
 50
255.3147798301448006
 51
256.0529523542795118
  0
ARC
  5
AE41
  8
0
 10
3873.6375608522071161
 20
217.9286077956145959
 30
0.0
 40
0.9100000000000001
 50
289.2549755887545189
 51
79.9239798165140769
  0
ARC
  5
AE42
  8
0
 10
3873.6375608523071605
 20
217.9286077956145959
 30
0.0
 40
0.9100000000000001
 50
289.2549755789297024
 51
79.9239798256972165
  0
ENDSEC
  0
EOF
