  0
SECTION
  2
HEADER
  9
$ACADVER
  1
AC1009
  9
$INSBASE
 10
3877.0360181756768725
 20
212.4975454238447128
 30
0.0
  9
$EXTMIN
 10
3875.9160181757279133
 20
212.4927768752941972
 30
0.0
  9
$EXTMAX
 10
3878.1560181756271959
 20
220.2387673475253962
 30
0.0
  9
$LIMMIN
 10
0.0
 20
0.0
  9
$LIMMAX
 10
11.6929133858000007
 20
8.2677165353999982
  9
$ORTHOMODE
 70
     0
  9
$REGENMODE
 70
     1
  9
$FILLMODE
 70
     1
  9
$QTEXTMODE
 70
     0
  9
$MIRRTEXT
 70
     0
  9
$DRAGMODE
 70
     2
  9
$LTSCALE
 40
0.6431102362
  9
$OSMODE
 70
  3839
  9
$ATTMODE
 70
     1
  9
$TEXTSIZE
 40
0.2
  9
$TRACEWID
 40
0.05
  9
$TEXTSTYLE
  7
STANDARD
  9
$CLAYER
  8
0
  9
$CELTYPE
  6
BYLAYER
  9
$CECOLOR
 62
   256
  9
$DIMSCALE
 40
1.0
  9
$DIMASZ
 40
0.1875
  9
$DIMEXO
 40
0.0625
  9
$DIMDLI
 40
0.4443307087
  9
$DIMRND
 40
0.0
  9
$DIMDLE
 40
0.0
  9
$DIMEXE
 40
0.125
  9
$DIMTP
 40
0.01
  9
$DIMTM
 40
0.01
  9
$DIMTXT
 40
2.0
  9
$DIMCEN
 40
0.1052362205
  9
$DIMTSZ
 40
0.0
  9
$DIMTOL
 70
     1
  9
$DIMLIM
 70
     0
  9
$DIMTIH
 70
     1
  9
$DIMTOH
 70
     1
  9
$DIMSE1
 70
     0
  9
$DIMSE2
 70
     0
  9
$DIMTAD
 70
     0
  9
$DIMZIN
 70
     0
  9
$DIMBLK
  1

  9
$DIMASO
 70
     1
  9
$DIMSHO
 70
     1
  9
$DIMPOST
  1
\X
  9
$DIMAPOST
  1

  9
$DIMALT
 70
     1
  9
$DIMALTD
 70
     2
  9
$DIMALTF
 40
25.3999999999999986
  9
$DIMLFAC
 40
1.0
  9
$DIMTOFL
 70
     0
  9
$DIMTVP
 40
0.0
  9
$DIMTIX
 70
     0
  9
$DIMSOXD
 70
     0
  9
$DIMSAH
 70
     0
  9
$DIMBLK1
  1

  9
$DIMBLK2
  1

  9
$DIMSTYLE
  2
STANDARD
  9
$DIMCLRD
 70
     0
  9
$DIMCLRE
 70
     0
  9
$DIMCLRT
 70
     0
  9
$DIMTFAC
 40
1.0
  9
$DIMGAP
 40
0.09
  9
$LUNITS
 70
     2
  9
$LUPREC
 70
     4
  9
$SKETCHINC
 40
0.1
  9
$FILLETRAD
 40
0.0
  9
$AUNITS
 70
     0
  9
$AUPREC
 70
     0
  9
$MENU
  1
.
  9
$ELEVATION
 40
0.0
  9
$PELEVATION
 40
0.0
  9
$THICKNESS
 40
0.0
  9
$LIMCHECK
 70
     0
  9
$BLIPMODE
 70
     0
  9
$CHAMFERA
 40
0.0
  9
$CHAMFERB
 40
0.0
  9
$SKPOLY
 70
     0
  9
$TDCREATE
 40
2458060.468368056230247
  9
$TDUPDATE
 40
2459039.7993287038989365
  9
$TDINDWG
 40
0.7122061343
  9
$TDUSRTIMER
 40
0.7122061343
  9
$USRTIMER
 70
     1
  9
$ANGBASE
 50
0.0
  9
$ANGDIR
 70
     0
  9
$PDMODE
 70
     0
  9
$PDSIZE
 40
0.3125
  9
$PLINEWID
 40
0.0
  9
$COORDS
 70
     1
  9
$SPLFRAME
 70
     0
  9
$SPLINETYPE
 70
     6
  9
$SPLINESEGS
 70
     8
  9
$ATTDIA
 70
     1
  9
$ATTREQ
 70
     1
  9
$HANDLING
 70
     1
  9
$HANDSEED
  5
B65A
  9
$SURFTAB1
 70
     6
  9
$SURFTAB2
 70
     6
  9
$SURFTYPE
 70
     6
  9
$SURFU
 70
     6
  9
$SURFV
 70
     6
  9
$UCSNAME
  2

  9
$UCSORG
 10
0.0
 20
0.0
 30
0.0
  9
$UCSXDIR
 10
1.0
 20
0.0
 30
0.0
  9
$UCSYDIR
 10
0.0
 20
1.0
 30
0.0
  9
$PUCSNAME
  2

  9
$PUCSORG
 10
0.0
 20
0.0
 30
0.0
  9
$PUCSXDIR
 10
1.0
 20
0.0
 30
0.0
  9
$PUCSYDIR
 10
0.0
 20
1.0
 30
0.0
  9
$USERI1
 70
     0
  9
$USERI2
 70
     0
  9
$USERI3
 70
     0
  9
$USERI4
 70
     0
  9
$USERI5
 70
     0
  9
$USERR1
 40
0.0
  9
$USERR2
 40
0.0
  9
$USERR3
 40
0.0
  9
$USERR4
 40
0.0
  9
$USERR5
 40
0.0
  9
$WORLDVIEW
 70
     1
  9
$SHADEDGE
 70
     3
  9
$SHADEDIF
 70
    70
  9
$TILEMODE
 70
     1
  9
$MAXACTVP
 70
    64
  9
$PLIMCHECK
 70
     0
  9
$PEXTMIN
 10
1.0000000000000000E+20
 20
1.0000000000000000E+20
 30
1.0000000000000000E+20
  9
$PEXTMAX
 10
-1.0000000000000000E+20
 20
-1.0000000000000000E+20
 30
-1.0000000000000000E+20
  9
$PLIMMIN
 10
0.0
 20
0.0
  9
$PLIMMAX
 10
12.0
 20
9.0
  9
$UNITMODE
 70
     0
  9
$VISRETAIN
 70
     1
  9
$PLINEGEN
 70
     0
  9
$PSLTSCALE
 70
     1
  0
ENDSEC
  0
SECTION
  2
TABLES
  0
TABLE
  2
VPORT
 70
     1
  0
VPORT
  2
*ACTIVE
 70
     0
 10
0.0
 20
0.0
 11
1.0
 21
1.0
 12
0.0
 22
0.0
 13
0.0
 23
0.0
 14
1.0
 24
1.0
 15
0.0
 25
0.0
 16
0.0
 26
0.0
 36
33.474497515895159
 17
3877.0360107421870453
 27
216.3656511329596128
 37
0.0
 40
8.0631368779678514
 41
3.314341846758349
 42
50.0
 43
0.0
 44
0.0
 50
0.0
 51
0.0
 71
     0
 72
   100
 73
     1
 74
     1
 75
     0
 76
     0
 77
     0
 78
     0
  0
ENDTAB
  0
TABLE
  2
LTYPE
 70
     2
  0
LTYPE
  2
CONTINUOUS
 70
     0
  3
Solid line
 72
    65
 73
     0
 40
0.0
  0
LTYPE
  2
PHANTOM2
 70
     0
  3
___ _ _ ___ _ _ ___ _ _ ___ _ _
 72
    65
 73
     6
 40
1.25
 49
0.625
 49
-0.125
 49
0.125
 49
-0.125
 49
0.125
 49
-0.125
  0
ENDTAB
  0
TABLE
  2
LAYER
 70
     2
  0
LAYER
  2
0
 70
     0
 62
   255
  6
CONTINUOUS
  0
LAYER
  2
DEFPOINTS
 70
     0
 62
     7
  6
CONTINUOUS
  0
ENDTAB
  0
TABLE
  2
STYLE
 70
     1
  0
STYLE
  2
STANDARD
 70
     0
 40
0.0
 41
0.8
 50
0.0
 71
     0
 42
0.2
  3
txt
  4

  0
ENDTAB
  0
TABLE
  2
VIEW
 70
     0
  0
ENDTAB
  0
TABLE
  2
UCS
 70
     0
  0
ENDTAB
  0
TABLE
  2
APPID
 70
     9
  0
APPID
  2
ACAD
 70
     0
  0
APPID
  2
ACAD_MLEADERVER
 70
     0
  0
APPID
  2
ACAD_EXEMPT_FROM_CAD_STANDARDS
 70
     0
  0
APPID
  2
ACAD_NAV_VCDISPLAY
 70
     0
  0
APPID
  2
ACAECLAYERSTANDARD
 70
     0
  0
APPID
  2
ACCMTRANSPARENCY
 70
     0
  0
APPID
  2
ACAD_DSTYLE_DIMJAG
 70
     0
  0
APPID
  2
ACAD_DSTYLE_DIMTALN
 70
     0
  0
APPID
  2
ACDBATTR
 70
     0
  0
ENDTAB
  0
TABLE
  2
DIMSTYLE
 70
     1
  0
DIMSTYLE
  2
STANDARD
 70
     0
  3

  4

  5

  6

  7

 40
1.0
 41
0.1875
 42
0.0625
 43
0.38
 44
0.125
 45
0.0
 46
0.0
 47
0.01
 48
0.01
140
0.15625
141
0.09
142
0.0
143
25.3999999999999986
144
1.0
145
0.0
146
1.0
147
0.09
 71
     1
 72
     0
 73
     1
 74
     1
 75
     0
 76
     0
 77
     0
 78
     4
170
     0
171
     2
172
     0
173
     0
174
     0
175
     0
176
     0
177
     0
178
     0
  0
ENDTAB
  0
ENDSEC
  0
SECTION
  2
BLOCKS
  0
BLOCK
  8
0
  2
$MODEL_SPACE
 70
     0
 10
0.0
 20
0.0
 30
0.0
  3
$MODEL_SPACE
  1

  0
ENDBLK
  5
21
  8
0
  0
BLOCK
 67
     1
  8
0
  2
$PAPER_SPACE
 70
     0
 10
0.0
 20
0.0
 30
0.0
  3
$PAPER_SPACE
  1

  0
ENDBLK
  5
1D
 67
     1
  8
0
  0
BLOCK
  8
0
  2
_FILLED
 70
     0
 10
0.0
 20
0.0
 30
0.0
  3
_FILLED
  1

  0
SOLID
  5
6F59
  8
0
  6
BYBLOCK
 62
     0
 10
0.0
 20
0.0
 30
0.0
 11
-1.0
 21
0.1666666667
 31
0.0
 12
-1.0
 22
-0.1666666667
 32
0.0
 13
-1.0
 23
-0.1666666667
 33
0.0
  0
ENDBLK
  5
6F5A
  8
0
  6
BYBLOCK
 62
     0
  0
BLOCK
  8
0
  2
_CLOSED
 70
     0
 10
0.0
 20
0.0
 30
0.0
  3
_CLOSED
  1

  0
LINE
  5
9506
  8
0
  6
BYBLOCK
 62
     0
 10
0.0
 20
0.0
 30
0.0
 11
-1.0
 21
0.1666666667
 31
0.0
  0
LINE
  5
9507
  8
0
  6
BYBLOCK
 62
     0
 10
-1.0
 20
0.1666666667
 30
0.0
 11
-1.0
 21
-0.1666666667
 31
0.0
  0
LINE
  5
9508
  8
0
  6
BYBLOCK
 62
     0
 10
-1.0
 20
-0.1666666667
 30
0.0
 11
0.0
 21
0.0
 31
0.0
  0
LINE
  5
9509
  8
0
  6
BYBLOCK
 62
     0
 10
-1.0
 20
0.0
 30
0.0
 11
0.0
 21
0.0
 31
0.0
  0
ENDBLK
  5
950A
  8
0
  6
BYBLOCK
 62
     0
  0
ENDSEC
  0
SECTION
  2
ENTITIES
  0
ATTDEF
  5
3930
  8
DEFPOINTS
 10
3877.0361457820649775
 20
212.4961102086274991
 30
0.0
 40
0.001
  1
K-14402IN-4A
  3

  2
MODELNUMBER
 70
     0
1001
ACDBATTR
1070
     0
1070
     1
  0
ATTDEF
  5
3931
  8
DEFPOINTS
 10
3877.0361457820649775
 20
212.4944435419608055
 30
0.0
 40
0.001
  1
PURIST
  3

  2
TRADENAME
 70
     0
1001
ACDBATTR
1070
     0
1070
     1
  0
ATTDEF
  5
3932
  8
DEFPOINTS
 10
3877.0361457820649775
 20
212.4927768752941972
 30
0.0
 40
0.001
  1
BATHROOM SINK FAUCET
  3

  2
PRODUCT
 70
     0
1001
ACDBATTR
1070
     0
1070
     1
  0
LINE
  5
A8E1
  8
0
 10
3875.9460181757281134
 20
212.4975454238447128
 30
0.0
 11
3878.1260181756279053
 21
212.4975454238447128
 31
0.0
  0
LINE
  5
A8E2
  8
0
 10
3876.1260181757270402
 20
212.8475454238447071
 30
0.0
 11
3876.1260181757270402
 21
217.9525454238448106
 31
0.0
  0
LINE
  5
A8E3
  8
0
 10
3875.9160181757279133
 20
212.5275454238451971
 30
0.0
 11
3875.9160181757279133
 21
212.6375454238448128
 31
0.0
  0
LINE
  5
A8E4
  8
0
 10
3875.9460181757272039
 20
212.6675454238447003
 30
0.0
 11
3878.1260181756279053
 21
212.6675454238447003
 31
0.0
  0
ARC
  5
A8E5
  8
0
 10
3875.9460181757272039
 20
212.5275454238447139
 30
0.0
 40
0.0300000000000011
 50
180.0000000000015916
 51
270.0000000021365167
  0
ARC
  5
A8E6
  8
0
 10
3875.9460181757272039
 20
212.6375454238448128
 30
0.0
 40
0.0300000000000003
 50
90.0
 51
180.0
  0
ARC
  5
A8E7
  8
0
 10
3875.9460181757272039
 20
212.8475454238447071
 30
0.0
 40
0.1799999999999997
 50
270.0
 51
0.0
  0
LINE
  5
A8E8
  8
0
 10
3876.1260181757270402
 20
217.9525454238448106
 30
0.0
 11
3877.9460181756271595
 21
217.9525454238448106
 31
0.0
  0
LINE
  5
A8E9
  8
0
 10
3876.1574987214257817
 20
217.9737657519447964
 30
0.0
 11
3877.9145376299288728
 21
217.9737657519447964
 31
0.0
  0
ARC
  5
A8EA
  8
0
 10
3876.1575496465829929
 20
218.0035179031571886
 30
0.0
 40
0.0297521947953323
 50
177.5560240044181057
 51
269.9019299954480857
  0
LINE
  5
A8EB
  8
0
 10
3876.1278245145272194
 20
218.0047866109447057
 30
0.0
 11
3876.1537873305051107
 21
218.7498815234218057
 31
0.0
  0
LINE
  5
A8EC
  8
0
 10
3876.1837634927787803
 20
218.778834515429196
 30
0.0
 11
3877.8882728585758741
 21
218.778834515429196
 31
0.0
  0
LINE
  5
A8ED
  8
0
 10
3876.8358089372081849
 20
219.3537673497451976
 30
0.0
 11
3877.2362274141460148
 21
219.3537673497451976
 31
0.0
  0
LINE
  5
A8EE
  8
0
 10
3876.6310181757271494
 20
216.1025454238447026
 30
0.0
 11
3876.6310181757271494
 21
215.0865620718315938
 31
0.0
  0
ARC
  5
A8EF
  8
0
 10
3876.1837691651189743
 20
218.7488344014452935
 30
0.0
 40
0.0300001145201206
 50
90.0108333305278165
 51
177.9997456844575936
  0
LINE
  5
A8F0
  8
0
 10
3876.816685378441889
 20
219.373689485818602
 30
0.0
 11
3876.816685272613995
 21
220.0187673475253121
 31
0.0
  0
LINE
  5
A8F1
  8
0
 10
3876.8163422243269451
 20
219.3341149446447105
 30
0.0
 11
3876.8124131611330085
 21
219.1090287803862111
 31
0.0
  0
ARC
  5
A8F2
  8
0
 10
3876.4624664724269678
 20
219.1151373861447951
 30
0.0
 40
0.3500000000000004
 50
286.0821825944219086
 51
358.9999568569991766
  0
ARC
  5
A8F3
  8
0
 10
3876.8358018702251684
 20
219.3343067597853917
 30
0.0
 40
0.0194605912429415
 50
89.9791934199164984
 51
180.5647503631012114
  0
ARC
  5
A8F4
  8
0
 10
3876.8367175547950865
 20
219.3737791096862111
 30
0.0
 40
0.0200323768398152
 50
180.2563393515694941
 51
267.4003174815886155
  0
ARC
  5
A8F7
  8
0
 10
3877.0412858034778765
 20
215.5038645457763948
 30
0.0
 40
0.6531824356226172
 50
244.1572411163384118
 51
269.537929839836977
  0
ARC
  5
A8F8
  8
0
 10
3876.8838655564559303
 20
215.1585954963034055
 30
0.0
 40
0.2739647461260457
 50
214.4960867788765881
 51
242.3109785801858891
  0
ARC
  5
A8F9
  8
0
 10
3876.804995058590066
 20
215.0972203975588002
 30
0.0
 40
0.1743030569956239
 50
183.5057232942540111
 51
212.5514062296579141
  0
ARC
  5
A8FA
  8
0
 10
3876.8259847157141849
 20
215.0655748741824027
 30
0.0
 40
0.1960928713124855
 50
121.6872261348999018
 51
173.856046705997187
  0
ARC
  5
A8FB
  8
0
 10
3877.0391626122818707
 20
214.6899330374536135
 30
0.0
 40
0.6279174369079698
 50
90.2869225933010853
 51
120.2345240949989034
  0
ARC
  5
A908
  8
0
 10
3876.85463718259507
 20
215.3482058944217954
 30
0.0
 40
0.2266904358740153
 50
123.5253024735027054
 51
170.5575900999940018
  0
ARC
  5
A909
  8
0
 10
3877.0338302272189139
 20
215.0020349200304111
 30
0.0
 40
0.6156635993978088
 50
89.7963815361993198
 51
119.6313994339499942
  0
LINE
  5
A90C
  8
0
 10
3877.9460181756271595
 20
212.8475454238447071
 30
0.0
 11
3877.9460181756271595
 21
217.9525454238448106
 31
0.0
  0
LINE
  5
A90D
  8
0
 10
3878.1560181756271959
 20
212.5275454238451971
 30
0.0
 11
3878.1560181756271959
 21
212.6375454238448128
 31
0.0
  0
ARC
  5
A90E
  8
0
 10
3878.1260181756279053
 20
212.5275454238447139
 30
0.0
 40
0.0300000000000011
 50
269.9999999978634833
 51
359.9999999999984084
  0
ARC
  5
A90F
  8
0
 10
3878.1260181756279053
 20
212.6375454238448128
 30
0.0
 40
0.0300000000000003
 50
0.0
 51
90.0
  0
ARC
  5
A910
  8
0
 10
3878.1260181756279053
 20
212.8475454238447071
 30
0.0
 40
0.1799999999999997
 50
180.0
 51
270.0
  0
ARC
  5
A911
  8
0
 10
3877.9144867047721164
 20
218.0035179031571886
 30
0.0
 40
0.0297521947953323
 50
270.0980700045519143
 51
2.4439759955819351
  0
LINE
  5
A912
  8
0
 10
3877.9442118368278898
 20
218.0047866109447057
 30
0.0
 11
3877.918249020849089
 21
218.7498815234218057
 31
0.0
  0
LINE
  5
A913
  8
0
 10
3877.4410181756270504
 20
216.1025454238447026
 30
0.0
 11
3877.4410181756270504
 21
215.0865620718315938
 31
0.0
  0
ARC
  5
A914
  8
0
 10
3877.8882671862361349
 20
218.7488344014452935
 30
0.0
 40
0.0300001145201206
 50
2.0002543155423531
 51
89.9891666694721977
  0
ARC
  5
A915
  8
0
 10
3877.6140837767188714
 20
219.1217664792098105
 30
0.0
 40
0.3576254181505631
 50
182.041160225448607
 51
253.5189953507806138
  0
ARC
  5
A916
  8
0
 10
3877.2354934017430423
 20
219.3325288896488985
 30
0.0
 40
0.0212511402392907
 50
4.2801860678810817
 51
88.0206154154203659
  0
ARC
  5
A917
  8
0
 10
3877.2341419611889251
 20
219.3763739436971036
 30
0.0
 40
0.022702581442199
 50
275.2706049342806978
 51
353.2091951800514948
  0
ARC
  5
A918
  8
0
 10
3877.0307505478758685
 20
215.5038645457763948
 30
0.0
 40
0.6531824356226172
 50
270.462070160163023
 51
295.8427588836614746
  0
ARC
  5
A919
  8
0
 10
3877.1881707948978146
 20
215.1585954963034055
 30
0.0
 40
0.2739647461260457
 50
297.6890214198140825
 51
325.5039132211221045
  0
ARC
  5
A91A
  8
0
 10
3877.2670412927641337
 20
215.0972203975588002
 30
0.0
 40
0.1743030569956239
 50
327.4485937703420859
 51
356.4942767057460173
  0
ARC
  5
A91B
  8
0
 10
3877.2460516356409244
 20
215.0655748741824027
 30
0.0
 40
0.1960928713124855
 50
6.1439532940028183
 51
58.3127738651000698
  0
ARC
  5
A91C
  8
0
 10
3877.0328737390727838
 20
214.6899330374536135
 30
0.0
 40
0.6279174369079698
 50
59.7654759050010327
 51
89.7130774066989147
  0
ARC
  5
A929
  8
0
 10
3877.2173991687600392
 20
215.3482058944217954
 30
0.0
 40
0.2266904358740153
 50
9.4424099000059734
 51
56.4746975264972875
  0
ARC
  5
A92A
  8
0
 10
3877.0382061241361953
 20
215.0020349200304111
 30
0.0
 40
0.6156635993978088
 50
60.3686005660499987
 51
90.2036184638006659
  0
ARC
  5
A92D
  8
0
 10
3877.0360181756768725
 20
216.10254542389481
 30
0.0
 40
0.4049999999500012
 50
359.9999999929261207
 51
180.0000000070739077
  0
ARC
  5
A92E
  8
0
 10
3876.2610181757268037
 20
218.0025454238447935
 30
0.0
 40
0.060000000000014
 50
303.5573097617846088
 51
331.336721022018196
  0
ARC
  5
A92F
  8
0
 10
3877.8110181756269412
 20
218.0025454238447935
 30
0.0
 40
0.060000000000014
 50
208.6632789779816903
 51
236.4426902382153912
  0
CIRCLE
  5
AC68
  8
0
 10
3877.036685272613795
 20
220.0180997581690008
 30
0.0
 40
0.1795540642176943
  0
CIRCLE
  5
AC69
  8
0
 10
3877.036685272613795
 20
220.0187673475253121
 30
0.0
 40
0.2200000000000006
  0
LINE
  5
AC6A
  8
0
 10
3877.2566852726149591
 20
220.0187673475253121
 30
0.0
 11
3877.2566852726149591
 21
219.373689485818602
 31
0.0
  0
LINE
  5
AC6B
  8
0
 10
3877.2566852726149591
 20
219.3341149446447105
 30
0.0
 11
3877.2566852726149591
 21
219.1090287803862111
 31
0.0
  0
ARC
  5
B120
  8
0
 10
3877.0308276462860704
 20
215.312249175761508
 30
0.0
 40
0.4054036528596989
 50
232.6214858110529065
 51
270.7121019948241951
  0
ARC
  5
B121
  8
0
 10
3876.8578326364668101
 20
215.0899886701666901
 30
0.0
 40
0.1237906563468106
 50
162.5291791066235874
 51
233.7970619484464976
  0
ARC
  5
B122
  8
0
 10
3876.9063122958082204
 20
215.0470542406114873
 30
0.0
 40
0.1848188622273377
 50
108.4826069084570008
 51
154.3170326982115057
  0
ARC
  5
B123
  8
0
 10
3877.039386896311953
 20
214.7449657557349099
 30
0.0
 40
0.5144141090574896
 50
90.3828485627425522
 51
111.875405215419903
  0
ARC
  5
B124
  8
0
 10
3877.0341044600982059
 20
215.2990904019989955
 30
0.0
 40
0.3663735228555722
 50
234.4279338378711088
 51
270.3490796990859053
  0
ARC
  5
B125
  8
0
 10
3876.8906810061330361
 20
215.0961497844160135
 30
0.0
 40
0.1178798387947407
 50
188.1664349037642125
 51
233.7486491574624949
  0
ARC
  5
B126
  8
0
 10
3876.8673317102138753
 20
215.0927990608560947
 30
0.0
 40
0.0942913465092771
 50
129.0684283971270929
 51
188.1664349037642125
  0
ARC
  5
B127
  8
0
 10
3877.0349027178122014
 20
214.8790627307390935
 30
0.0
 40
0.3658752085760411
 50
89.8564497797701449
 51
128.3471413641863137
  0
ARC
  5
B128
  8
0
 10
3877.0358044991880888
 20
215.2782988385808096
 30
0.0
 40
0.3349233465360266
 50
233.2638448724663931
 51
270.0642037292325881
  0
ARC
  5
B129
  8
0
 10
3876.8988844553700801
 20
215.0861760956042872
 30
0.0
 40
0.0991960866075505
 50
182.7072589940918874
 51
230.2664240357908056
  0
ARC
  5
B12A
  8
0
 10
3876.9102536307800619
 20
215.0716780972180118
 30
0.0
 40
0.1108895662713707
 50
113.1195079249695965
 51
174.9232293846513073
  0
ARC
  5
B12B
  8
0
 10
3877.0265300470477996
 20
214.9015555376388988
 30
0.0
 40
0.315568396642246
 50
99.7192221490418262
 51
120.4271528782853977
  0
ARC
  5
B12D
  8
0
 10
3877.0411919216858223
 20
215.3122809151545027
 30
0.0
 40
0.4054390631882589
 50
269.2473426354254116
 51
307.377675962500291
  0
ARC
  5
B12E
  8
0
 10
3877.2109739513971363
 20
215.0910482592373967
 30
0.0
 40
0.1265688145017628
 50
307.0994489848882267
 51
16.5743099602351904
  0
ARC
  5
B12F
  8
0
 10
3877.1657240555459794
 20
215.0470542406114873
 30
0.0
 40
0.1848188622273377
 50
25.6829673017885085
 51
71.517393091542985
  0
ARC
  5
B130
  8
0
 10
3877.0326567417391743
 20
214.7449903502439099
 30
0.0
 40
0.5143885705045774
 50
68.1243272762341974
 51
89.6332159866041849
  0
ARC
  5
B131
  8
0
 10
3877.0379474533929169
 20
215.2990593508565098
 30
0.0
 40
0.3663392134713094
 50
269.7480618437169255
 51
305.5729115514666887
  0
ARC
  5
B132
  8
0
 10
3877.1813553452220731
 20
215.0961497844160135
 30
0.0
 40
0.1178798387947407
 50
306.2513508425375903
 51
351.8335650962358159
  0
ARC
  5
B133
  8
0
 10
3877.2047046411421434
 20
215.0927990608560947
 30
0.0
 40
0.0942913465092771
 50
351.8335650962358159
 51
50.9315716028729284
  0
ARC
  5
B134
  8
0
 10
3877.0371225911080728
 20
214.8790364082555016
 30
0.0
 40
0.3659027034874895
 50
51.6540598034782619
 51
90.2040654968361792
  0
ARC
  5
B135
  8
0
 10
3877.0362327992861537
 20
215.278297023802395
 30
0.0
 40
0.3349213256743972
 50
269.9909337972580943
 51
306.7362109750960144
  0
ARC
  5
B136
  8
0
 10
3877.1731518959841196
 20
215.0861760956042872
 30
0.0
 40
0.0991960866075505
 50
309.7335759642091944
 51
357.2927410059079989
  0
ARC
  5
B137
  8
0
 10
3877.1617827205750473
 20
215.0716780972180118
 30
0.0
 40
0.1108895662713707
 50
5.0767706153486287
 51
66.8804920750304035
  0
ARC
  5
B138
  8
0
 10
3877.0455063043082191
 20
214.9015555376388988
 30
0.0
 40
0.315568396642246
 50
59.5728471217145668
 51
80.2807778506144274
  0
LINE
  5
B139
  8
0
 10
3876.7732599102428139
 20
215.0992298055099923
 30
0.0
 11
3876.7734371047517925
 21
215.1423725670177873
 31
0.0
  0
ARC
  5
B13A
  8
0
 10
3876.8798607722478664
 20
215.1323239834127037
 30
0.0
 40
0.1068970113506239
 50
146.581713978593001
 51
174.6060911082122118
  0
ARC
  5
B13B
  8
0
 10
3876.8587706706421159
 20
215.1486699753905043
 30
0.0
 40
0.0993434924725581
 50
173.4028168015184974
 51
210.5254468494840978
  0
LINE
  5
B13C
  8
0
 10
3877.0224768690068231
 20
214.9868338142447044
 30
0.0
 11
3877.0095048939278968
 21
214.9739440506448034
 31
0.0
  0
ARC
  5
B13D
  8
0
 10
3877.0032511802028239
 20
214.9802376508301052
 30
0.0
 40
0.0088723355798629
 50
269.9790252196966094
 51
314.8178639522034814
  0
LINE
  5
B13E
  8
0
 10
3877.0032479322280778
 20
214.9713653158447073
 30
0.0
 11
3876.9753694605910823
 21
214.9713755215674951
 31
0.0
  0
ARC
  5
B13F
  8
0
 10
3876.9753727257830178
 20
214.9802948860798892
 30
0.0
 40
0.0089193651099378
 50
225.3976668055248922
 51
269.9790252196966094
  0
LINE
  5
B140
  8
0
 10
3876.9691097077279665
 20
214.9739443208447938
 30
0.0
 11
3876.9560935039307878
 21
214.9868338142447044
 31
0.0
  0
LINE
  5
B141
  8
0
 10
3877.0141135339881657
 20
214.991107547192513
 30
0.0
 11
3877.0020363389280647
 21
214.979109294344795
 31
0.0
  0
LINE
  5
B142
  8
0
 10
3877.0020363389280647
 20
214.979109294344795
 30
0.0
 11
3876.9765783743268912
 21
214.979109294344795
 31
0.0
  0
LINE
  5
B143
  8
0
 10
3876.9765783743268912
 20
214.979109294344795
 30
0.0
 11
3876.9644989046660157
 21
214.9911087748027967
 31
0.0
  0
LINE
  5
B144
  8
0
 10
3876.9644989046660157
 20
214.9911087748027967
 30
0.0
 11
3876.975366781026878
 21
215.0023023125447139
 31
0.0
  0
LINE
  5
B145
  8
0
 10
3877.0072124992170757
 20
214.9979589978266858
 30
0.0
 11
3877.0020363389280647
 21
214.9928155785447075
 31
0.0
  0
LINE
  5
B146
  8
0
 10
3877.0020363389280647
 20
214.9928155785447075
 30
0.0
 11
3876.9765783743268912
 21
214.9928155785447075
 31
0.0
  0
LINE
  5
B147
  8
0
 10
3876.9765783743268912
 20
214.9928155785447075
 30
0.0
 11
3876.9712132745898998
 21
214.9980232236964071
 31
0.0
  0
LINE
  5
B148
  8
0
 10
3876.9765783743268912
 20
214.9928155785447075
 30
0.0
 11
3876.9765783743268912
 21
214.979109294344795
 31
0.0
  0
LINE
  5
B149
  8
0
 10
3877.0020363389280647
 20
214.9928155785447075
 30
0.0
 11
3877.0020363389280647
 21
214.979109294344795
 31
0.0
  0
LINE
  5
B14A
  8
0
 10
3877.0360181756768725
 20
214.9868338142447044
 30
0.0
 11
3877.0220802777280369
 21
214.9868332932447004
 31
0.0
  0
ARC
  5
B14B
  8
0
 10
3877.0220799456328677
 20
214.9957175377369936
 30
0.0
 40
0.008884244498413
 50
225.2065771625048001
 51
270.0021417218850956
  0
LINE
  5
B14C
  8
0
 10
3877.0158205267280209
 20
214.9894128192447056
 30
0.0
 11
3877.0028377518110574
 21
215.0023023125447139
 31
0.0
  0
ARC
  5
B14D
  8
0
 10
3876.9553040452337882
 20
214.9987868464797032
 30
0.0
 40
0.0119790744486375
 50
273.7787108187263811
 51
320.136782005274199
  0
LINE
  5
B14E
  8
0
 10
3877.0224768690068231
 20
215.0177657080832887
 30
0.0
 11
3877.0095048939278968
 21
215.0048759444833024
 31
0.0
  0
ARC
  5
B14F
  8
0
 10
3877.0032511802028239
 20
215.0111695446686895
 30
0.0
 40
0.0088723355798629
 50
269.9790252196966094
 51
314.8178639522034814
  0
LINE
  5
B150
  8
0
 10
3877.0032479322280778
 20
215.0022972096832916
 30
0.0
 11
3876.9753694605910823
 21
215.0023074154061931
 31
0.0
  0
ARC
  5
B151
  8
0
 10
3876.9753727257830178
 20
215.0112267799183883
 30
0.0
 40
0.0089193651099378
 50
225.3976668055248922
 51
269.9790252196966094
  0
LINE
  5
B152
  8
0
 10
3876.9691097077279665
 20
215.0048762146832928
 30
0.0
 11
3876.9560935039307878
 21
215.0177657080832887
 31
0.0
  0
LINE
  5
B153
  8
0
 10
3877.0141135339881657
 20
215.0220394410310973
 30
0.0
 11
3877.0020363389280647
 21
215.010041188183294
 31
0.0
  0
LINE
  5
B154
  8
0
 10
3877.0020363389280647
 20
215.010041188183294
 30
0.0
 11
3876.9765783743268912
 21
215.010041188183294
 31
0.0
  0
LINE
  5
B155
  8
0
 10
3876.9765783743268912
 20
215.010041188183294
 30
0.0
 11
3876.9644989046660157
 21
215.0220406686414094
 31
0.0
  0
LINE
  5
B156
  8
0
 10
3876.9644989046660157
 20
215.0220406686414094
 30
0.0
 11
3876.9762404867537953
 21
215.0341340931418017
 31
0.0
  0
LINE
  5
B157
  8
0
 10
3877.0072124992170757
 20
215.0288908916652986
 30
0.0
 11
3877.0020363389280647
 21
215.0237474723832918
 31
0.0
  0
LINE
  5
B158
  8
0
 10
3877.0020363389280647
 20
215.0237474723832918
 30
0.0
 11
3876.9765783743268912
 21
215.0237474723832918
 31
0.0
  0
LINE
  5
B159
  8
0
 10
3876.9765783743268912
 20
215.0237474723832918
 30
0.0
 11
3876.9712132745898998
 21
215.0289551175349914
 31
0.0
  0
LINE
  5
B15A
  8
0
 10
3876.9765783743268912
 20
215.0237474723832918
 30
0.0
 11
3876.9765783743268912
 21
215.010041188183294
 31
0.0
  0
LINE
  5
B15B
  8
0
 10
3877.0020363389280647
 20
215.0237474723832918
 30
0.0
 11
3877.0020363389280647
 21
215.010041188183294
 31
0.0
  0
LINE
  5
B15C
  8
0
 10
3877.0360181756768725
 20
215.0177657080832887
 30
0.0
 11
3877.0220802777280369
 21
215.0177651870833131
 31
0.0
  0
ARC
  5
B15D
  8
0
 10
3877.0220799456328677
 20
215.0266494315756063
 30
0.0
 40
0.008884244498413
 50
225.2065771625048001
 51
270.0021417218850956
  0
LINE
  5
B15E
  8
0
 10
3877.0158205267280209
 20
215.0203447130832899
 30
0.0
 11
3877.0019408289908824
 21
215.0341246847864056
 31
0.0
  0
ARC
  5
B15F
  8
0
 10
3876.9553040452337882
 20
215.0297187403182875
 30
0.0
 40
0.0119790744486375
 50
273.7787108187263811
 51
320.136782005274199
  0
LINE
  5
B160
  8
0
 10
3877.0224768690068231
 20
215.049592704683306
 30
0.0
 11
3877.0095048939278968
 21
215.0367029410832913
 31
0.0
  0
ARC
  5
B161
  8
0
 10
3877.0032511802028239
 20
215.0429965412687068
 30
0.0
 40
0.0088723355798629
 50
269.9790252196966094
 51
314.8178639522034814
  0
LINE
  5
B162
  8
0
 10
3877.0032479322280778
 20
215.0341242062833089
 30
0.0
 11
3876.9753694605910823
 21
215.0341344120060967
 31
0.0
  0
ARC
  5
B163
  8
0
 10
3876.9753727257830178
 20
215.0430537765184056
 30
0.0
 40
0.0089193651099378
 50
225.3976668055248922
 51
269.9790252196966094
  0
LINE
  5
B164
  8
0
 10
3876.9691097077279665
 20
215.0367032112833101
 30
0.0
 11
3876.9560935039307878
 21
215.049592704683306
 31
0.0
  0
LINE
  5
B165
  8
0
 10
3877.0141135339881657
 20
215.053866437631001
 30
0.0
 11
3877.0020363389280647
 21
215.0418681847833113
 31
0.0
  0
LINE
  5
B166
  8
0
 10
3877.0020363389280647
 20
215.0418681847833113
 30
0.0
 11
3876.9765783743268912
 21
215.0418681847833113
 31
0.0
  0
LINE
  5
B167
  8
0
 10
3876.9765783743268912
 20
215.0418681847833113
 30
0.0
 11
3876.9644989046660157
 21
215.0538676652413983
 31
0.0
  0
LINE
  5
B168
  8
0
 10
3876.9644989046660157
 20
215.0538676652413983
 30
0.0
 11
3876.9745494325338768
 21
215.0642193622306877
 31
0.0
  0
LINE
  5
B169
  8
0
 10
3877.0072124992170757
 20
215.0607178882652875
 30
0.0
 11
3877.0020363389280647
 21
215.0555744689833944
 31
0.0
  0
LINE
  5
B16A
  8
0
 10
3877.0020363389280647
 20
215.0555744689833944
 30
0.0
 11
3876.9765783743268912
 21
215.0555744689833944
 31
0.0
  0
LINE
  5
B16B
  8
0
 10
3876.9765783743268912
 20
215.0555744689833944
 30
0.0
 11
3876.9712132745898998
 21
215.0607821141350087
 31
0.0
  0
LINE
  5
B16C
  8
0
 10
3876.9765783743268912
 20
215.0555744689833944
 30
0.0
 11
3876.9765783743268912
 21
215.0418681847833113
 31
0.0
  0
LINE
  5
B16D
  8
0
 10
3877.0020363389280647
 20
215.0555744689833944
 30
0.0
 11
3877.0020363389280647
 21
215.0418681847833113
 31
0.0
  0
LINE
  5
B16E
  8
0
 10
3877.0360181756768725
 20
215.049592704683306
 30
0.0
 11
3877.0220802777280369
 21
215.049592183683302
 31
0.0
  0
ARC
  5
B16F
  8
0
 10
3877.0220799456328677
 20
215.0584764281755099
 30
0.0
 40
0.008884244498413
 50
225.2065771625048001
 51
270.0021417218850956
  0
LINE
  5
B170
  8
0
 10
3877.0158205267280209
 20
215.0521717096833072
 30
0.0
 11
3877.0037215536449366
 21
215.0641837512916936
 31
0.0
  0
ARC
  5
B171
  8
0
 10
3876.9553040452337882
 20
215.06154573691839
 30
0.0
 40
0.0119790744486375
 50
273.7787108187263811
 51
320.136782005274199
  0
LINE
  5
B172
  8
0
 10
3877.0224755292238115
 20
215.0796397016833055
 30
0.0
 11
3877.0095035541457946
 21
215.0667499380832908
 31
0.0
  0
ARC
  5
B173
  8
0
 10
3877.0032498404211765
 20
215.0730435382687062
 30
0.0
 40
0.0088723355798629
 50
269.9790252196966094
 51
314.8178639522034814
  0
LINE
  5
B174
  8
0
 10
3877.0032465924459757
 20
215.0641712032833084
 30
0.0
 11
3876.9753681208098897
 21
215.0641814090060961
 31
0.0
  0
ARC
  5
B175
  8
0
 10
3876.9753713860009157
 20
215.073100773518405
 30
0.0
 40
0.0089193651099378
 50
225.3976668055248922
 51
269.9790252196966094
  0
LINE
  5
B176
  8
0
 10
3876.9691083679458643
 20
215.0667502082833096
 30
0.0
 11
3876.9560921641500499
 21
215.0796397016833055
 31
0.0
  0
LINE
  5
B177
  8
0
 10
3877.0141121942051541
 20
215.0839134346310004
 30
0.0
 11
3877.0020349991459625
 21
215.0719151817833108
 31
0.0
  0
LINE
  5
B178
  8
0
 10
3877.0020349991459625
 20
215.0719151817833108
 30
0.0
 11
3876.9765770345461533
 21
215.0719151817833108
 31
0.0
  0
LINE
  5
B179
  8
0
 10
3876.9765770345461533
 20
215.0719151817833108
 30
0.0
 11
3876.9644975648839136
 21
215.0839146622413978
 31
0.0
  0
LINE
  5
B17A
  8
0
 10
3876.9644975648839136
 20
215.0839146622413978
 30
0.0
 11
3876.9753753479540137
 21
215.0951184035509129
 31
0.0
  0
LINE
  5
B17B
  8
0
 10
3877.0072111594349735
 20
215.0907648852652869
 30
0.0
 11
3877.0020349991459625
 21
215.0856214659833938
 31
0.0
  0
LINE
  5
B17C
  8
0
 10
3877.0020349991459625
 20
215.0856214659833938
 30
0.0
 11
3876.9765770345461533
 21
215.0856214659833938
 31
0.0
  0
LINE
  5
B17D
  8
0
 10
3876.9765770345461533
 20
215.0856214659833938
 30
0.0
 11
3876.9712119348077977
 21
215.0908291111350081
 31
0.0
  0
LINE
  5
B17E
  8
0
 10
3876.9765770345461533
 20
215.0856214659833938
 30
0.0
 11
3876.9765770345461533
 21
215.0719151817833108
 31
0.0
  0
LINE
  5
B17F
  8
0
 10
3877.0020349991459625
 20
215.0856214659833938
 30
0.0
 11
3877.0020349991459625
 21
215.0719151817833108
 31
0.0
  0
LINE
  5
B180
  8
0
 10
3877.0360168358961346
 20
215.0796397016833055
 30
0.0
 11
3877.0220789379459347
 21
215.0796391806833014
 31
0.0
  0
ARC
  5
B181
  8
0
 10
3877.0220786058521298
 20
215.0885234251755094
 30
0.0
 40
0.008884244498413
 50
225.2065771625048001
 51
270.0021417218850956
  0
LINE
  5
B182
  8
0
 10
3877.0158191869459188
 20
215.0822187066833067
 30
0.0
 11
3877.002836260235199
 21
215.0951083506878092
 31
0.0
  0
ARC
  5
B183
  8
0
 10
3876.9553027054530503
 20
215.0915927339183895
 30
0.0
 40
0.0119790744486375
 50
273.7787108187263811
 51
320.136782005274199
  0
LINE
  5
B184
  8
0
 10
3877.0224768690068231
 20
215.1105766983833973
 30
0.0
 11
3877.0095048939278968
 21
215.0976869347832974
 31
0.0
  0
ARC
  5
B185
  8
0
 10
3877.0032511802028239
 20
215.1039805349687128
 30
0.0
 40
0.0088723355798629
 50
269.9790252196966094
 51
314.8178639522034814
  0
LINE
  5
B186
  8
0
 10
3877.0032479322280778
 20
215.0951081999834003
 30
0.0
 11
3876.9753694605910823
 21
215.0951184057061027
 31
0.0
  0
ARC
  5
B187
  8
0
 10
3876.9753727257830178
 20
215.1040377702184117
 30
0.0
 40
0.0089193651099378
 50
225.3976668055248922
 51
269.9790252196966094
  0
LINE
  5
B188
  8
0
 10
3876.9691097077279665
 20
215.0976872049834014
 30
0.0
 11
3876.9560935039307878
 21
215.1105766983833973
 31
0.0
  0
LINE
  5
B189
  8
0
 10
3877.0141135339881657
 20
215.1148504313310923
 30
0.0
 11
3877.0020363389280647
 21
215.102852178483289
 31
0.0
  0
LINE
  5
B18A
  8
0
 10
3877.0020363389280647
 20
215.102852178483289
 30
0.0
 11
3876.9765783743268912
 21
215.102852178483289
 31
0.0
  0
LINE
  5
B18B
  8
0
 10
3876.9765783743268912
 20
215.102852178483289
 30
0.0
 11
3876.9644989046660157
 21
215.1148516589414044
 31
0.0
  0
LINE
  5
B18C
  8
0
 10
3876.9644989046660157
 20
215.1148516589414044
 30
0.0
 11
3876.9753766873568566
 21
215.1260553998606042
 31
0.0
  0
LINE
  5
B18D
  8
0
 10
3877.0072124992170757
 20
215.1217018819652935
 30
0.0
 11
3877.0020363389280647
 21
215.1165584626832867
 31
0.0
  0
LINE
  5
B18E
  8
0
 10
3877.0020363389280647
 20
215.1165584626832867
 30
0.0
 11
3876.9765783743268912
 21
215.1165584626832867
 31
0.0
  0
LINE
  5
B18F
  8
0
 10
3876.9765783743268912
 20
215.1165584626832867
 30
0.0
 11
3876.9712132745898998
 21
215.1217661078349863
 31
0.0
  0
LINE
  5
B190
  8
0
 10
3876.9765783743268912
 20
215.1165584626832867
 30
0.0
 11
3876.9765783743268912
 21
215.102852178483289
 31
0.0
  0
LINE
  5
B191
  8
0
 10
3877.0020363389280647
 20
215.1165584626832867
 30
0.0
 11
3877.0020363389280647
 21
215.102852178483289
 31
0.0
  0
LINE
  5
B192
  8
0
 10
3877.0360181756768725
 20
215.1105766983833973
 30
0.0
 11
3877.0220802777280369
 21
215.1105761773833933
 31
0.0
  0
ARC
  5
B193
  8
0
 10
3877.0220799456328677
 20
215.1194604218754876
 30
0.0
 40
0.008884244498413
 50
225.2065771625048001
 51
270.0021417218850956
  0
LINE
  5
B194
  8
0
 10
3877.0158205267280209
 20
215.1131557033833985
 30
0.0
 11
3877.0028376004088386
 21
215.1260453469971878
 31
0.0
  0
ARC
  5
B195
  8
0
 10
3876.9553040452337882
 20
215.1225297306183109
 30
0.0
 40
0.0119790744486375
 50
273.7787108187263811
 51
320.136782005274199
  0
LINE
  5
B196
  8
0
 10
3877.0224768690068231
 20
215.1415136951833063
 30
0.0
 11
3877.0095048939278968
 21
215.1286239315832916
 31
0.0
  0
ARC
  5
B197
  8
0
 10
3877.0032511802028239
 20
215.134917531768707
 30
0.0
 40
0.0088723355798629
 50
269.9790252196966094
 51
314.8178639522034814
  0
LINE
  5
B198
  8
0
 10
3877.0032479322280778
 20
215.1260451967833092
 30
0.0
 11
3876.9753694605910823
 21
215.1260554025060969
 31
0.0
  0
ARC
  5
B199
  8
0
 10
3876.9753727257830178
 20
215.1349747670184911
 30
0.0
 40
0.0089193651099378
 50
225.3976668055248922
 51
269.9790252196966094
  0
LINE
  5
B19A
  8
0
 10
3876.9691097077279665
 20
215.1286242017833956
 30
0.0
 11
3876.9560935039307878
 21
215.1415136951833063
 31
0.0
  0
LINE
  5
B19B
  8
0
 10
3877.0141135339881657
 20
215.1457874281310865
 30
0.0
 11
3877.0020363389280647
 21
215.1337891752833968
 31
0.0
  0
LINE
  5
B19C
  8
0
 10
3877.0020363389280647
 20
215.1337891752833968
 30
0.0
 11
3876.9765783743268912
 21
215.1337891752833968
 31
0.0
  0
LINE
  5
B19D
  8
0
 10
3876.9765783743268912
 20
215.1337891752833968
 30
0.0
 11
3876.9644989046660157
 21
215.1457886557413985
 31
0.0
  0
LINE
  5
B19E
  8
0
 10
3876.9644989046660157
 20
215.1457886557413985
 30
0.0
 11
3876.9753766873568566
 21
215.1569923966605984
 31
0.0
  0
LINE
  5
B19F
  8
0
 10
3877.0072124992170757
 20
215.1526388787652877
 30
0.0
 11
3877.0020363389280647
 21
215.1474954594833093
 31
0.0
  0
LINE
  5
B1A0
  8
0
 10
3877.0020363389280647
 20
215.1474954594833093
 30
0.0
 11
3876.9765783743268912
 21
215.1474954594833093
 31
0.0
  0
LINE
  5
B1A1
  8
0
 10
3876.9765783743268912
 20
215.1474954594833093
 30
0.0
 11
3876.9712132745898998
 21
215.1527031046350089
 31
0.0
  0
LINE
  5
B1A2
  8
0
 10
3876.9765783743268912
 20
215.1474954594833093
 30
0.0
 11
3876.9765783743268912
 21
215.1337891752833968
 31
0.0
  0
LINE
  5
B1A3
  8
0
 10
3877.0020363389280647
 20
215.1474954594833093
 30
0.0
 11
3877.0020363389280647
 21
215.1337891752833968
 31
0.0
  0
LINE
  5
B1A4
  8
0
 10
3877.0360181756768725
 20
215.1415136951833063
 30
0.0
 11
3877.0220802777280369
 21
215.1415131741833022
 31
0.0
  0
ARC
  5
B1A5
  8
0
 10
3877.0220799456328677
 20
215.1503974186755954
 30
0.0
 40
0.008884244498413
 50
225.2065771625048001
 51
270.0021417218850956
  0
LINE
  5
B1A6
  8
0
 10
3877.0158205267280209
 20
215.1440927001833074
 30
0.0
 11
3877.0028376004088386
 21
215.1569823437972104
 31
0.0
  0
ARC
  5
B1A7
  8
0
 10
3876.9553040452337882
 20
215.153466727418305
 30
0.0
 40
0.0119790744486375
 50
273.7787108187263811
 51
320.136782005274199
  0
LINE
  5
B1A8
  8
0
 10
3877.0224768690068231
 20
215.1724506919833004
 30
0.0
 11
3877.0095048939278968
 21
215.1595609283833141
 31
0.0
  0
ARC
  5
B1A9
  8
0
 10
3877.0032511802028239
 20
215.1658545285687012
 30
0.0
 40
0.0088723355798629
 50
269.9790252196966094
 51
314.8178639522034814
  0
LINE
  5
B1AA
  8
0
 10
3877.0032479322280778
 20
215.1569821935833033
 30
0.0
 11
3876.9753694605910823
 21
215.1569923993060911
 31
0.0
  0
ARC
  5
B1AB
  8
0
 10
3876.9753727257830178
 20
215.1659117638184
 30
0.0
 40
0.0089193651099378
 50
225.3976668055248922
 51
269.9790252196966094
  0
LINE
  5
B1AC
  8
0
 10
3876.9691097077279665
 20
215.1595611985833045
 30
0.0
 11
3876.9560935039307878
 21
215.1724506919833004
 31
0.0
  0
LINE
  5
B1AD
  8
0
 10
3877.0141135339881657
 20
215.1767244249309954
 30
0.0
 11
3877.0020363389280647
 21
215.1647261720833058
 31
0.0
  0
LINE
  5
B1AE
  8
0
 10
3877.0020363389280647
 20
215.1647261720833058
 30
0.0
 11
3876.9765783743268912
 21
215.1647261720833058
 31
0.0
  0
LINE
  5
B1AF
  8
0
 10
3876.9765783743268912
 20
215.1647261720833058
 30
0.0
 11
3876.9644989046660157
 21
215.1767256525413927
 31
0.0
  0
LINE
  5
B1B0
  8
0
 10
3876.9644989046660157
 20
215.1767256525413927
 30
0.0
 11
3876.9753766872599954
 21
215.187929393360605
 31
0.0
  0
LINE
  5
B1B1
  8
0
 10
3877.0072124992170757
 20
215.1835758755653103
 30
0.0
 11
3877.0020363389280647
 21
215.1784324562833035
 31
0.0
  0
LINE
  5
B1B2
  8
0
 10
3877.0020363389280647
 20
215.1784324562833035
 30
0.0
 11
3876.9765783743268912
 21
215.1784324562833035
 31
0.0
  0
LINE
  5
B1B3
  8
0
 10
3876.9765783743268912
 20
215.1784324562833035
 30
0.0
 11
3876.9712132745898998
 21
215.1836401014350031
 31
0.0
  0
LINE
  5
B1B4
  8
0
 10
3876.9765783743268912
 20
215.1784324562833035
 30
0.0
 11
3876.9765783743268912
 21
215.1647261720833058
 31
0.0
  0
LINE
  5
B1B5
  8
0
 10
3877.0020363389280647
 20
215.1784324562833035
 30
0.0
 11
3877.0020363389280647
 21
215.1647261720833058
 31
0.0
  0
LINE
  5
B1B6
  8
0
 10
3877.0360181756768725
 20
215.1724506919833004
 30
0.0
 11
3877.0220802777280369
 21
215.1724501709832964
 31
0.0
  0
ARC
  5
B1B7
  8
0
 10
3877.0220799456328677
 20
215.1813344154755896
 30
0.0
 40
0.008884244498413
 50
225.2065771625048001
 51
270.0021417218850956
  0
LINE
  5
B1B8
  8
0
 10
3877.0158205267280209
 20
215.1750296969833016
 30
0.0
 11
3877.0028376005097925
 21
215.1879193404971886
 31
0.0
  0
ARC
  5
B1B9
  8
0
 10
3876.9553040452337882
 20
215.1844037242182992
 30
0.0
 40
0.0119790744486375
 50
273.7787108187263811
 51
320.136782005274199
  0
LINE
  5
B1BA
  8
0
 10
3877.0224768690068231
 20
215.203387688683307
 30
0.0
 11
3877.0095048939278968
 21
215.1904979250832923
 31
0.0
  0
ARC
  5
B1BB
  8
0
 10
3877.0032511802028239
 20
215.1967915252687078
 30
0.0
 40
0.0088723355798629
 50
269.9790252196966094
 51
314.8178639522034814
  0
LINE
  5
B1BC
  8
0
 10
3877.0032479322280778
 20
215.1879191902833099
 30
0.0
 11
3876.9753694605910823
 21
215.1879293960060977
 31
0.0
  0
ARC
  5
B1BD
  8
0
 10
3876.9753727257830178
 20
215.1968487605184066
 30
0.0
 40
0.0089193651099378
 50
225.3976668055248922
 51
269.9790252196966094
  0
LINE
  5
B1BE
  8
0
 10
3876.9691097077279665
 20
215.1904981952833111
 30
0.0
 11
3876.9560935039307878
 21
215.203387688683307
 31
0.0
  0
LINE
  5
B1BF
  8
0
 10
3877.0141135339881657
 20
215.2076614216310873
 30
0.0
 11
3877.0020363389280647
 21
215.1956631687833124
 31
0.0
  0
LINE
  5
B1C0
  8
0
 10
3877.0020363389280647
 20
215.1956631687833124
 30
0.0
 11
3876.9765783743268912
 21
215.1956631687833124
 31
0.0
  0
LINE
  5
B1C1
  8
0
 10
3876.9765783743268912
 20
215.1956631687833124
 30
0.0
 11
3876.9644989046660157
 21
215.2076626492413993
 31
0.0
  0
LINE
  5
B1C2
  8
0
 10
3876.9644989046660157
 20
215.2076626492413993
 30
0.0
 11
3876.9684511395489608
 21
215.211733314829786
 31
0.0
  0
LINE
  5
B1C3
  8
0
 10
3877.0072124992170757
 20
215.2145128722652885
 30
0.0
 11
3877.0020363389280647
 21
215.2093694529833101
 31
0.0
  0
LINE
  5
B1C4
  8
0
 10
3877.0020363389280647
 20
215.2093694529833101
 30
0.0
 11
3876.9765783743268912
 21
215.2093694529833101
 31
0.0
  0
LINE
  5
B1C5
  8
0
 10
3876.9765783743268912
 20
215.2093694529833101
 30
0.0
 11
3876.9732557702791382
 21
215.2125945454725127
 31
0.0
  0
LINE
  5
B1C6
  8
0
 10
3876.9765783743268912
 20
215.2093694529833101
 30
0.0
 11
3876.9765783743268912
 21
215.1956631687833124
 31
0.0
  0
LINE
  5
B1C7
  8
0
 10
3877.0020363389280647
 20
215.2093694529833101
 30
0.0
 11
3877.0020363389280647
 21
215.1956631687833124
 31
0.0
  0
LINE
  5
B1C8
  8
0
 10
3877.0360181756768725
 20
215.203387688683307
 30
0.0
 11
3877.0220802777280369
 21
215.203387167683303
 31
0.0
  0
ARC
  5
B1C9
  8
0
 10
3877.0220799456328677
 20
215.2122714121755109
 30
0.0
 40
0.008884244498413
 50
225.2065771625048001
 51
270.0021417218850956
  0
LINE
  5
B1CA
  8
0
 10
3877.0158205267280209
 20
215.2059666936833082
 30
0.0
 11
3877.0053024877229291
 21
215.2164091602708993
 31
0.0
  0
ARC
  5
B1CB
  8
0
 10
3876.9553040452337882
 20
215.2153407209183058
 30
0.0
 40
0.0119790744486375
 50
273.7787108187263811
 51
320.136782005274199
  0
LINE
  5
B1CC
  8
0
 10
3876.9560935039307878
 20
215.0177657080832887
 30
0.0
 11
3876.9290995713240591
 21
215.0177657080832887
 31
0.0
  0
LINE
  5
B1CD
  8
0
 10
3876.9560935039307878
 20
215.049592704683306
 30
0.0
 11
3876.9290995713240591
 21
215.049592704683306
 31
0.0
  0
LINE
  5
B1CE
  8
0
 10
3876.9560921641500499
 20
215.0796397016833055
 30
0.0
 11
3876.9286572999458258
 21
215.0796391806833014
 31
0.0
  0
LINE
  5
B1CF
  8
0
 10
3876.9560935039307878
 20
215.1105766983833973
 30
0.0
 11
3876.9286572999458258
 21
215.1105761773833933
 31
0.0
  0
LINE
  5
B1D0
  8
0
 10
3876.9560935039307878
 20
215.1415136951833063
 30
0.0
 11
3876.9290995713240591
 21
215.1415136951833063
 31
0.0
  0
LINE
  5
B1D1
  8
0
 10
3876.9560935039307878
 20
215.1724506919833004
 30
0.0
 11
3876.9286572999458258
 21
215.1724501709832964
 31
0.0
  0
LINE
  5
B1D2
  8
0
 10
3876.9673979484919073
 20
215.0065713102524967
 30
0.0
 11
3876.9553255199280102
 21
214.9945777927447921
 31
0.0
  0
LINE
  5
B1D3
  8
0
 10
3876.9553255199280102
 20
214.9945777927447921
 30
0.0
 11
3876.929867555328201
 21
214.9945777927447921
 31
0.0
  0
LINE
  5
B1D4
  8
0
 10
3876.9604880449110169
 20
215.0134139471682033
 30
0.0
 11
3876.9553255199280102
 21
215.0082840769447046
 31
0.0
  0
LINE
  5
B1D5
  8
0
 10
3876.9553255199280102
 20
215.0082840769447046
 30
0.0
 11
3876.929867555328201
 21
215.0082840769447046
 31
0.0
  0
LINE
  5
B1D6
  8
0
 10
3876.9553255199280102
 20
215.0082840769447046
 30
0.0
 11
3876.9553255199280102
 21
214.9945777927447921
 31
0.0
  0
LINE
  5
B1D7
  8
0
 10
3876.9560935039307878
 20
214.9868338142447044
 30
0.0
 11
3876.9286586397279279
 21
214.9868332932447004
 31
0.0
  0
LINE
  5
B1D8
  8
0
 10
3876.9678465984488867
 20
215.0379540244219925
 30
0.0
 11
3876.9553255199280102
 21
215.025514789544701
 31
0.0
  0
LINE
  5
B1D9
  8
0
 10
3876.9553255199280102
 20
215.025514789544701
 30
0.0
 11
3876.929867555328201
 21
215.025514789544701
 31
0.0
  0
LINE
  5
B1DA
  8
0
 10
3876.9609366471240719
 20
215.0447967086167864
 30
0.0
 11
3876.9553255199280102
 21
215.0392210737446987
 31
0.0
  0
LINE
  5
B1DB
  8
0
 10
3876.9553255199280102
 20
215.0392210737446987
 30
0.0
 11
3876.929867555328201
 21
215.0392210737446987
 31
0.0
  0
LINE
  5
B1DC
  8
0
 10
3876.9553255199280102
 20
215.0392210737446987
 30
0.0
 11
3876.9553255199280102
 21
215.025514789544701
 31
0.0
  0
LINE
  5
B1DD
  8
0
 10
3876.9674027149881113
 20
215.0684500390925109
 30
0.0
 11
3876.9553255199280102
 21
215.0564517862447076
 31
0.0
  0
LINE
  5
B1DE
  8
0
 10
3876.9553255199280102
 20
215.0564517862447076
 30
0.0
 11
3876.929867555328201
 21
215.0564517862447076
 31
0.0
  0
LINE
  5
B1DF
  8
0
 10
3876.9605016802179307
 20
215.0753014897267121
 30
0.0
 11
3876.9553255199280102
 21
215.0701580704447053
 31
0.0
  0
LINE
  5
B1E0
  8
0
 10
3876.9553255199280102
 20
215.0701580704447053
 30
0.0
 11
3876.929867555328201
 21
215.0701580704447053
 31
0.0
  0
LINE
  5
B1E1
  8
0
 10
3876.9553255199280102
 20
215.0701580704447053
 30
0.0
 11
3876.9553255199280102
 21
215.0564517862447076
 31
0.0
  0
LINE
  5
B1E2
  8
0
 10
3876.9674027149881113
 20
215.0993870358925051
 30
0.0
 11
3876.9553255199280102
 21
215.0873887830447018
 31
0.0
  0
LINE
  5
B1E3
  8
0
 10
3876.9553255199280102
 20
215.0873887830447018
 30
0.0
 11
3876.929867555328201
 21
215.0873887830447018
 31
0.0
  0
LINE
  5
B1E4
  8
0
 10
3876.9605016802179307
 20
215.1062384865267063
 30
0.0
 11
3876.9553255199280102
 21
215.1010950672446995
 31
0.0
  0
LINE
  5
B1E5
  8
0
 10
3876.9553255199280102
 20
215.1010950672446995
 30
0.0
 11
3876.929867555328201
 21
215.1010950672446995
 31
0.0
  0
LINE
  5
B1E6
  8
0
 10
3876.9553255199280102
 20
215.1010950672446995
 30
0.0
 11
3876.9553255199280102
 21
215.0873887830447018
 31
0.0
  0
LINE
  5
B1E7
  8
0
 10
3876.9674027149881113
 20
215.1303240325925117
 30
0.0
 11
3876.9553255199280102
 21
215.1183257797447084
 31
0.0
  0
LINE
  5
B1E8
  8
0
 10
3876.9553255199280102
 20
215.1183257797447084
 30
0.0
 11
3876.929867555328201
 21
215.1183257797447084
 31
0.0
  0
LINE
  5
B1E9
  8
0
 10
3876.9605016802179307
 20
215.1371754832267129
 30
0.0
 11
3876.9553255199280102
 21
215.1320320639447914
 31
0.0
  0
LINE
  5
B1EA
  8
0
 10
3876.9553255199280102
 20
215.1320320639447914
 30
0.0
 11
3876.929867555328201
 21
215.1320320639447914
 31
0.0
  0
LINE
  5
B1EB
  8
0
 10
3876.9553255199280102
 20
215.1320320639447914
 30
0.0
 11
3876.9553255199280102
 21
215.1183257797447084
 31
0.0
  0
LINE
  5
B1EC
  8
0
 10
3876.9674027149881113
 20
215.1921980261925
 30
0.0
 11
3876.9553255199280102
 21
215.1801997733446967
 31
0.0
  0
LINE
  5
B1ED
  8
0
 10
3876.9553255199280102
 20
215.1801997733446967
 30
0.0
 11
3876.929867555328201
 21
215.1801997733446967
 31
0.0
  0
LINE
  5
B1EE
  8
0
 10
3876.9605016802179307
 20
215.1990494768267013
 30
0.0
 11
3876.9553255199280102
 21
215.1939060575446945
 31
0.0
  0
LINE
  5
B1EF
  8
0
 10
3876.9553255199280102
 20
215.1939060575446945
 30
0.0
 11
3876.929867555328201
 21
215.1939060575446945
 31
0.0
  0
LINE
  5
B1F0
  8
0
 10
3876.9553255199280102
 20
215.1939060575446945
 30
0.0
 11
3876.9553255199280102
 21
215.1801997733446967
 31
0.0
  0
ARC
  5
B1F1
  8
0
 10
3876.9190940509888605
 20
214.9841322650925974
 30
0.0
 40
0.0054224132569383
 50
179.9949335976342866
 51
295.0786661877302208
  0
LINE
  5
B1F2
  8
0
 10
3876.921392407050007
 20
214.9792210407092909
 30
0.0
 11
3876.9290995713240591
 21
214.9868338142447044
 31
0.0
  0
LINE
  5
B1F3
  8
0
 10
3876.913671637752941
 20
214.9841327445716956
 30
0.0
 11
3876.9206941705888312
 21
214.9911087748027967
 31
0.0
  0
LINE
  5
B1F4
  8
0
 10
3876.9206941705888312
 20
214.9911087748027967
 30
0.0
 11
3876.9098262942279689
 21
215.0023023125447139
 31
0.0
  0
LINE
  5
B1F5
  8
0
 10
3876.9019452378329333
 20
215.0023045312979093
 30
0.0
 11
3876.9136716377279299
 21
214.9977241047043037
 31
0.0
  0
LINE
  5
B1F6
  8
0
 10
3876.9136716377279299
 20
214.9977241047043037
 30
0.0
 11
3876.913671637752941
 21
214.9841327445716956
 31
0.0
  0
LINE
  5
B1F7
  8
0
 10
3876.8773321184789893
 20
214.9973226053747908
 30
0.0
 11
3876.8823553234437895
 21
215.0023023125447139
 31
0.0
  0
ARC
  5
B1F8
  8
0
 10
3876.9298890300210587
 20
214.9987868464797032
 30
0.0
 40
0.0119790744486375
 50
219.8632179947256873
 51
266.2212891812735052
  0
LINE
  5
B1F9
  8
0
 10
3876.8631140448192127
 20
215.0177651871242119
 30
0.0
 11
3876.8756881813269501
 21
215.0048759444833024
 31
0.0
  0
ARC
  5
B1FA
  8
0
 10
3876.881941895052023
 20
215.0111695446686895
 30
0.0
 40
0.0088723355798629
 50
225.1821360477964902
 51
270.0209747803033906
  0
LINE
  5
B1FB
  8
0
 10
3876.8819451430281333
 20
215.0022972096832916
 30
0.0
 11
3876.9098236146642193
 21
215.0023074154061931
 31
0.0
  0
ARC
  5
B1FC
  8
0
 10
3876.9098203494718291
 20
215.0112267799183883
 30
0.0
 40
0.0089193651099378
 50
270.0209747803033906
 51
314.6023331944750794
  0
LINE
  5
B1FD
  8
0
 10
3876.9160833675268805
 20
215.0048762146832928
 30
0.0
 11
3876.9290995713240591
 21
215.0177657080832887
 31
0.0
  0
LINE
  5
B1FE
  8
0
 10
3876.8710795412680454
 20
215.0220394410310973
 30
0.0
 11
3876.8831567363267823
 21
215.010041188183294
 31
0.0
  0
LINE
  5
B1FF
  8
0
 10
3876.8831567363267823
 20
215.010041188183294
 30
0.0
 11
3876.9086147009279557
 21
215.010041188183294
 31
0.0
  0
LINE
  5
B200
  8
0
 10
3876.9086147009279557
 20
215.010041188183294
 30
0.0
 11
3876.9206941705888312
 21
215.0220406686414094
 31
0.0
  0
LINE
  5
B201
  8
0
 10
3876.9206941705888312
 20
215.0220406686414094
 30
0.0
 11
3876.9089525885010517
 21
215.0341340931418017
 31
0.0
  0
LINE
  5
B202
  8
0
 10
3876.877980576038226
 20
215.0288908916652986
 30
0.0
 11
3876.8831567363267823
 21
215.0237474723832918
 31
0.0
  0
LINE
  5
B203
  8
0
 10
3876.8831567363267823
 20
215.0237474723832918
 30
0.0
 11
3876.9086147009279557
 21
215.0237474723832918
 31
0.0
  0
LINE
  5
B204
  8
0
 10
3876.9086147009279557
 20
215.0237474723832918
 30
0.0
 11
3876.9139798006649471
 21
215.0289551175349914
 31
0.0
  0
LINE
  5
B205
  8
0
 10
3876.9086147009279557
 20
215.0237474723832918
 30
0.0
 11
3876.9086147009279557
 21
215.010041188183294
 31
0.0
  0
LINE
  5
B206
  8
0
 10
3876.8831567363267823
 20
215.0237474723832918
 30
0.0
 11
3876.8831567363267823
 21
215.010041188183294
 31
0.0
  0
ARC
  5
B207
  8
0
 10
3876.8631131296219792
 20
215.0266494315756063
 30
0.0
 40
0.008884244498413
 50
269.997858278115018
 51
314.7934228374951999
  0
LINE
  5
B208
  8
0
 10
3876.869372548526826
 20
215.0203447130832899
 30
0.0
 11
3876.883252246263055
 21
215.0341246847864056
 31
0.0
  0
ARC
  5
B209
  8
0
 10
3876.9298890300210587
 20
215.0297187403182875
 30
0.0
 40
0.0119790744486375
 50
219.8632179947256873
 51
266.2212891812735052
  0
LINE
  5
B20A
  8
0
 10
3876.8631141353957901
 20
215.0487129106060991
 30
0.0
 11
3876.8759417480819138
 21
215.0364607494288123
 31
0.0
  0
ARC
  5
B20B
  8
0
 10
3876.881941895052023
 20
215.0429965412687068
 30
0.0
 40
0.0088723355798629
 50
225.1821360477964902
 51
270.0209747803033906
  0
LINE
  5
B20C
  8
0
 10
3876.8819451430281333
 20
215.0341242062833089
 30
0.0
 11
3876.9098236146642193
 21
215.0341344120060967
 31
0.0
  0
ARC
  5
B20D
  8
0
 10
3876.9098203494718291
 20
215.0430537765184056
 30
0.0
 40
0.0089193651099378
 50
270.0209747803033906
 51
314.6023331944750794
  0
LINE
  5
B20E
  8
0
 10
3876.9160833675268805
 20
215.0367032112833101
 30
0.0
 11
3876.9290995713240591
 21
215.049592704683306
 31
0.0
  0
LINE
  5
B20F
  8
0
 10
3876.8710795412680454
 20
215.053866437631001
 30
0.0
 11
3876.8831567363267823
 21
215.0418681847833113
 31
0.0
  0
LINE
  5
B210
  8
0
 10
3876.8831567363267823
 20
215.0418681847833113
 30
0.0
 11
3876.9086147009279557
 21
215.0418681847833113
 31
0.0
  0
LINE
  5
B211
  8
0
 10
3876.9086147009279557
 20
215.0418681847833113
 30
0.0
 11
3876.9206941705888312
 21
215.0538676652413983
 31
0.0
  0
LINE
  5
B212
  8
0
 10
3876.9206941705888312
 20
215.0538676652413983
 30
0.0
 11
3876.9106436427218796
 21
215.0642193622306877
 31
0.0
  0
LINE
  5
B213
  8
0
 10
3876.877980576038226
 20
215.0607178882652875
 30
0.0
 11
3876.8831567363267823
 21
215.0555744689833944
 31
0.0
  0
LINE
  5
B214
  8
0
 10
3876.8831567363267823
 20
215.0555744689833944
 30
0.0
 11
3876.9086147009279557
 21
215.0555744689833944
 31
0.0
  0
LINE
  5
B215
  8
0
 10
3876.9086147009279557
 20
215.0555744689833944
 30
0.0
 11
3876.9139798006649471
 21
215.0607821141350087
 31
0.0
  0
LINE
  5
B216
  8
0
 10
3876.9086147009279557
 20
215.0555744689833944
 30
0.0
 11
3876.9086147009279557
 21
215.0418681847833113
 31
0.0
  0
LINE
  5
B217
  8
0
 10
3876.8831567363267823
 20
215.0555744689833944
 30
0.0
 11
3876.8831567363267823
 21
215.0418681847833113
 31
0.0
  0
ARC
  5
B218
  8
0
 10
3876.8542383083768073
 20
215.072164433388906
 30
0.0
 40
0.0250749721056272
 50
290.7304268966350946
 51
307.1252629160339893
  0
LINE
  5
B219
  8
0
 10
3876.869372548526826
 20
215.0521717096833072
 30
0.0
 11
3876.8814715216099103
 21
215.0641837512916936
 31
0.0
  0
ARC
  5
B21A
  8
0
 10
3876.9298890300210587
 20
215.06154573691839
 30
0.0
 40
0.0119790744486375
 50
219.8632179947256873
 51
266.2212891812735052
  0
LINE
  5
B21B
  8
0
 10
3876.8631154751778922
 20
215.0787599076060985
 30
0.0
 11
3876.8756895211090523
 21
215.0667499380832908
 31
0.0
  0
ARC
  5
B21C
  8
0
 10
3876.8819432348341252
 20
215.0730435382687062
 30
0.0
 40
0.0088723355798629
 50
225.1821360477964902
 51
270.0209747803033906
  0
LINE
  5
B21D
  8
0
 10
3876.8819464828088712
 20
215.0641712032833084
 30
0.0
 11
3876.9098249544467762
 21
215.0641814090060961
 31
0.0
  0
ARC
  5
B21E
  8
0
 10
3876.9098216892539313
 20
215.073100773518405
 30
0.0
 40
0.0089193651099378
 50
270.0209747803033906
 51
314.6023331944750794
  0
LINE
  5
B21F
  8
0
 10
3876.9160847073089826
 20
215.0667502082833096
 30
0.0
 11
3876.9291009111038875
 21
215.0796397016833055
 31
0.0
  0
LINE
  5
B220
  8
0
 10
3876.8710808810501476
 20
215.0839134346310004
 30
0.0
 11
3876.8831580761088844
 21
215.0719151817833108
 31
0.0
  0
LINE
  5
B221
  8
0
 10
3876.8831580761088844
 20
215.0719151817833108
 30
0.0
 11
3876.9086160407091484
 21
215.0719151817833108
 31
0.0
  0
LINE
  5
B222
  8
0
 10
3876.9086160407091484
 20
215.0719151817833108
 30
0.0
 11
3876.9206955103700238
 21
215.0839146622413978
 31
0.0
  0
LINE
  5
B223
  8
0
 10
3876.9206955103700238
 20
215.0839146622413978
 30
0.0
 11
3876.9098177273008332
 21
215.0951184035509129
 31
0.0
  0
LINE
  5
B224
  8
0
 10
3876.8779819158198734
 20
215.0907648852652869
 30
0.0
 11
3876.8831580761088844
 21
215.0856214659833938
 31
0.0
  0
LINE
  5
B225
  8
0
 10
3876.8831580761088844
 20
215.0856214659833938
 30
0.0
 11
3876.9086160407091484
 21
215.0856214659833938
 31
0.0
  0
LINE
  5
B226
  8
0
 10
3876.9086160407091484
 20
215.0856214659833938
 30
0.0
 11
3876.9139811404470493
 21
215.0908291111350081
 31
0.0
  0
LINE
  5
B227
  8
0
 10
3876.9086160407091484
 20
215.0856214659833938
 30
0.0
 11
3876.9086160407091484
 21
215.0719151817833108
 31
0.0
  0
LINE
  5
B228
  8
0
 10
3876.8831580761088844
 20
215.0856214659833938
 30
0.0
 11
3876.8831580761088844
 21
215.0719151817833108
 31
0.0
  0
ARC
  5
B229
  8
0
 10
3876.8617283287949249
 20
215.0886612772316937
 30
0.0
 40
0.009998064590083
 50
277.9750282682027773
 51
319.8806615444967179
  0
LINE
  5
B22A
  8
0
 10
3876.8693738883089281
 20
215.0822187066833067
 30
0.0
 11
3876.8823568150201027
 21
215.0951083506878092
 31
0.0
  0
ARC
  5
B22B
  8
0
 10
3876.9298903698017966
 20
215.0915927339183895
 30
0.0
 40
0.0119790744486375
 50
219.8632179947256873
 51
266.2212891812735052
  0
LINE
  5
B22C
  8
0
 10
3876.8631141353957901
 20
215.1096969043061051
 30
0.0
 11
3876.8756881813269501
 21
215.0976869347832974
 31
0.0
  0
ARC
  5
B22D
  8
0
 10
3876.881941895052023
 20
215.1039805349687128
 30
0.0
 40
0.0088723355798629
 50
225.1821360477964902
 51
270.0209747803033906
  0
LINE
  5
B22E
  8
0
 10
3876.8819451430281333
 20
215.0951081999834003
 30
0.0
 11
3876.9098236146642193
 21
215.0951184057061027
 31
0.0
  0
ARC
  5
B22F
  8
0
 10
3876.9098203494718291
 20
215.1040377702184117
 30
0.0
 40
0.0089193651099378
 50
270.0209747803033906
 51
314.6023331944750794
  0
LINE
  5
B230
  8
0
 10
3876.9160833675268805
 20
215.0976872049834014
 30
0.0
 11
3876.9290995713240591
 21
215.1105766983833973
 31
0.0
  0
LINE
  5
B231
  8
0
 10
3876.8710795412680454
 20
215.1148504313310923
 30
0.0
 11
3876.8831567363267823
 21
215.102852178483289
 31
0.0
  0
LINE
  5
B232
  8
0
 10
3876.8831567363267823
 20
215.102852178483289
 30
0.0
 11
3876.9086147009279557
 21
215.102852178483289
 31
0.0
  0
LINE
  5
B233
  8
0
 10
3876.9086147009279557
 20
215.102852178483289
 30
0.0
 11
3876.9206941705888312
 21
215.1148516589414044
 31
0.0
  0
LINE
  5
B234
  8
0
 10
3876.9206941705888312
 20
215.1148516589414044
 30
0.0
 11
3876.9098163878988998
 21
215.1260553998606042
 31
0.0
  0
LINE
  5
B235
  8
0
 10
3876.877980576038226
 20
215.1217018819652935
 30
0.0
 11
3876.8831567363267823
 21
215.1165584626832867
 31
0.0
  0
LINE
  5
B236
  8
0
 10
3876.8831567363267823
 20
215.1165584626832867
 30
0.0
 11
3876.9086147009279557
 21
215.1165584626832867
 31
0.0
  0
LINE
  5
B237
  8
0
 10
3876.9086147009279557
 20
215.1165584626832867
 30
0.0
 11
3876.9139798006649471
 21
215.1217661078349863
 31
0.0
  0
LINE
  5
B238
  8
0
 10
3876.9086147009279557
 20
215.1165584626832867
 30
0.0
 11
3876.9086147009279557
 21
215.102852178483289
 31
0.0
  0
LINE
  5
B239
  8
0
 10
3876.8831567363267823
 20
215.1165584626832867
 30
0.0
 11
3876.8831567363267823
 21
215.102852178483289
 31
0.0
  0
ARC
  5
B23A
  8
0
 10
3876.8616555395351497
 20
215.1197275558998001
 30
0.0
 40
0.0101361468653803
 50
278.2736105299115934
 51
319.5820792827622085
  0
LINE
  5
B23B
  8
0
 10
3876.869372548526826
 20
215.1131557033833985
 30
0.0
 11
3876.8823554748450988
 21
215.1260453469971878
 31
0.0
  0
ARC
  5
B23C
  8
0
 10
3876.9298890300210587
 20
215.1225297306183109
 30
0.0
 40
0.0119790744486375
 50
219.8632179947256873
 51
266.2212891812735052
  0
LINE
  5
B23D
  8
0
 10
3876.8631141353957901
 20
215.140633901106213
 30
0.0
 11
3876.8756881813269501
 21
215.1286239315832916
 31
0.0
  0
ARC
  5
B23E
  8
0
 10
3876.881941895052023
 20
215.134917531768707
 30
0.0
 40
0.0088723355798629
 50
225.1821360477964902
 51
270.0209747803033906
  0
LINE
  5
B23F
  8
0
 10
3876.8819451430281333
 20
215.1260451967833092
 30
0.0
 11
3876.9098236146642193
 21
215.1260554025060969
 31
0.0
  0
ARC
  5
B240
  8
0
 10
3876.9098203494718291
 20
215.1349747670184911
 30
0.0
 40
0.0089193651099378
 50
270.0209747803033906
 51
314.6023331944750794
  0
LINE
  5
B241
  8
0
 10
3876.9160833675268805
 20
215.1286242017833956
 30
0.0
 11
3876.9290995713240591
 21
215.1415136951833063
 31
0.0
  0
LINE
  5
B242
  8
0
 10
3876.8710795412680454
 20
215.1457874281310865
 30
0.0
 11
3876.8831567363267823
 21
215.1337891752833968
 31
0.0
  0
LINE
  5
B243
  8
0
 10
3876.8831567363267823
 20
215.1337891752833968
 30
0.0
 11
3876.9086147009279557
 21
215.1337891752833968
 31
0.0
  0
LINE
  5
B244
  8
0
 10
3876.9086147009279557
 20
215.1337891752833968
 30
0.0
 11
3876.9206941705888312
 21
215.1457886557413985
 31
0.0
  0
LINE
  5
B245
  8
0
 10
3876.9206941705888312
 20
215.1457886557413985
 30
0.0
 11
3876.9098163878988998
 21
215.1569923966605984
 31
0.0
  0
LINE
  5
B246
  8
0
 10
3876.877980576038226
 20
215.1526388787652877
 30
0.0
 11
3876.8831567363267823
 21
215.1474954594833093
 31
0.0
  0
LINE
  5
B247
  8
0
 10
3876.8831567363267823
 20
215.1474954594833093
 30
0.0
 11
3876.9086147009279557
 21
215.1474954594833093
 31
0.0
  0
LINE
  5
B248
  8
0
 10
3876.9086147009279557
 20
215.1474954594833093
 30
0.0
 11
3876.9139798006649471
 21
215.1527031046350089
 31
0.0
  0
LINE
  5
B249
  8
0
 10
3876.9086147009279557
 20
215.1474954594833093
 30
0.0
 11
3876.9086147009279557
 21
215.1337891752833968
 31
0.0
  0
LINE
  5
B24A
  8
0
 10
3876.8831567363267823
 20
215.1474954594833093
 30
0.0
 11
3876.8831567363267823
 21
215.1337891752833968
 31
0.0
  0
ARC
  5
B24B
  8
0
 10
3876.8605982691801728
 20
215.1525775966582046
 30
0.0
 40
0.0122057956011742
 50
281.8951072246917988
 51
315.9605825880046837
  0
LINE
  5
B24C
  8
0
 10
3876.869372548526826
 20
215.1440927001833074
 30
0.0
 11
3876.8823554748450988
 21
215.1569823437972104
 31
0.0
  0
ARC
  5
B24D
  8
0
 10
3876.9298890300210587
 20
215.153466727418305
 30
0.0
 40
0.0119790744486375
 50
219.8632179947256873
 51
266.2212891812735052
  0
LINE
  5
B24E
  8
0
 10
3876.8631182745771184
 20
215.1720511718121998
 30
0.0
 11
3876.8756881813269501
 21
215.1595609283833141
 31
0.0
  0
ARC
  5
B24F
  8
0
 10
3876.881941895052023
 20
215.1658545285687012
 30
0.0
 40
0.0088723355798629
 50
225.1821360477964902
 51
270.0209747803033906
  0
LINE
  5
B250
  8
0
 10
3876.8819451430281333
 20
215.1569821935833033
 30
0.0
 11
3876.9098236146642193
 21
215.1569923993060911
 31
0.0
  0
ARC
  5
B251
  8
0
 10
3876.9098203494718291
 20
215.1659117638184
 30
0.0
 40
0.0089193651099378
 50
270.0209747803033906
 51
314.6023331944750794
  0
LINE
  5
B252
  8
0
 10
3876.9160833675268805
 20
215.1595611985833045
 30
0.0
 11
3876.9290995713240591
 21
215.1724506919833004
 31
0.0
  0
LINE
  5
B253
  8
0
 10
3876.8714288781379764
 20
215.1763773714914123
 30
0.0
 11
3876.8831567363267823
 21
215.1647261720833058
 31
0.0
  0
LINE
  5
B254
  8
0
 10
3876.8831567363267823
 20
215.1647261720833058
 30
0.0
 11
3876.9086147009279557
 21
215.1647261720833058
 31
0.0
  0
LINE
  5
B255
  8
0
 10
3876.9086147009279557
 20
215.1647261720833058
 30
0.0
 11
3876.9206941705888312
 21
215.1767256525413927
 31
0.0
  0
LINE
  5
B256
  8
0
 10
3876.9206941705888312
 20
215.1767256525413927
 30
0.0
 11
3876.9098163879948515
 21
215.187929393360605
 31
0.0
  0
LINE
  5
B257
  8
0
 10
3876.8803478890690712
 20
215.1812235366093944
 30
0.0
 11
3876.8831567363267823
 21
215.1784324562833035
 31
0.0
  0
LINE
  5
B258
  8
0
 10
3876.8831567363267823
 20
215.1784324562833035
 30
0.0
 11
3876.9086147009279557
 21
215.1784324562833035
 31
0.0
  0
LINE
  5
B259
  8
0
 10
3876.9086147009279557
 20
215.1784324562833035
 30
0.0
 11
3876.9139798006649471
 21
215.1836401014350031
 31
0.0
  0
LINE
  5
B25A
  8
0
 10
3876.9086147009279557
 20
215.1784324562833035
 30
0.0
 11
3876.9086147009279557
 21
215.1647261720833058
 31
0.0
  0
LINE
  5
B25B
  8
0
 10
3876.8831567363267823
 20
215.1784324562833035
 30
0.0
 11
3876.8831567363267823
 21
215.1647261720833058
 31
0.0
  0
ARC
  5
B25C
  8
0
 10
3876.9298890300210587
 20
215.1844037242182992
 30
0.0
 40
0.0119790744486375
 50
219.8632179947256873
 51
266.2212891812735052
  0
LINE
  5
B25D
  8
0
 10
3876.8939526966469202
 20
215.1879235859964012
 30
0.0
 11
3876.9098236146642193
 21
215.1879293960060977
 31
0.0
  0
ARC
  5
B25E
  8
0
 10
3876.9098203494718291
 20
215.1968487605184066
 30
0.0
 40
0.0089193651099378
 50
270.0209747803033906
 51
314.6023331944750794
  0
LINE
  5
B25F
  8
0
 10
3876.9160833675268805
 20
215.1904981952833111
 30
0.0
 11
3876.9265563228141218
 21
215.2008691982397011
 31
0.0
  0
LINE
  5
B260
  8
0
 10
3876.9177951267638491
 20
215.0065713102524967
 30
0.0
 11
3876.929867555328201
 21
214.9945777927447921
 31
0.0
  0
LINE
  5
B261
  8
0
 10
3876.9247050303451942
 20
215.0134139471684023
 30
0.0
 11
3876.929867555328201
 21
215.0082840769447046
 31
0.0
  0
LINE
  5
B262
  8
0
 10
3876.929867555328201
 20
215.0082840769447046
 30
0.0
 11
3876.929867555328201
 21
214.9945777927447921
 31
0.0
  0
LINE
  5
B263
  8
0
 10
3876.9173464768077793
 20
215.0379540244223904
 30
0.0
 11
3876.929867555328201
 21
215.025514789544701
 31
0.0
  0
LINE
  5
B264
  8
0
 10
3876.924256428130775
 20
215.0447967086167864
 30
0.0
 11
3876.929867555328201
 21
215.0392210737446987
 31
0.0
  0
LINE
  5
B265
  8
0
 10
3876.929867555328201
 20
215.0392210737446987
 30
0.0
 11
3876.929867555328201
 21
215.025514789544701
 31
0.0
  0
LINE
  5
B266
  8
0
 10
3876.9177903602680999
 20
215.0684500390925109
 30
0.0
 11
3876.929867555328201
 21
215.0564517862447076
 31
0.0
  0
LINE
  5
B267
  8
0
 10
3876.9246913950378257
 20
215.0753014897267121
 30
0.0
 11
3876.929867555328201
 21
215.0701580704447053
 31
0.0
  0
LINE
  5
B268
  8
0
 10
3876.929867555328201
 20
215.0701580704447053
 30
0.0
 11
3876.929867555328201
 21
215.0564517862447076
 31
0.0
  0
LINE
  5
B269
  8
0
 10
3876.9177903602680999
 20
215.0993870358925051
 30
0.0
 11
3876.929867555328201
 21
215.0873887830447018
 31
0.0
  0
LINE
  5
B26A
  8
0
 10
3876.9246913950378257
 20
215.1062384865267063
 30
0.0
 11
3876.929867555328201
 21
215.1010950672446995
 31
0.0
  0
LINE
  5
B26B
  8
0
 10
3876.929867555328201
 20
215.1010950672446995
 30
0.0
 11
3876.929867555328201
 21
215.0873887830447018
 31
0.0
  0
LINE
  5
B26C
  8
0
 10
3876.9177903602680999
 20
215.1303240325925117
 30
0.0
 11
3876.929867555328201
 21
215.1183257797447084
 31
0.0
  0
LINE
  5
B26D
  8
0
 10
3876.9246913950378257
 20
215.1371754832267129
 30
0.0
 11
3876.929867555328201
 21
215.1320320639447914
 31
0.0
  0
LINE
  5
B26E
  8
0
 10
3876.929867555328201
 20
215.1320320639447914
 30
0.0
 11
3876.929867555328201
 21
215.1183257797447084
 31
0.0
  0
LINE
  5
B26F
  8
0
 10
3876.9177903602680999
 20
215.1921980261925
 30
0.0
 11
3876.929867555328201
 21
215.1801997733446967
 31
0.0
  0
LINE
  5
B270
  8
0
 10
3876.9246913950378257
 20
215.1990494768267013
 30
0.0
 11
3876.929867555328201
 21
215.1939060575446945
 31
0.0
  0
LINE
  5
B271
  8
0
 10
3876.929867555328201
 20
215.1939060575446945
 30
0.0
 11
3876.929867555328201
 21
215.1801997733446967
 31
0.0
  0
ARC
  5
B272
  8
0
 10
3876.8763454483141686
 20
215.0029320845675898
 30
0.0
 40
0.005695592579206
 50
176.5283143394538001
 51
279.975902952413719
  0
LINE
  5
B273
  8
0
 10
3876.8706603080281639
 20
215.0032769827446941
 30
0.0
 11
3876.8706603080281639
 21
215.0098719530213884
 31
0.0
  0
ARC
  5
B274
  8
0
 10
3876.8471953084540473
 20
215.0256288722482054
 30
0.0
 40
0.0084608911808288
 50
180.772572931348094
 51
248.2409512105967906
  0
LINE
  5
B275
  8
0
 10
3876.8440588212279181
 20
215.017770810944711
 30
0.0
 11
3876.8631140448192127
 21
215.0177651871242119
 31
0.0
  0
LINE
  5
B276
  8
0
 10
3876.838735186428039
 20
215.025514789544701
 30
0.0
 11
3876.8619052216590717
 21
215.0253913364553
 31
0.0
  0
LINE
  5
B277
  8
0
 10
3876.8619052216590717
 20
215.0253913364553
 30
0.0
 11
3876.8748924762098795
 21
215.0374629505712107
 31
0.0
  0
LINE
  5
B278
  8
0
 10
3876.8326368626890144
 20
215.0448253431169974
 30
0.0
 11
3876.838735186428039
 21
215.0392210737446987
 31
0.0
  0
LINE
  5
B279
  8
0
 10
3876.838735186428039
 20
215.0392210737446987
 30
0.0
 11
3876.8619052216590717
 21
215.0383259709832942
 31
0.0
  0
LINE
  5
B27A
  8
0
 10
3876.8619052216590717
 20
215.0383259709832942
 30
0.0
 11
3876.8678984041398508
 21
215.0441432659490033
 31
0.0
  0
LINE
  5
B27B
  8
0
 10
3876.8619052216590717
 20
215.0383259709832942
 30
0.0
 11
3876.8619052216590717
 21
215.0253913364553
 31
0.0
  0
LINE
  5
B27C
  8
0
 10
3876.838735186428039
 20
215.0392210737446987
 30
0.0
 11
3876.838735186428039
 21
215.025514789544701
 31
0.0
  0
ARC
  5
B27D
  8
0
 10
3876.827801854441077
 20
215.0445978978698065
 30
0.0
 40
0.00809391887453
 50
173.4503019502323866
 51
248.4298811204299113
  0
LINE
  5
B27E
  8
0
 10
3876.8248262093279664
 20
215.0370708095277905
 30
0.0
 11
3876.8365427669950805
 21
215.048703183386408
 31
0.0
  0
LINE
  5
B27F
  8
0
 10
3876.8160067269809588
 20
215.0641712032833084
 30
0.0
 11
3876.8289787020589756
 21
215.0512814396832937
 31
0.0
  0
ARC
  5
B280
  8
0
 10
3876.8352324157840485
 20
215.0575750398687092
 30
0.0
 40
0.0088723355798629
 50
225.1821360477964902
 51
270.0209747803033906
  0
LINE
  5
B281
  8
0
 10
3876.835235663757885
 20
215.0487027048833113
 30
0.0
 11
3876.8631141353957901
 21
215.0487129106060991
 31
0.0
  0
LINE
  5
B282
  8
0
 10
3876.8243700619991614
 20
215.0684449362310033
 30
0.0
 11
3876.8364472570588077
 21
215.0564466833833137
 31
0.0
  0
LINE
  5
B283
  8
0
 10
3876.8364472570588077
 20
215.0564466833833137
 30
0.0
 11
3876.8619052216590717
 21
215.0564466833833137
 31
0.0
  0
LINE
  5
B284
  8
0
 10
3876.8619052216590717
 20
215.0564466833833137
 30
0.0
 11
3876.8739846913208567
 21
215.0684461638414007
 31
0.0
  0
LINE
  5
B285
  8
0
 10
3876.8312710967688872
 20
215.0752963868652898
 30
0.0
 11
3876.8364472570588077
 21
215.0701529675833967
 31
0.0
  0
LINE
  5
B286
  8
0
 10
3876.8364472570588077
 20
215.0701529675833967
 30
0.0
 11
3876.8619052216590717
 21
215.0701529675833967
 31
0.0
  0
LINE
  5
B287
  8
0
 10
3876.8619052216590717
 20
215.0701529675833967
 30
0.0
 11
3876.8669747736530553
 21
215.0750737387062088
 31
0.0
  0
LINE
  5
B288
  8
0
 10
3876.8619052216590717
 20
215.0701529675833967
 30
0.0
 11
3876.8619052216590717
 21
215.0564466833833137
 31
0.0
  0
LINE
  5
B289
  8
0
 10
3876.8364472570588077
 20
215.0701529675833967
 30
0.0
 11
3876.8364472570588077
 21
215.0564466833833137
 31
0.0
  0
ARC
  5
B28A
  8
0
 10
3876.8163769199350099
 20
215.0730951676206928
 30
0.0
 40
0.0089316393970375
 50
267.6245602287626753
 51
314.7332347226234219
  0
LINE
  5
B28B
  8
0
 10
3876.8226630692588515
 20
215.0667502082833096
 30
0.0
 11
3876.8347620423410262
 21
215.078762249891696
 31
0.0
  0
LINE
  5
B28C
  8
0
 10
3876.8168220670399933
 20
215.0942214777170989
 30
0.0
 11
3876.8289800418410778
 21
215.0813284366832931
 31
0.0
  0
ARC
  5
B28D
  8
0
 10
3876.8352337555661506
 20
215.0876220368687086
 30
0.0
 40
0.0088723355798629
 50
225.1821360477964902
 51
270.0209747803033906
  0
LINE
  5
B28E
  8
0
 10
3876.8352370035408967
 20
215.0787497018833108
 30
0.0
 11
3876.8631154751778922
 21
215.0787599076060985
 31
0.0
  0
LINE
  5
B28F
  8
0
 10
3876.8243714017808088
 20
215.0984919332310028
 30
0.0
 11
3876.8364485968400004
 21
215.0864936803833132
 31
0.0
  0
LINE
  5
B290
  8
0
 10
3876.8364485968400004
 20
215.0864936803833132
 30
0.0
 11
3876.8619065614411738
 21
215.0864936803833132
 31
0.0
  0
LINE
  5
B291
  8
0
 10
3876.8619065614411738
 20
215.0864936803833132
 30
0.0
 11
3876.8744066406070488
 21
215.0989109851070111
 31
0.0
  0
LINE
  5
B292
  8
0
 10
3876.8312724365509894
 20
215.1053433838652893
 30
0.0
 11
3876.8364485968400004
 21
215.1001999645833962
 31
0.0
  0
LINE
  5
B293
  8
0
 10
3876.8364485968400004
 20
215.1001999645833962
 30
0.0
 11
3876.8619065614411738
 21
215.1001999645833962
 31
0.0
  0
LINE
  5
B294
  8
0
 10
3876.8619065614411738
 20
215.1001999645833962
 30
0.0
 11
3876.8674369318841855
 21
215.1055680300873121
 31
0.0
  0
LINE
  5
B295
  8
0
 10
3876.8619065614411738
 20
215.1001999645833962
 30
0.0
 11
3876.8619065614411738
 21
215.0864936803833132
 31
0.0
  0
LINE
  5
B296
  8
0
 10
3876.8364485968400004
 20
215.1001999645833962
 30
0.0
 11
3876.8364485968400004
 21
215.0864936803833132
 31
0.0
  0
ARC
  5
B297
  8
0
 10
3876.8163791519459664
 20
215.1031398618009121
 30
0.0
 40
0.0089293755911456
 50
272.8431532571457865
 51
314.7395672694964901
  0
LINE
  5
B298
  8
0
 10
3876.8226644090400441
 20
215.096797205283309
 30
0.0
 11
3876.8356473357521281
 21
215.1096868492878116
 31
0.0
  0
LINE
  5
B299
  8
0
 10
3876.8160067269809588
 20
215.1251551969833997
 30
0.0
 11
3876.8289787020589756
 21
215.1122654333832998
 31
0.0
  0
ARC
  5
B29A
  8
0
 10
3876.8352324157840485
 20
215.1185590335686868
 30
0.0
 40
0.0088723355798629
 50
225.1821360477964902
 51
270.0209747803033906
  0
LINE
  5
B29B
  8
0
 10
3876.835235663757885
 20
215.1096866985832889
 30
0.0
 11
3876.8631141353957901
 21
215.1096969043061051
 31
0.0
  0
LINE
  5
B29C
  8
0
 10
3876.8243700619991614
 20
215.1294289299310947
 30
0.0
 11
3876.8364472570588077
 21
215.1174306770832914
 31
0.0
  0
LINE
  5
B29D
  8
0
 10
3876.8364472570588077
 20
215.1174306770832914
 30
0.0
 11
3876.8619052216590717
 21
215.1174306770832914
 31
0.0
  0
LINE
  5
B29E
  8
0
 10
3876.8619052216590717
 20
215.1174306770832914
 30
0.0
 11
3876.8744059576220025
 21
215.1298486342537046
 31
0.0
  0
LINE
  5
B29F
  8
0
 10
3876.8312710967688872
 20
215.1362803805652959
 30
0.0
 11
3876.8364472570588077
 21
215.1311369612832891
 31
0.0
  0
LINE
  5
B2A0
  8
0
 10
3876.8364472570588077
 20
215.1311369612832891
 30
0.0
 11
3876.8619052216590717
 21
215.1311369612832891
 31
0.0
  0
LINE
  5
B2A1
  8
0
 10
3876.8619052216590717
 20
215.1311369612832891
 30
0.0
 11
3876.8674362566489435
 21
215.1365056718310029
 31
0.0
  0
LINE
  5
B2A2
  8
0
 10
3876.8619052216590717
 20
215.1311369612832891
 30
0.0
 11
3876.8619052216590717
 21
215.1174306770832914
 31
0.0
  0
LINE
  5
B2A3
  8
0
 10
3876.8364472570588077
 20
215.1311369612832891
 30
0.0
 11
3876.8364472570588077
 21
215.1174306770832914
 31
0.0
  0
ARC
  5
B2A4
  8
0
 10
3876.8163769199350099
 20
215.1340791613206989
 30
0.0
 40
0.0089316393970366
 50
267.6245602287626753
 51
314.7332347226234219
  0
LINE
  5
B2A5
  8
0
 10
3876.8226630692588515
 20
215.1277342019834009
 30
0.0
 11
3876.8356459955771243
 21
215.1406238455971902
 31
0.0
  0
LINE
  5
B2A6
  8
0
 10
3876.8271137382580491
 20
215.1450555745479107
 30
0.0
 11
3876.8289787020589756
 21
215.1432024301832939
 31
0.0
  0
ARC
  5
B2A7
  8
0
 10
3876.8352324157840485
 20
215.1494960303687094
 30
0.0
 40
0.0088723355798629
 50
225.1821360477964902
 51
270.0209747803033906
  0
LINE
  5
B2A8
  8
0
 10
3876.835235663757885
 20
215.1406236953833968
 30
0.0
 11
3876.8631141353957901
 21
215.140633901106213
 31
0.0
  0
LINE
  5
B2A9
  8
0
 10
3876.8332872041760311
 20
215.1515070711785995
 30
0.0
 11
3876.8364472570588077
 21
215.1483676738833992
 31
0.0
  0
LINE
  5
B2AA
  8
0
 10
3876.8364472570588077
 20
215.1483676738833992
 30
0.0
 11
3876.8619052216590717
 21
215.1483676738833992
 31
0.0
  0
LINE
  5
B2AB
  8
0
 10
3876.8619052216590717
 20
215.1483676738833992
 30
0.0
 11
3876.8744308160921719
 21
215.1608103249130863
 31
0.0
  0
LINE
  5
B2AC
  8
0
 10
3876.8460268120338696
 20
215.1620739580833117
 30
0.0
 11
3876.8619052216590717
 21
215.1620739580833117
 31
0.0
  0
LINE
  5
B2AD
  8
0
 10
3876.8619052216590717
 20
215.1620739580833117
 30
0.0
 11
3876.8675980875868845
 21
215.1675997501654933
 31
0.0
  0
LINE
  5
B2AE
  8
0
 10
3876.8619052216590717
 20
215.1620739580833117
 30
0.0
 11
3876.8619052216590717
 21
215.1483676738833992
 31
0.0
  0
LINE
  5
B2AF
  8
0
 10
3876.8364472570588077
 20
215.1544374779913937
 30
0.0
 11
3876.8364472570588077
 21
215.1483676738833992
 31
0.0
  0
LINE
  5
B2B0
  8
0
 10
3876.8160067269809588
 20
215.0641712032833084
 30
0.0
 11
3876.8067182737281655
 21
215.0641763061447023
 31
0.0
  0
ARC
  5
B2B1
  8
0
 10
3876.8195572574250036
 20
215.0712025427665992
 30
0.0
 40
0.0146358294418854
 50
177.1890843888535017
 51
208.6900363190462997
  0
LINE
  5
B2B2
  8
0
 10
3876.8049390376281735
 20
215.0719202846447047
 30
0.0
 11
3876.8049390376281735
 21
215.0856265688447024
 31
0.0
  0
LINE
  5
B2B3
  8
0
 10
3876.8049390376281735
 20
215.0856265688447024
 30
0.0
 11
3876.801876238890145
 21
215.0951480106164126
 31
0.0
  0
LINE
  5
B2B4
  8
0
 10
3876.801876238890145
 20
215.0951480106164126
 30
0.0
 11
3876.8168220670399933
 21
215.0942214777170989
 31
0.0
  0
LINE
  5
B2B5
  8
0
 10
3876.8199235828451492
 20
215.1212631646716886
 30
0.0
 11
3876.8151930629269373
 21
215.1165635656446966
 31
0.0
  0
LINE
  5
B2B6
  8
0
 10
3876.8151930629269373
 20
215.1165635656446966
 30
0.0
 11
3876.8088544659321997
 21
215.1165635656446966
 31
0.0
  0
LINE
  5
B2B7
  8
0
 10
3876.8197607622278156
 20
215.045521130644687
 30
0.0
 11
3876.8196900436569194
 21
215.0605112300767132
 31
0.0
  0
LINE
  5
B2B8
  8
0
 10
3877.0360181756768725
 20
215.0082840769447046
 30
0.0
 11
3877.0232891933278552
 21
215.0082840769447046
 31
0.0
  0
LINE
  5
B2B9
  8
0
 10
3877.0232891933278552
 20
215.0082840769447046
 30
0.0
 11
3877.0181084753930918
 21
215.0134309313833114
 31
0.0
  0
LINE
  5
B2BA
  8
0
 10
3877.0360181756768725
 20
214.9945777927447921
 30
0.0
 11
3877.0232891933278552
 21
214.9945777927447921
 31
0.0
  0
LINE
  5
B2BB
  8
0
 10
3877.0232891933278552
 20
214.9945777927447921
 30
0.0
 11
3877.0232891933278552
 21
215.0082840769447046
 31
0.0
  0
LINE
  5
B2BC
  8
0
 10
3877.0232891933278552
 20
214.9945777927447921
 30
0.0
 11
3877.011213918553949
 21
215.0065741379573012
 31
0.0
  0
LINE
  5
B2BD
  8
0
 10
3877.0360181756768725
 20
215.0392210737446987
 30
0.0
 11
3877.0232891933278552
 21
215.0392210737446987
 31
0.0
  0
LINE
  5
B2BE
  8
0
 10
3877.0232891933278552
 20
215.0392210737446987
 30
0.0
 11
3877.0176635775119394
 21
215.044809918012902
 31
0.0
  0
LINE
  5
B2BF
  8
0
 10
3877.0360181756768725
 20
215.025514789544701
 30
0.0
 11
3877.0232891933278552
 21
215.025514789544701
 31
0.0
  0
LINE
  5
B2C0
  8
0
 10
3877.0232891933278552
 20
215.025514789544701
 30
0.0
 11
3877.0232891933278552
 21
215.0392210737446987
 31
0.0
  0
LINE
  5
B2C1
  8
0
 10
3877.0232891933278552
 20
215.025514789544701
 30
0.0
 11
3877.01076603561296
 21
215.0379560901291995
 31
0.0
  0
LINE
  5
B2C2
  8
0
 10
3877.0360181756768725
 20
215.0701580704447053
 30
0.0
 11
3877.0232891933278552
 21
215.0701580704447053
 31
0.0
  0
LINE
  5
B2C3
  8
0
 10
3877.0232891933278552
 20
215.0701580704447053
 30
0.0
 11
3877.0181084753930918
 21
215.0753049248833122
 31
0.0
  0
LINE
  5
B2C4
  8
0
 10
3877.0360181756768725
 20
215.0564517862447076
 30
0.0
 11
3877.0232891933278552
 21
215.0564517862447076
 31
0.0
  0
LINE
  5
B2C5
  8
0
 10
3877.0232891933278552
 20
215.0564517862447076
 30
0.0
 11
3877.0232891933278552
 21
215.0701580704447053
 31
0.0
  0
LINE
  5
B2C6
  8
0
 10
3877.0232891933278552
 20
215.0564517862447076
 30
0.0
 11
3877.011213918553949
 21
215.0684481314573873
 31
0.0
  0
LINE
  5
B2C7
  8
0
 10
3877.0360181756768725
 20
215.1320320640448074
 30
0.0
 11
3877.0232891933278552
 21
215.1320320640448074
 31
0.0
  0
LINE
  5
B2C8
  8
0
 10
3877.0232891933278552
 20
215.1320320640448074
 30
0.0
 11
3877.0181084753930918
 21
215.1371789184833005
 31
0.0
  0
LINE
  5
B2C9
  8
0
 10
3877.0360181756768725
 20
215.1183257798446959
 30
0.0
 11
3877.0232891933278552
 21
215.1183257798446959
 31
0.0
  0
LINE
  5
B2CA
  8
0
 10
3877.0232891933278552
 20
215.1183257798446959
 30
0.0
 11
3877.0232891933278552
 21
215.1320320640448074
 31
0.0
  0
LINE
  5
B2CB
  8
0
 10
3877.0232891933278552
 20
215.1183257798446959
 30
0.0
 11
3877.011213918553949
 21
215.1303221250572904
 31
0.0
  0
LINE
  5
B2CC
  8
0
 10
3877.0360181756768725
 20
215.1629690607447003
 30
0.0
 11
3877.0232891933278552
 21
215.1629690607447003
 31
0.0
  0
LINE
  5
B2CD
  8
0
 10
3877.0232891933278552
 20
215.1629690607447003
 30
0.0
 11
3877.0181084753930918
 21
215.1681159151833072
 31
0.0
  0
LINE
  5
B2CE
  8
0
 10
3877.0360181756768725
 20
215.1492627765447025
 30
0.0
 11
3877.0232891933278552
 21
215.1492627765447025
 31
0.0
  0
LINE
  5
B2CF
  8
0
 10
3877.0232891933278552
 20
215.1492627765447025
 30
0.0
 11
3877.0232891933278552
 21
215.1629690607447003
 31
0.0
  0
LINE
  5
B2D0
  8
0
 10
3877.0232891933278552
 20
215.1492627765447025
 30
0.0
 11
3877.011213918553949
 21
215.1612591217574106
 31
0.0
  0
LINE
  5
B2D1
  8
0
 10
3877.0360181756768725
 20
215.1939060575446945
 30
0.0
 11
3877.0232891933278552
 21
215.1939060575446945
 31
0.0
  0
LINE
  5
B2D2
  8
0
 10
3877.0232891933278552
 20
215.1939060575446945
 30
0.0
 11
3877.0181084753930918
 21
215.1990529119833013
 31
0.0
  0
LINE
  5
B2D3
  8
0
 10
3877.0360181756768725
 20
215.1801997733446967
 30
0.0
 11
3877.0232891933278552
 21
215.1801997733446967
 31
0.0
  0
LINE
  5
B2D4
  8
0
 10
3877.0232891933278552
 20
215.1801997733446967
 30
0.0
 11
3877.0232891933278552
 21
215.1939060575446945
 31
0.0
  0
LINE
  5
B2D5
  8
0
 10
3877.0232891933278552
 20
215.1801997733446967
 30
0.0
 11
3877.011213918553949
 21
215.1921961185572911
 31
0.0
  0
LINE
  5
B2D6
  8
0
 10
3877.0495594823501051
 20
214.9868338142447044
 30
0.0
 11
3877.0625314574290314
 21
214.9739440506448034
 31
0.0
  0
ARC
  5
B2D7
  8
0
 10
3877.0687851711541043
 20
214.9802376508301052
 30
0.0
 40
0.0088723355798629
 50
225.1821360477964902
 51
270.0209747803033906
  0
LINE
  5
B2D8
  8
0
 10
3877.0687884191279409
 20
214.9713653158447073
 30
0.0
 11
3877.0966668907658459
 21
214.9713755215674951
 31
0.0
  0
ARC
  5
B2D9
  8
0
 10
3877.0966636255739104
 20
214.9802948860798892
 30
0.0
 40
0.0089193651099378
 50
270.0209747803033906
 51
314.6023331944750794
  0
LINE
  5
B2DA
  8
0
 10
3877.1029266436289618
 20
214.9739443208447938
 30
0.0
 11
3877.1159428474238666
 21
214.9868338142447044
 31
0.0
  0
LINE
  5
B2DB
  8
0
 10
3877.0579228173692172
 20
214.991107547192513
 30
0.0
 11
3877.0700000124288636
 21
214.979109294344795
 31
0.0
  0
LINE
  5
B2DC
  8
0
 10
3877.0700000124288636
 20
214.979109294344795
 30
0.0
 11
3877.0954579770291275
 21
214.979109294344795
 31
0.0
  0
LINE
  5
B2DD
  8
0
 10
3877.0954579770291275
 20
214.979109294344795
 30
0.0
 11
3877.107537446690003
 21
214.9911087748027967
 31
0.0
  0
LINE
  5
B2DE
  8
0
 10
3877.107537446690003
 20
214.9911087748027967
 30
0.0
 11
3877.0966695703291407
 21
215.0023023125447139
 31
0.0
  0
LINE
  5
B2DF
  8
0
 10
3877.064823852138943
 20
214.9979589978266858
 30
0.0
 11
3877.0700000124288636
 21
214.9928155785447075
 31
0.0
  0
LINE
  5
B2E0
  8
0
 10
3877.0700000124288636
 20
214.9928155785447075
 30
0.0
 11
3877.0954579770291275
 21
214.9928155785447075
 31
0.0
  0
LINE
  5
B2E1
  8
0
 10
3877.0954579770291275
 20
214.9928155785447075
 30
0.0
 11
3877.1008230767661189
 21
214.9980232236964071
 31
0.0
  0
LINE
  5
B2E2
  8
0
 10
3877.0954579770291275
 20
214.9928155785447075
 30
0.0
 11
3877.0954579770291275
 21
214.979109294344795
 31
0.0
  0
LINE
  5
B2E3
  8
0
 10
3877.0700000124288636
 20
214.9928155785447075
 30
0.0
 11
3877.0700000124288636
 21
214.979109294344795
 31
0.0
  0
LINE
  5
B2E4
  8
0
 10
3877.0360181756791462
 20
214.9868338142447044
 30
0.0
 11
3877.0499560736288913
 21
214.9868332932447004
 31
0.0
  0
ARC
  5
B2E5
  8
0
 10
3877.049956405723151
 20
214.9957175377369936
 30
0.0
 40
0.008884244498413
 50
269.997858278115018
 51
314.7934228374951999
  0
LINE
  5
B2E6
  8
0
 10
3877.0562158246289073
 20
214.9894128192447056
 30
0.0
 11
3877.0691985995449613
 21
215.0023023125447139
 31
0.0
  0
ARC
  5
B2E7
  8
0
 10
3877.1167323061217758
 20
214.9987868464797032
 30
0.0
 40
0.0119790744486375
 50
219.8632179947256873
 51
266.2212891812735052
  0
LINE
  5
B2E8
  8
0
 10
3877.0495594823501051
 20
215.0177657080832887
 30
0.0
 11
3877.0625314574290314
 21
215.0048759444833024
 31
0.0
  0
ARC
  5
B2E9
  8
0
 10
3877.0687851711541043
 20
215.0111695446686895
 30
0.0
 40
0.0088723355798629
 50
225.1821360477964902
 51
270.0209747803033906
  0
LINE
  5
B2EA
  8
0
 10
3877.0687884191279409
 20
215.0022972096832916
 30
0.0
 11
3877.0966668907658459
 21
215.0023074154061931
 31
0.0
  0
ARC
  5
B2EB
  8
0
 10
3877.0966636255739104
 20
215.0112267799183883
 30
0.0
 40
0.0089193651099378
 50
270.0209747803033906
 51
314.6023331944750794
  0
LINE
  5
B2EC
  8
0
 10
3877.1029266436289618
 20
215.0048762146832928
 30
0.0
 11
3877.1159428474238666
 21
215.0177657080832887
 31
0.0
  0
LINE
  5
B2ED
  8
0
 10
3877.0579228173692172
 20
215.0220394410310973
 30
0.0
 11
3877.0700000124288636
 21
215.010041188183294
 31
0.0
  0
LINE
  5
B2EE
  8
0
 10
3877.0700000124288636
 20
215.010041188183294
 30
0.0
 11
3877.0954579770291275
 21
215.010041188183294
 31
0.0
  0
LINE
  5
B2EF
  8
0
 10
3877.0954579770291275
 20
215.010041188183294
 30
0.0
 11
3877.107537446690003
 21
215.0220406686414094
 31
0.0
  0
LINE
  5
B2F0
  8
0
 10
3877.107537446690003
 20
215.0220406686414094
 30
0.0
 11
3877.0957958646008592
 21
215.0341340931418017
 31
0.0
  0
LINE
  5
B2F1
  8
0
 10
3877.064823852138943
 20
215.0288908916652986
 30
0.0
 11
3877.0700000124288636
 21
215.0237474723832918
 31
0.0
  0
LINE
  5
B2F2
  8
0
 10
3877.0700000124288636
 20
215.0237474723832918
 30
0.0
 11
3877.0954579770291275
 21
215.0237474723832918
 31
0.0
  0
LINE
  5
B2F3
  8
0
 10
3877.0954579770291275
 20
215.0237474723832918
 30
0.0
 11
3877.1008230767661189
 21
215.0289551175349914
 31
0.0
  0
LINE
  5
B2F4
  8
0
 10
3877.0954579770291275
 20
215.0237474723832918
 30
0.0
 11
3877.0954579770291275
 21
215.010041188183294
 31
0.0
  0
LINE
  5
B2F5
  8
0
 10
3877.0700000124288636
 20
215.0237474723832918
 30
0.0
 11
3877.0700000124288636
 21
215.010041188183294
 31
0.0
  0
LINE
  5
B2F6
  8
0
 10
3877.0360181756791462
 20
215.0177657080832887
 30
0.0
 11
3877.0499560736288913
 21
215.0177651870833131
 31
0.0
  0
ARC
  5
B2F7
  8
0
 10
3877.049956405723151
 20
215.0266494315756063
 30
0.0
 40
0.008884244498413
 50
269.997858278115018
 51
314.7934228374951999
  0
LINE
  5
B2F8
  8
0
 10
3877.0562158246289073
 20
215.0203447130832899
 30
0.0
 11
3877.0700955223651363
 21
215.0341246847864056
 31
0.0
  0
ARC
  5
B2F9
  8
0
 10
3877.1167323061217758
 20
215.0297187403182875
 30
0.0
 40
0.0119790744486375
 50
219.8632179947256873
 51
266.2212891812735052
  0
LINE
  5
B2FA
  8
0
 10
3877.0495594823501051
 20
215.049592704683306
 30
0.0
 11
3877.0625314574290314
 21
215.0367029410832913
 31
0.0
  0
ARC
  5
B2FB
  8
0
 10
3877.0687851711541043
 20
215.0429965412687068
 30
0.0
 40
0.0088723355798629
 50
225.1821360477964902
 51
270.0209747803033906
  0
LINE
  5
B2FC
  8
0
 10
3877.0687884191279409
 20
215.0341242062833089
 30
0.0
 11
3877.0966668907658459
 21
215.0341344120060967
 31
0.0
  0
ARC
  5
B2FD
  8
0
 10
3877.0966636255739104
 20
215.0430537765184056
 30
0.0
 40
0.0089193651099378
 50
270.0209747803033906
 51
314.6023331944750794
  0
LINE
  5
B2FE
  8
0
 10
3877.1029266436289618
 20
215.0367032112833101
 30
0.0
 11
3877.1159428474238666
 21
215.049592704683306
 31
0.0
  0
LINE
  5
B2FF
  8
0
 10
3877.0579228173692172
 20
215.053866437631001
 30
0.0
 11
3877.0700000124288636
 21
215.0418681847833113
 31
0.0
  0
LINE
  5
B300
  8
0
 10
3877.0700000124288636
 20
215.0418681847833113
 30
0.0
 11
3877.0954579770291275
 21
215.0418681847833113
 31
0.0
  0
LINE
  5
B301
  8
0
 10
3877.0954579770291275
 20
215.0418681847833113
 30
0.0
 11
3877.107537446690003
 21
215.0538676652413983
 31
0.0
  0
LINE
  5
B302
  8
0
 10
3877.107537446690003
 20
215.0538676652413983
 30
0.0
 11
3877.0974869188230514
 21
215.0642193622306877
 31
0.0
  0
LINE
  5
B303
  8
0
 10
3877.064823852138943
 20
215.0607178882652875
 30
0.0
 11
3877.0700000124288636
 21
215.0555744689833944
 31
0.0
  0
LINE
  5
B304
  8
0
 10
3877.0700000124288636
 20
215.0555744689833944
 30
0.0
 11
3877.0954579770291275
 21
215.0555744689833944
 31
0.0
  0
LINE
  5
B305
  8
0
 10
3877.0954579770291275
 20
215.0555744689833944
 30
0.0
 11
3877.1008230767661189
 21
215.0607821141350087
 31
0.0
  0
LINE
  5
B306
  8
0
 10
3877.0954579770291275
 20
215.0555744689833944
 30
0.0
 11
3877.0954579770291275
 21
215.0418681847833113
 31
0.0
  0
LINE
  5
B307
  8
0
 10
3877.0700000124288636
 20
215.0555744689833944
 30
0.0
 11
3877.0700000124288636
 21
215.0418681847833113
 31
0.0
  0
LINE
  5
B308
  8
0
 10
3877.0360181756791462
 20
215.049592704683306
 30
0.0
 11
3877.0499560736288913
 21
215.049592183683302
 31
0.0
  0
ARC
  5
B309
  8
0
 10
3877.049956405723151
 20
215.0584764281755099
 30
0.0
 40
0.008884244498413
 50
269.997858278115018
 51
314.7934228374951999
  0
LINE
  5
B30A
  8
0
 10
3877.0562158246289073
 20
215.0521717096833072
 30
0.0
 11
3877.0683147977110821
 21
215.0641837512916936
 31
0.0
  0
ARC
  5
B30B
  8
0
 10
3877.1167323061217758
 20
215.06154573691839
 30
0.0
 40
0.0119790744486375
 50
219.8632179947256873
 51
266.2212891812735052
  0
LINE
  5
B30C
  8
0
 10
3877.0495608221322072
 20
215.0796397016833055
 30
0.0
 11
3877.0625327972111336
 21
215.0667499380832908
 31
0.0
  0
ARC
  5
B30D
  8
0
 10
3877.0687865109348422
 20
215.0730435382687062
 30
0.0
 40
0.0088723355798629
 50
225.1821360477964902
 51
270.0209747803033906
  0
LINE
  5
B30E
  8
0
 10
3877.068789758910043
 20
215.0641712032833084
 30
0.0
 11
3877.0966682305470385
 21
215.0641814090060961
 31
0.0
  0
ARC
  5
B30F
  8
0
 10
3877.096664965355103
 20
215.073100773518405
 30
0.0
 40
0.0089193651099378
 50
270.0209747803033906
 51
314.6023331944750794
  0
LINE
  5
B310
  8
0
 10
3877.1029279834101544
 20
215.0667502082833096
 30
0.0
 11
3877.1159441872059688
 21
215.0796397016833055
 31
0.0
  0
LINE
  5
B311
  8
0
 10
3877.0579241571508646
 20
215.0839134346310004
 30
0.0
 11
3877.0700013522100562
 21
215.0719151817833108
 31
0.0
  0
LINE
  5
B312
  8
0
 10
3877.0700013522100562
 20
215.0719151817833108
 30
0.0
 11
3877.0954593168107749
 21
215.0719151817833108
 31
0.0
  0
LINE
  5
B313
  8
0
 10
3877.0954593168107749
 20
215.0719151817833108
 30
0.0
 11
3877.1075387864711956
 21
215.0839146622413978
 31
0.0
  0
LINE
  5
B314
  8
0
 10
3877.1075387864711956
 20
215.0839146622413978
 30
0.0
 11
3877.096661003402005
 21
215.0951184035509129
 31
0.0
  0
LINE
  5
B315
  8
0
 10
3877.0648251919210452
 20
215.0907648852652869
 30
0.0
 11
3877.0700013522100562
 21
215.0856214659833938
 31
0.0
  0
LINE
  5
B316
  8
0
 10
3877.0700013522100562
 20
215.0856214659833938
 30
0.0
 11
3877.0954593168107749
 21
215.0856214659833938
 31
0.0
  0
LINE
  5
B317
  8
0
 10
3877.0954593168107749
 20
215.0856214659833938
 30
0.0
 11
3877.1008244165468568
 21
215.0908291111350081
 31
0.0
  0
LINE
  5
B318
  8
0
 10
3877.0954593168107749
 20
215.0856214659833938
 30
0.0
 11
3877.0954593168107749
 21
215.0719151817833108
 31
0.0
  0
LINE
  5
B319
  8
0
 10
3877.0700013522100562
 20
215.0856214659833938
 30
0.0
 11
3877.0700013522100562
 21
215.0719151817833108
 31
0.0
  0
LINE
  5
B31A
  8
0
 10
3877.0360195154598841
 20
215.0796397016833055
 30
0.0
 11
3877.049957413410084
 21
215.0796391806833014
 31
0.0
  0
ARC
  5
B31B
  8
0
 10
3877.0499577455038889
 20
215.0885234251755094
 30
0.0
 40
0.008884244498413
 50
269.997858278115018
 51
314.7934228374951999
  0
LINE
  5
B31C
  8
0
 10
3877.0562171644100999
 20
215.0822187066833067
 30
0.0
 11
3877.0692000911208197
 21
215.0951083506878092
 31
0.0
  0
ARC
  5
B31D
  8
0
 10
3877.1167336459029684
 20
215.0915927339183895
 30
0.0
 40
0.0119790744486375
 50
219.8632179947256873
 51
266.2212891812735052
  0
LINE
  5
B31E
  8
0
 10
3877.0495594823501051
 20
215.1105766983833973
 30
0.0
 11
3877.0625314574290314
 21
215.0976869347832974
 31
0.0
  0
ARC
  5
B31F
  8
0
 10
3877.0687851711541043
 20
215.1039805349687128
 30
0.0
 40
0.0088723355798629
 50
225.1821360477964902
 51
270.0209747803033906
  0
LINE
  5
B320
  8
0
 10
3877.0687884191279409
 20
215.0951081999834003
 30
0.0
 11
3877.0966668907658459
 21
215.0951184057061027
 31
0.0
  0
ARC
  5
B321
  8
0
 10
3877.0966636255739104
 20
215.1040377702184117
 30
0.0
 40
0.0089193651099378
 50
270.0209747803033906
 51
314.6023331944750794
  0
LINE
  5
B322
  8
0
 10
3877.1029266436289618
 20
215.0976872049834014
 30
0.0
 11
3877.1159428474238666
 21
215.1105766983833973
 31
0.0
  0
LINE
  5
B323
  8
0
 10
3877.0579228173692172
 20
215.1148504313310923
 30
0.0
 11
3877.0700000124288636
 21
215.102852178483289
 31
0.0
  0
LINE
  5
B324
  8
0
 10
3877.0700000124288636
 20
215.102852178483289
 30
0.0
 11
3877.0954579770291275
 21
215.102852178483289
 31
0.0
  0
LINE
  5
B325
  8
0
 10
3877.0954579770291275
 20
215.102852178483289
 30
0.0
 11
3877.107537446690003
 21
215.1148516589414044
 31
0.0
  0
LINE
  5
B326
  8
0
 10
3877.107537446690003
 20
215.1148516589414044
 30
0.0
 11
3877.0966596640000716
 21
215.1260553998606042
 31
0.0
  0
LINE
  5
B327
  8
0
 10
3877.064823852138943
 20
215.1217018819652935
 30
0.0
 11
3877.0700000124288636
 21
215.1165584626832867
 31
0.0
  0
LINE
  5
B328
  8
0
 10
3877.0700000124288636
 20
215.1165584626832867
 30
0.0
 11
3877.0954579770291275
 21
215.1165584626832867
 31
0.0
  0
LINE
  5
B329
  8
0
 10
3877.0954579770291275
 20
215.1165584626832867
 30
0.0
 11
3877.1008230767661189
 21
215.1217661078349863
 31
0.0
  0
LINE
  5
B32A
  8
0
 10
3877.0954579770291275
 20
215.1165584626832867
 30
0.0
 11
3877.0954579770291275
 21
215.102852178483289
 31
0.0
  0
LINE
  5
B32B
  8
0
 10
3877.0700000124288636
 20
215.1165584626832867
 30
0.0
 11
3877.0700000124288636
 21
215.102852178483289
 31
0.0
  0
LINE
  5
B32C
  8
0
 10
3877.0360181756791462
 20
215.1105766983833973
 30
0.0
 11
3877.0499560736288913
 21
215.1105761773833933
 31
0.0
  0
ARC
  5
B32D
  8
0
 10
3877.049956405723151
 20
215.1194604218754876
 30
0.0
 40
0.008884244498413
 50
269.997858278115018
 51
314.7934228374951999
  0
LINE
  5
B32E
  8
0
 10
3877.0562158246289073
 20
215.1131557033833985
 30
0.0
 11
3877.0691987509471801
 21
215.1260453469971878
 31
0.0
  0
ARC
  5
B32F
  8
0
 10
3877.1167323061217758
 20
215.1225297306183109
 30
0.0
 40
0.0119790744486375
 50
219.8632179947256873
 51
266.2212891812735052
  0
LINE
  5
B330
  8
0
 10
3877.0495594823501051
 20
215.1415136951833063
 30
0.0
 11
3877.0625314574290314
 21
215.1286239315832916
 31
0.0
  0
ARC
  5
B331
  8
0
 10
3877.0687851711541043
 20
215.134917531768707
 30
0.0
 40
0.0088723355798629
 50
225.1821360477964902
 51
270.0209747803033906
  0
LINE
  5
B332
  8
0
 10
3877.0687884191279409
 20
215.1260451967833092
 30
0.0
 11
3877.0966668907658459
 21
215.1260554025060969
 31
0.0
  0
ARC
  5
B333
  8
0
 10
3877.0966636255739104
 20
215.1349747670184911
 30
0.0
 40
0.0089193651099378
 50
270.0209747803033906
 51
314.6023331944750794
  0
LINE
  5
B334
  8
0
 10
3877.1029266436289618
 20
215.1286242017833956
 30
0.0
 11
3877.1159428474238666
 21
215.1415136951833063
 31
0.0
  0
LINE
  5
B335
  8
0
 10
3877.0579228173692172
 20
215.1457874281310865
 30
0.0
 11
3877.0700000124288636
 21
215.1337891752833968
 31
0.0
  0
LINE
  5
B336
  8
0
 10
3877.0700000124288636
 20
215.1337891752833968
 30
0.0
 11
3877.0954579770291275
 21
215.1337891752833968
 31
0.0
  0
LINE
  5
B337
  8
0
 10
3877.0954579770291275
 20
215.1337891752833968
 30
0.0
 11
3877.107537446690003
 21
215.1457886557413985
 31
0.0
  0
LINE
  5
B338
  8
0
 10
3877.107537446690003
 20
215.1457886557413985
 30
0.0
 11
3877.0966596640000716
 21
215.1569923966605984
 31
0.0
  0
LINE
  5
B339
  8
0
 10
3877.064823852138943
 20
215.1526388787652877
 30
0.0
 11
3877.0700000124288636
 21
215.1474954594833093
 31
0.0
  0
LINE
  5
B33A
  8
0
 10
3877.0700000124288636
 20
215.1474954594833093
 30
0.0
 11
3877.0954579770291275
 21
215.1474954594833093
 31
0.0
  0
LINE
  5
B33B
  8
0
 10
3877.0954579770291275
 20
215.1474954594833093
 30
0.0
 11
3877.1008230767661189
 21
215.1527031046350089
 31
0.0
  0
LINE
  5
B33C
  8
0
 10
3877.0954579770291275
 20
215.1474954594833093
 30
0.0
 11
3877.0954579770291275
 21
215.1337891752833968
 31
0.0
  0
LINE
  5
B33D
  8
0
 10
3877.0700000124288636
 20
215.1474954594833093
 30
0.0
 11
3877.0700000124288636
 21
215.1337891752833968
 31
0.0
  0
LINE
  5
B33E
  8
0
 10
3877.0360181756791462
 20
215.1415136951833063
 30
0.0
 11
3877.0499560736288913
 21
215.1415131741833022
 31
0.0
  0
ARC
  5
B33F
  8
0
 10
3877.049956405723151
 20
215.1503974186755954
 30
0.0
 40
0.008884244498413
 50
269.997858278115018
 51
314.7934228374951999
  0
LINE
  5
B340
  8
0
 10
3877.0562158246289073
 20
215.1440927001833074
 30
0.0
 11
3877.0691987509471801
 21
215.1569823437972104
 31
0.0
  0
ARC
  5
B341
  8
0
 10
3877.1167323061217758
 20
215.153466727418305
 30
0.0
 40
0.0119790744486375
 50
219.8632179947256873
 51
266.2212891812735052
  0
LINE
  5
B342
  8
0
 10
3877.0495594823501051
 20
215.1724506919833004
 30
0.0
 11
3877.0625314574290314
 21
215.1595609283833141
 31
0.0
  0
ARC
  5
B343
  8
0
 10
3877.0687851711541043
 20
215.1658545285687012
 30
0.0
 40
0.0088723355798629
 50
225.1821360477964902
 51
270.0209747803033906
  0
LINE
  5
B344
  8
0
 10
3877.0687884191279409
 20
215.1569821935833033
 30
0.0
 11
3877.0966668907658459
 21
215.1569923993060911
 31
0.0
  0
ARC
  5
B345
  8
0
 10
3877.0966636255739104
 20
215.1659117638184
 30
0.0
 40
0.0089193651099378
 50
270.0209747803033906
 51
314.6023331944750794
  0
LINE
  5
B346
  8
0
 10
3877.1029266436289618
 20
215.1595611985833045
 30
0.0
 11
3877.1159428474238666
 21
215.1724506919833004
 31
0.0
  0
LINE
  5
B347
  8
0
 10
3877.0579228173692172
 20
215.1767244249309954
 30
0.0
 11
3877.0700000124288636
 21
215.1647261720833058
 31
0.0
  0
LINE
  5
B348
  8
0
 10
3877.0700000124288636
 20
215.1647261720833058
 30
0.0
 11
3877.0954579770291275
 21
215.1647261720833058
 31
0.0
  0
LINE
  5
B349
  8
0
 10
3877.0954579770291275
 20
215.1647261720833058
 30
0.0
 11
3877.107537446690003
 21
215.1767256525413927
 31
0.0
  0
LINE
  5
B34A
  8
0
 10
3877.107537446690003
 20
215.1767256525413927
 30
0.0
 11
3877.0966596640969328
 21
215.187929393360605
 31
0.0
  0
LINE
  5
B34B
  8
0
 10
3877.064823852138943
 20
215.1835758755653103
 30
0.0
 11
3877.0700000124288636
 21
215.1784324562833035
 31
0.0
  0
LINE
  5
B34C
  8
0
 10
3877.0700000124288636
 20
215.1784324562833035
 30
0.0
 11
3877.0954579770291275
 21
215.1784324562833035
 31
0.0
  0
LINE
  5
B34D
  8
0
 10
3877.0954579770291275
 20
215.1784324562833035
 30
0.0
 11
3877.1008230767661189
 21
215.1836401014350031
 31
0.0
  0
LINE
  5
B34E
  8
0
 10
3877.0954579770291275
 20
215.1784324562833035
 30
0.0
 11
3877.0954579770291275
 21
215.1647261720833058
 31
0.0
  0
LINE
  5
B34F
  8
0
 10
3877.0700000124288636
 20
215.1784324562833035
 30
0.0
 11
3877.0700000124288636
 21
215.1647261720833058
 31
0.0
  0
LINE
  5
B350
  8
0
 10
3877.0360181756791462
 20
215.1724506919833004
 30
0.0
 11
3877.0499560736288913
 21
215.1724501709832964
 31
0.0
  0
ARC
  5
B351
  8
0
 10
3877.049956405723151
 20
215.1813344154755896
 30
0.0
 40
0.008884244498413
 50
269.997858278115018
 51
314.7934228374951999
  0
LINE
  5
B352
  8
0
 10
3877.0562158246289073
 20
215.1750296969833016
 30
0.0
 11
3877.0691987508462262
 21
215.1879193404971886
 31
0.0
  0
ARC
  5
B353
  8
0
 10
3877.1167323061217758
 20
215.1844037242182992
 30
0.0
 40
0.0119790744486375
 50
219.8632179947256873
 51
266.2212891812735052
  0
LINE
  5
B354
  8
0
 10
3877.0495594823501051
 20
215.203387688683307
 30
0.0
 11
3877.0625314574290314
 21
215.1904979250832923
 31
0.0
  0
ARC
  5
B355
  8
0
 10
3877.0687851711541043
 20
215.1967915252687078
 30
0.0
 40
0.0088723355798629
 50
225.1821360477964902
 51
270.0209747803033906
  0
LINE
  5
B356
  8
0
 10
3877.0687884191279409
 20
215.1879191902833099
 30
0.0
 11
3877.0966668907658459
 21
215.1879293960060977
 31
0.0
  0
ARC
  5
B357
  8
0
 10
3877.0966636255739104
 20
215.1968487605184066
 30
0.0
 40
0.0089193651099378
 50
270.0209747803033906
 51
314.6023331944750794
  0
LINE
  5
B358
  8
0
 10
3877.1029266436289618
 20
215.1904981952833111
 30
0.0
 11
3877.1159428474238666
 21
215.203387688683307
 31
0.0
  0
LINE
  5
B359
  8
0
 10
3877.0579228173692172
 20
215.2076614216310873
 30
0.0
 11
3877.0700000124288636
 21
215.1956631687833124
 31
0.0
  0
LINE
  5
B35A
  8
0
 10
3877.0700000124288636
 20
215.1956631687833124
 30
0.0
 11
3877.0954579770291275
 21
215.1956631687833124
 31
0.0
  0
LINE
  5
B35B
  8
0
 10
3877.0954579770291275
 20
215.1956631687833124
 30
0.0
 11
3877.107537446690003
 21
215.2076626492413993
 31
0.0
  0
LINE
  5
B35C
  8
0
 10
3877.107537446690003
 20
215.2076626492413993
 30
0.0
 11
3877.1035852118070579
 21
215.211733314829786
 31
0.0
  0
LINE
  5
B35D
  8
0
 10
3877.064823852138943
 20
215.2145128722652885
 30
0.0
 11
3877.0700000124288636
 21
215.2093694529833101
 31
0.0
  0
LINE
  5
B35E
  8
0
 10
3877.0700000124288636
 20
215.2093694529833101
 30
0.0
 11
3877.0954579770291275
 21
215.2093694529833101
 31
0.0
  0
LINE
  5
B35F
  8
0
 10
3877.0954579770291275
 20
215.2093694529833101
 30
0.0
 11
3877.09878058107779
 21
215.2125945454725127
 31
0.0
  0
LINE
  5
B360
  8
0
 10
3877.0954579770291275
 20
215.2093694529833101
 30
0.0
 11
3877.0954579770291275
 21
215.1956631687833124
 31
0.0
  0
LINE
  5
B361
  8
0
 10
3877.0700000124288636
 20
215.2093694529833101
 30
0.0
 11
3877.0700000124288636
 21
215.1956631687833124
 31
0.0
  0
LINE
  5
B362
  8
0
 10
3877.0360181756791462
 20
215.203387688683307
 30
0.0
 11
3877.0499560736288913
 21
215.203387167683303
 31
0.0
  0
ARC
  5
B363
  8
0
 10
3877.049956405723151
 20
215.2122714121755109
 30
0.0
 40
0.008884244498413
 50
269.997858278115018
 51
314.7934228374951999
  0
LINE
  5
B364
  8
0
 10
3877.0562158246289073
 20
215.2059666936833082
 30
0.0
 11
3877.0667338636330896
 21
215.2164091602708993
 31
0.0
  0
ARC
  5
B365
  8
0
 10
3877.1167323061217758
 20
215.2153407209183058
 30
0.0
 40
0.0119790744486375
 50
219.8632179947256873
 51
266.2212891812735052
  0
LINE
  5
B366
  8
0
 10
3877.1159428474238666
 20
215.0177657080832887
 30
0.0
 11
3877.1429367800328691
 21
215.0177657080832887
 31
0.0
  0
LINE
  5
B367
  8
0
 10
3877.1159428474238666
 20
215.049592704683306
 30
0.0
 11
3877.1429367800328691
 21
215.049592704683306
 31
0.0
  0
LINE
  5
B368
  8
0
 10
3877.1159441872059688
 20
215.0796397016833055
 30
0.0
 11
3877.1433790514101929
 21
215.0796391806833014
 31
0.0
  0
LINE
  5
B369
  8
0
 10
3877.1159428474238666
 20
215.1105766983833973
 30
0.0
 11
3877.1433790514101929
 21
215.1105761773833933
 31
0.0
  0
LINE
  5
B36A
  8
0
 10
3877.1159428474238666
 20
215.1415136951833063
 30
0.0
 11
3877.1429367800328691
 21
215.1415136951833063
 31
0.0
  0
LINE
  5
B36B
  8
0
 10
3877.1159428474238666
 20
215.1724506919833004
 30
0.0
 11
3877.1433790514101929
 21
215.1724501709832964
 31
0.0
  0
LINE
  5
B36C
  8
0
 10
3877.1046384028641114
 20
215.0065713102524114
 30
0.0
 11
3877.116710831428918
 21
214.9945777927447921
 31
0.0
  0
LINE
  5
B36D
  8
0
 10
3877.116710831428918
 20
214.9945777927447921
 30
0.0
 11
3877.142168796029182
 21
214.9945777927447921
 31
0.0
  0
LINE
  5
B36E
  8
0
 10
3877.1115483064468208
 20
215.0134139471684023
 30
0.0
 11
3877.116710831428918
 21
215.0082840769447046
 31
0.0
  0
LINE
  5
B36F
  8
0
 10
3877.116710831428918
 20
215.0082840769447046
 30
0.0
 11
3877.142168796029182
 21
215.0082840769447046
 31
0.0
  0
LINE
  5
B370
  8
0
 10
3877.116710831428918
 20
215.0082840769447046
 30
0.0
 11
3877.116710831428918
 21
214.9945777927447921
 31
0.0
  0
LINE
  5
B371
  8
0
 10
3877.1159428474238666
 20
214.9868338142447044
 30
0.0
 11
3877.1433777116290003
 21
214.9868332932447004
 31
0.0
  0
LINE
  5
B372
  8
0
 10
3877.1041897529080416
 20
215.0379540244221062
 30
0.0
 11
3877.116710831428918
 21
215.025514789544701
 31
0.0
  0
LINE
  5
B373
  8
0
 10
3877.116710831428918
 20
215.025514789544701
 30
0.0
 11
3877.142168796029182
 21
215.025514789544701
 31
0.0
  0
LINE
  5
B374
  8
0
 10
3877.1110997042328563
 20
215.0447967086172127
 30
0.0
 11
3877.1167108314298275
 21
215.0392210737446987
 31
0.0
  0
LINE
  5
B375
  8
0
 10
3877.116710831428918
 20
215.0392210737446987
 30
0.0
 11
3877.142168796029182
 21
215.0392210737446987
 31
0.0
  0
LINE
  5
B376
  8
0
 10
3877.116710831428918
 20
215.0392210737446987
 30
0.0
 11
3877.116710831428918
 21
215.025514789544701
 31
0.0
  0
LINE
  5
B377
  8
0
 10
3877.104633636368817
 20
215.0684500390925109
 30
0.0
 11
3877.116710831428918
 21
215.0564517862447076
 31
0.0
  0
LINE
  5
B378
  8
0
 10
3877.116710831428918
 20
215.0564517862447076
 30
0.0
 11
3877.142168796029182
 21
215.0564517862447076
 31
0.0
  0
LINE
  5
B379
  8
0
 10
3877.1115346711389975
 20
215.0753014897267121
 30
0.0
 11
3877.116710831428918
 21
215.0701580704447053
 31
0.0
  0
LINE
  5
B37A
  8
0
 10
3877.116710831428918
 20
215.0701580704447053
 30
0.0
 11
3877.142168796029182
 21
215.0701580704447053
 31
0.0
  0
LINE
  5
B37B
  8
0
 10
3877.116710831428918
 20
215.0701580704447053
 30
0.0
 11
3877.116710831428918
 21
215.0564517862447076
 31
0.0
  0
LINE
  5
B37C
  8
0
 10
3877.104633636368817
 20
215.0993870358925051
 30
0.0
 11
3877.116710831428918
 21
215.0873887830447018
 31
0.0
  0
LINE
  5
B37D
  8
0
 10
3877.116710831428918
 20
215.0873887830447018
 30
0.0
 11
3877.142168796029182
 21
215.0873887830447018
 31
0.0
  0
LINE
  5
B37E
  8
0
 10
3877.1115346711389975
 20
215.1062384865267063
 30
0.0
 11
3877.116710831428918
 21
215.1010950672446995
 31
0.0
  0
LINE
  5
B37F
  8
0
 10
3877.116710831428918
 20
215.1010950672446995
 30
0.0
 11
3877.142168796029182
 21
215.1010950672446995
 31
0.0
  0
LINE
  5
B380
  8
0
 10
3877.116710831428918
 20
215.1010950672446995
 30
0.0
 11
3877.116710831428918
 21
215.0873887830447018
 31
0.0
  0
LINE
  5
B381
  8
0
 10
3877.104633636368817
 20
215.1303240325925117
 30
0.0
 11
3877.116710831428918
 21
215.1183257797447084
 31
0.0
  0
LINE
  5
B382
  8
0
 10
3877.116710831428918
 20
215.1183257797447084
 30
0.0
 11
3877.142168796029182
 21
215.1183257797447084
 31
0.0
  0
LINE
  5
B383
  8
0
 10
3877.1115346711389975
 20
215.1371754832267129
 30
0.0
 11
3877.116710831428918
 21
215.1320320639447914
 31
0.0
  0
LINE
  5
B384
  8
0
 10
3877.116710831428918
 20
215.1320320639447914
 30
0.0
 11
3877.142168796029182
 21
215.1320320639447914
 31
0.0
  0
LINE
  5
B385
  8
0
 10
3877.116710831428918
 20
215.1320320639447914
 30
0.0
 11
3877.116710831428918
 21
215.1183257797447084
 31
0.0
  0
LINE
  5
B386
  8
0
 10
3877.104633636368817
 20
215.1921980261925
 30
0.0
 11
3877.116710831428918
 21
215.1801997733446967
 31
0.0
  0
LINE
  5
B387
  8
0
 10
3877.116710831428918
 20
215.1801997733446967
 30
0.0
 11
3877.142168796029182
 21
215.1801997733446967
 31
0.0
  0
LINE
  5
B388
  8
0
 10
3877.1115346711389975
 20
215.1990494768267013
 30
0.0
 11
3877.116710831428918
 21
215.1939060575446945
 31
0.0
  0
LINE
  5
B389
  8
0
 10
3877.116710831428918
 20
215.1939060575446945
 30
0.0
 11
3877.142168796029182
 21
215.1939060575446945
 31
0.0
  0
LINE
  5
B38A
  8
0
 10
3877.116710831428918
 20
215.1939060575446945
 30
0.0
 11
3877.116710831428918
 21
215.1801997733446967
 31
0.0
  0
ARC
  5
B38B
  8
0
 10
3877.1529423003680677
 20
214.9841322650925974
 30
0.0
 40
0.0054224132569383
 50
244.9213338122698076
 51
0.0050664023656302
  0
LINE
  5
B38C
  8
0
 10
3877.1506439443060117
 20
214.9792210407092909
 30
0.0
 11
3877.1429367800328691
 21
214.9868338142447044
 31
0.0
  0
LINE
  5
B38D
  8
0
 10
3877.1583647136030777
 20
214.9841327445716956
 30
0.0
 11
3877.151342180768097
 21
214.9911087748027967
 31
0.0
  0
LINE
  5
B38E
  8
0
 10
3877.151342180768097
 20
214.9911087748027967
 30
0.0
 11
3877.1622100571289593
 21
215.0023023125447139
 31
0.0
  0
LINE
  5
B38F
  8
0
 10
3877.1700911135239949
 20
215.0023045312979093
 30
0.0
 11
3877.1583647136289983
 21
214.9977241047043037
 31
0.0
  0
LINE
  5
B390
  8
0
 10
3877.1583647136289983
 20
214.9977241047043037
 30
0.0
 11
3877.1583647136030777
 21
214.9841327445716956
 31
0.0
  0
LINE
  5
B391
  8
0
 10
3877.1947042328770294
 20
214.9973226053747908
 30
0.0
 11
3877.1896810279131387
 21
215.0023023125447139
 31
0.0
  0
ARC
  5
B392
  8
0
 10
3877.1421473213358695
 20
214.9987868464797032
 30
0.0
 40
0.0119790744486375
 50
273.7787108187263811
 51
320.136782005274199
  0
LINE
  5
B393
  8
0
 10
3877.208922306536806
 20
215.0177651871242119
 30
0.0
 11
3877.1963481700290686
 21
215.0048759444833024
 31
0.0
  0
ARC
  5
B394
  8
0
 10
3877.1900944563049052
 20
215.0111695446686895
 30
0.0
 40
0.0088723355798629
 50
269.9790252196966094
 51
314.8178639522034814
  0
LINE
  5
B395
  8
0
 10
3877.1900912083278854
 20
215.0022972096832916
 30
0.0
 11
3877.1622127366917994
 21
215.0023074154061931
 31
0.0
  0
ARC
  5
B396
  8
0
 10
3877.1622160018841896
 20
215.0112267799183883
 30
0.0
 40
0.0089193651099378
 50
225.3976668055248922
 51
269.9790252196966094
  0
LINE
  5
B397
  8
0
 10
3877.1559529838291382
 20
215.0048762146832928
 30
0.0
 11
3877.1429367800328691
 21
215.0177657080832887
 31
0.0
  0
LINE
  5
B398
  8
0
 10
3877.2009568100879733
 20
215.0220394410310973
 30
0.0
 11
3877.1888796150287817
 21
215.010041188183294
 31
0.0
  0
LINE
  5
B399
  8
0
 10
3877.1888796150287817
 20
215.010041188183294
 30
0.0
 11
3877.1634216504289725
 21
215.010041188183294
 31
0.0
  0
LINE
  5
B39A
  8
0
 10
3877.1634216504289725
 20
215.010041188183294
 30
0.0
 11
3877.151342180768097
 21
215.0220406686414094
 31
0.0
  0
LINE
  5
B39B
  8
0
 10
3877.151342180768097
 20
215.0220406686414094
 30
0.0
 11
3877.1630837628558766
 21
215.0341340931418017
 31
0.0
  0
LINE
  5
B39C
  8
0
 10
3877.1940557753177927
 20
215.0288908916652986
 30
0.0
 11
3877.1888796150287817
 21
215.0237474723832918
 31
0.0
  0
LINE
  5
B39D
  8
0
 10
3877.1888796150287817
 20
215.0237474723832918
 30
0.0
 11
3877.1634216504289725
 21
215.0237474723832918
 31
0.0
  0
LINE
  5
B39E
  8
0
 10
3877.1634216504289725
 20
215.0237474723832918
 30
0.0
 11
3877.1580565506919811
 21
215.0289551175349914
 31
0.0
  0
LINE
  5
B39F
  8
0
 10
3877.1634216504289725
 20
215.0237474723832918
 30
0.0
 11
3877.1634216504289725
 21
215.010041188183294
 31
0.0
  0
LINE
  5
B3A0
  8
0
 10
3877.1888796150287817
 20
215.0237474723832918
 30
0.0
 11
3877.1888796150287817
 21
215.010041188183294
 31
0.0
  0
ARC
  5
B3A1
  8
0
 10
3877.208923221734949
 20
215.0266494315756063
 30
0.0
 40
0.008884244498413
 50
225.2065771625048001
 51
270.0021417218850956
  0
LINE
  5
B3A2
  8
0
 10
3877.2026638028291927
 20
215.0203447130832899
 30
0.0
 11
3877.1887841050929637
 21
215.0341246847864056
 31
0.0
  0
ARC
  5
B3A3
  8
0
 10
3877.1421473213358695
 20
215.0297187403182875
 30
0.0
 40
0.0119790744486375
 50
273.7787108187263811
 51
320.136782005274199
  0
LINE
  5
B3A4
  8
0
 10
3877.2089222159597739
 20
215.0487129106060991
 30
0.0
 11
3877.1960946032750144
 21
215.0364607494288123
 31
0.0
  0
ARC
  5
B3A5
  8
0
 10
3877.1900944563049052
 20
215.0429965412687068
 30
0.0
 40
0.0088723355798629
 50
269.9790252196966094
 51
314.8178639522034814
  0
LINE
  5
B3A6
  8
0
 10
3877.1900912083278854
 20
215.0341242062833089
 30
0.0
 11
3877.1622127366917994
 21
215.0341344120060967
 31
0.0
  0
ARC
  5
B3A7
  8
0
 10
3877.1622160018841896
 20
215.0430537765184056
 30
0.0
 40
0.0089193651099378
 50
225.3976668055248922
 51
269.9790252196966094
  0
LINE
  5
B3A8
  8
0
 10
3877.1559529838291382
 20
215.0367032112833101
 30
0.0
 11
3877.1429367800328691
 21
215.049592704683306
 31
0.0
  0
LINE
  5
B3A9
  8
0
 10
3877.2009568100879733
 20
215.053866437631001
 30
0.0
 11
3877.1888796150287817
 21
215.0418681847833113
 31
0.0
  0
LINE
  5
B3AA
  8
0
 10
3877.1888796150287817
 20
215.0418681847833113
 30
0.0
 11
3877.1634216504289725
 21
215.0418681847833113
 31
0.0
  0
LINE
  5
B3AB
  8
0
 10
3877.1634216504289725
 20
215.0418681847833113
 30
0.0
 11
3877.151342180768097
 21
215.0538676652413983
 31
0.0
  0
LINE
  5
B3AC
  8
0
 10
3877.151342180768097
 20
215.0538676652413983
 30
0.0
 11
3877.1613927086350486
 21
215.0642193622306877
 31
0.0
  0
LINE
  5
B3AD
  8
0
 10
3877.1940557753177927
 20
215.0607178882652875
 30
0.0
 11
3877.1888796150287817
 21
215.0555744689833944
 31
0.0
  0
LINE
  5
B3AE
  8
0
 10
3877.1888796150287817
 20
215.0555744689833944
 30
0.0
 11
3877.1634216504289725
 21
215.0555744689833944
 31
0.0
  0
LINE
  5
B3AF
  8
0
 10
3877.1634216504289725
 20
215.0555744689833944
 30
0.0
 11
3877.1580565506919811
 21
215.0607821141350087
 31
0.0
  0
LINE
  5
B3B0
  8
0
 10
3877.1634216504289725
 20
215.0555744689833944
 30
0.0
 11
3877.1634216504289725
 21
215.0418681847833113
 31
0.0
  0
LINE
  5
B3B1
  8
0
 10
3877.1888796150287817
 20
215.0555744689833944
 30
0.0
 11
3877.1888796150287817
 21
215.0418681847833113
 31
0.0
  0
ARC
  5
B3B2
  8
0
 10
3877.2177980429792115
 20
215.072164433388906
 30
0.0
 40
0.0250749721056272
 50
232.874737083966096
 51
249.2695731033649054
  0
LINE
  5
B3B3
  8
0
 10
3877.2026638028291927
 20
215.0521717096833072
 30
0.0
 11
3877.1905648297461084
 21
215.0641837512916936
 31
0.0
  0
ARC
  5
B3B4
  8
0
 10
3877.1421473213358695
 20
215.06154573691839
 30
0.0
 40
0.0119790744486375
 50
273.7787108187263811
 51
320.136782005274199
  0
LINE
  5
B3B5
  8
0
 10
3877.2089208761781265
 20
215.0787599076060985
 30
0.0
 11
3877.1963468302478759
 21
215.0667499380832908
 31
0.0
  0
ARC
  5
B3B6
  8
0
 10
3877.190093116522803
 20
215.0730435382687062
 30
0.0
 40
0.0088723355798629
 50
269.9790252196966094
 51
314.8178639522034814
  0
LINE
  5
B3B7
  8
0
 10
3877.1900898685471475
 20
215.0641712032833084
 30
0.0
 11
3877.162211396910152
 21
215.0641814090060961
 31
0.0
  0
ARC
  5
B3B8
  8
0
 10
3877.1622146621020875
 20
215.073100773518405
 30
0.0
 40
0.0089193651099378
 50
225.3976668055248922
 51
269.9790252196966094
  0
LINE
  5
B3B9
  8
0
 10
3877.1559516440470361
 20
215.0667502082833096
 30
0.0
 11
3877.1429354402521312
 21
215.0796397016833055
 31
0.0
  0
LINE
  5
B3BA
  8
0
 10
3877.2009554703067806
 20
215.0839134346310004
 30
0.0
 11
3877.1888782752471343
 21
215.0719151817833108
 31
0.0
  0
LINE
  5
B3BB
  8
0
 10
3877.1888782752471343
 20
215.0719151817833108
 30
0.0
 11
3877.1634203106468703
 21
215.0719151817833108
 31
0.0
  0
LINE
  5
B3BC
  8
0
 10
3877.1634203106468703
 20
215.0719151817833108
 30
0.0
 11
3877.1513408409859949
 21
215.0839146622413978
 31
0.0
  0
LINE
  5
B3BD
  8
0
 10
3877.1513408409859949
 20
215.0839146622413978
 30
0.0
 11
3877.162218624056095
 21
215.0951184035509129
 31
0.0
  0
LINE
  5
B3BE
  8
0
 10
3877.1940544355370548
 20
215.0907648852652869
 30
0.0
 11
3877.1888782752471343
 21
215.0856214659833938
 31
0.0
  0
LINE
  5
B3BF
  8
0
 10
3877.1888782752471343
 20
215.0856214659833938
 30
0.0
 11
3877.1634203106468703
 21
215.0856214659833938
 31
0.0
  0
LINE
  5
B3C0
  8
0
 10
3877.1634203106468703
 20
215.0856214659833938
 30
0.0
 11
3877.158055210909879
 21
215.0908291111350081
 31
0.0
  0
LINE
  5
B3C1
  8
0
 10
3877.1634203106468703
 20
215.0856214659833938
 30
0.0
 11
3877.1634203106468703
 21
215.0719151817833108
 31
0.0
  0
LINE
  5
B3C2
  8
0
 10
3877.1888782752471343
 20
215.0856214659833938
 30
0.0
 11
3877.1888782752471343
 21
215.0719151817833108
 31
0.0
  0
ARC
  5
B3C3
  8
0
 10
3877.2103080225610938
 20
215.0886612772316937
 30
0.0
 40
0.009998064590083
 50
220.1193384555033106
 51
262.024971731797109
  0
LINE
  5
B3C4
  8
0
 10
3877.2026624630470906
 20
215.0822187066833067
 30
0.0
 11
3877.1896795363359161
 21
215.0951083506878092
 31
0.0
  0
ARC
  5
B3C5
  8
0
 10
3877.1421459815542221
 20
215.0915927339183895
 30
0.0
 40
0.0119790744486375
 50
273.7787108187263811
 51
320.136782005274199
  0
LINE
  5
B3C6
  8
0
 10
3877.2089222159597739
 20
215.1096969043061051
 30
0.0
 11
3877.1963481700290686
 21
215.0976869347832974
 31
0.0
  0
ARC
  5
B3C7
  8
0
 10
3877.1900944563049052
 20
215.1039805349687128
 30
0.0
 40
0.0088723355798629
 50
269.9790252196966094
 51
314.8178639522034814
  0
LINE
  5
B3C8
  8
0
 10
3877.1900912083278854
 20
215.0951081999834003
 30
0.0
 11
3877.1622127366917994
 21
215.0951184057061027
 31
0.0
  0
ARC
  5
B3C9
  8
0
 10
3877.1622160018841896
 20
215.1040377702184117
 30
0.0
 40
0.0089193651099378
 50
225.3976668055248922
 51
269.9790252196966094
  0
LINE
  5
B3CA
  8
0
 10
3877.1559529838291382
 20
215.0976872049834014
 30
0.0
 11
3877.1429367800328691
 21
215.1105766983833973
 31
0.0
  0
LINE
  5
B3CB
  8
0
 10
3877.2009568100879733
 20
215.1148504313310923
 30
0.0
 11
3877.1888796150287817
 21
215.102852178483289
 31
0.0
  0
LINE
  5
B3CC
  8
0
 10
3877.1888796150287817
 20
215.102852178483289
 30
0.0
 11
3877.1634216504289725
 21
215.102852178483289
 31
0.0
  0
LINE
  5
B3CD
  8
0
 10
3877.1634216504289725
 20
215.102852178483289
 30
0.0
 11
3877.151342180768097
 21
215.1148516589414044
 31
0.0
  0
LINE
  5
B3CE
  8
0
 10
3877.151342180768097
 20
215.1148516589414044
 30
0.0
 11
3877.1622199634580284
 21
215.1260553998606042
 31
0.0
  0
LINE
  5
B3CF
  8
0
 10
3877.1940557753177927
 20
215.1217018819652935
 30
0.0
 11
3877.1888796150287817
 21
215.1165584626832867
 31
0.0
  0
LINE
  5
B3D0
  8
0
 10
3877.1888796150287817
 20
215.1165584626832867
 30
0.0
 11
3877.1634216504289725
 21
215.1165584626832867
 31
0.0
  0
LINE
  5
B3D1
  8
0
 10
3877.1634216504289725
 20
215.1165584626832867
 30
0.0
 11
3877.1580565506919811
 21
215.1217661078349863
 31
0.0
  0
LINE
  5
B3D2
  8
0
 10
3877.1634216504289725
 20
215.1165584626832867
 30
0.0
 11
3877.1634216504289725
 21
215.102852178483289
 31
0.0
  0
LINE
  5
B3D3
  8
0
 10
3877.1888796150287817
 20
215.1165584626832867
 30
0.0
 11
3877.1888796150287817
 21
215.102852178483289
 31
0.0
  0
ARC
  5
B3D4
  8
0
 10
3877.210380811820869
 20
215.1197275558998001
 30
0.0
 40
0.0101361468653803
 50
220.4179207172377062
 51
261.7263894700882929
  0
LINE
  5
B3D5
  8
0
 10
3877.2026638028291927
 20
215.1131557033833985
 30
0.0
 11
3877.1896808765109199
 21
215.1260453469971878
 31
0.0
  0
ARC
  5
B3D6
  8
0
 10
3877.1421473213358695
 20
215.1225297306183109
 30
0.0
 40
0.0119790744486375
 50
273.7787108187263811
 51
320.136782005274199
  0
LINE
  5
B3D7
  8
0
 10
3877.2089222159597739
 20
215.140633901106213
 30
0.0
 11
3877.1963481700290686
 21
215.1286239315832916
 31
0.0
  0
ARC
  5
B3D8
  8
0
 10
3877.1900944563049052
 20
215.134917531768707
 30
0.0
 40
0.0088723355798629
 50
269.9790252196966094
 51
314.8178639522034814
  0
LINE
  5
B3D9
  8
0
 10
3877.1900912083278854
 20
215.1260451967833092
 30
0.0
 11
3877.1622127366917994
 21
215.1260554025060969
 31
0.0
  0
ARC
  5
B3DA
  8
0
 10
3877.1622160018841896
 20
215.1349747670184911
 30
0.0
 40
0.0089193651099378
 50
225.3976668055248922
 51
269.9790252196966094
  0
LINE
  5
B3DB
  8
0
 10
3877.1559529838291382
 20
215.1286242017833956
 30
0.0
 11
3877.1429367800328691
 21
215.1415136951833063
 31
0.0
  0
LINE
  5
B3DC
  8
0
 10
3877.2009568100879733
 20
215.1457874281310865
 30
0.0
 11
3877.1888796150287817
 21
215.1337891752833968
 31
0.0
  0
LINE
  5
B3DD
  8
0
 10
3877.1888796150287817
 20
215.1337891752833968
 30
0.0
 11
3877.1634216504289725
 21
215.1337891752833968
 31
0.0
  0
LINE
  5
B3DE
  8
0
 10
3877.1634216504289725
 20
215.1337891752833968
 30
0.0
 11
3877.151342180768097
 21
215.1457886557413985
 31
0.0
  0
LINE
  5
B3DF
  8
0
 10
3877.151342180768097
 20
215.1457886557413985
 30
0.0
 11
3877.1622199634580284
 21
215.1569923966605984
 31
0.0
  0
LINE
  5
B3E0
  8
0
 10
3877.1940557753177927
 20
215.1526388787652877
 30
0.0
 11
3877.1888796150287817
 21
215.1474954594833093
 31
0.0
  0
LINE
  5
B3E1
  8
0
 10
3877.1888796150287817
 20
215.1474954594833093
 30
0.0
 11
3877.1634216504289725
 21
215.1474954594833093
 31
0.0
  0
LINE
  5
B3E2
  8
0
 10
3877.1634216504289725
 20
215.1474954594833093
 30
0.0
 11
3877.1580565506919811
 21
215.1527031046350089
 31
0.0
  0
LINE
  5
B3E3
  8
0
 10
3877.1634216504289725
 20
215.1474954594833093
 30
0.0
 11
3877.1634216504289725
 21
215.1337891752833968
 31
0.0
  0
LINE
  5
B3E4
  8
0
 10
3877.1888796150287817
 20
215.1474954594833093
 30
0.0
 11
3877.1888796150287817
 21
215.1337891752833968
 31
0.0
  0
ARC
  5
B3E5
  8
0
 10
3877.2114380821758459
 20
215.1525775966582046
 30
0.0
 40
0.0122057956011742
 50
224.0394174119952879
 51
258.1048927753080875
  0
LINE
  5
B3E6
  8
0
 10
3877.2026638028291927
 20
215.1440927001833074
 30
0.0
 11
3877.1896808765109199
 21
215.1569823437972104
 31
0.0
  0
ARC
  5
B3E7
  8
0
 10
3877.1421473213358695
 20
215.153466727418305
 30
0.0
 40
0.0119790744486375
 50
273.7787108187263811
 51
320.136782005274199
  0
LINE
  5
B3E8
  8
0
 10
3877.2089180767779908
 20
215.1720511718121998
 30
0.0
 11
3877.1963481700290686
 21
215.1595609283833141
 31
0.0
  0
ARC
  5
B3E9
  8
0
 10
3877.1900944563049052
 20
215.1658545285687012
 30
0.0
 40
0.0088723355798629
 50
269.9790252196966094
 51
314.8178639522034814
  0
LINE
  5
B3EA
  8
0
 10
3877.1900912083278854
 20
215.1569821935833033
 30
0.0
 11
3877.1622127366917994
 21
215.1569923993060911
 31
0.0
  0
ARC
  5
B3EB
  8
0
 10
3877.1622160018841896
 20
215.1659117638184
 30
0.0
 40
0.0089193651099378
 50
225.3976668055248922
 51
269.9790252196966094
  0
LINE
  5
B3EC
  8
0
 10
3877.1559529838291382
 20
215.1595611985833045
 30
0.0
 11
3877.1429367800328691
 21
215.1724506919833004
 31
0.0
  0
LINE
  5
B3ED
  8
0
 10
3877.2006074732189518
 20
215.1763773714914123
 30
0.0
 11
3877.1888796150287817
 21
215.1647261720833058
 31
0.0
  0
LINE
  5
B3EE
  8
0
 10
3877.1888796150287817
 20
215.1647261720833058
 30
0.0
 11
3877.1634216504289725
 21
215.1647261720833058
 31
0.0
  0
LINE
  5
B3EF
  8
0
 10
3877.1634216504289725
 20
215.1647261720833058
 30
0.0
 11
3877.151342180768097
 21
215.1767256525413927
 31
0.0
  0
LINE
  5
B3F0
  8
0
 10
3877.151342180768097
 20
215.1767256525413927
 30
0.0
 11
3877.1622199633611672
 21
215.187929393360605
 31
0.0
  0
LINE
  5
B3F1
  8
0
 10
3877.1916884622869475
 20
215.1812235366093944
 30
0.0
 11
3877.1888796150287817
 21
215.1784324562833035
 31
0.0
  0
LINE
  5
B3F2
  8
0
 10
3877.1888796150287817
 20
215.1784324562833035
 30
0.0
 11
3877.1634216504289725
 21
215.1784324562833035
 31
0.0
  0
LINE
  5
B3F3
  8
0
 10
3877.1634216504289725
 20
215.1784324562833035
 30
0.0
 11
3877.1580565506919811
 21
215.1836401014350031
 31
0.0
  0
LINE
  5
B3F4
  8
0
 10
3877.1634216504289725
 20
215.1784324562833035
 30
0.0
 11
3877.1634216504289725
 21
215.1647261720833058
 31
0.0
  0
LINE
  5
B3F5
  8
0
 10
3877.1888796150287817
 20
215.1784324562833035
 30
0.0
 11
3877.1888796150287817
 21
215.1647261720833058
 31
0.0
  0
ARC
  5
B3F6
  8
0
 10
3877.1421473213358695
 20
215.1844037242182992
 30
0.0
 40
0.0119790744486375
 50
273.7787108187263811
 51
320.136782005274199
  0
LINE
  5
B3F7
  8
0
 10
3877.178083654710008
 20
215.1879235859964012
 30
0.0
 11
3877.1622127366917994
 21
215.1879293960060977
 31
0.0
  0
ARC
  5
B3F8
  8
0
 10
3877.1622160018841896
 20
215.1968487605184066
 30
0.0
 40
0.0089193651099378
 50
225.3976668055248922
 51
269.9790252196966094
  0
LINE
  5
B3F9
  8
0
 10
3877.1559529838291382
 20
215.1904981952833111
 30
0.0
 11
3877.1454800285418969
 21
215.2008691982397011
 31
0.0
  0
LINE
  5
B3FA
  8
0
 10
3877.1542412245930791
 20
215.0065713102524967
 30
0.0
 11
3877.142168796029182
 21
214.9945777927447921
 31
0.0
  0
LINE
  5
B3FB
  8
0
 10
3877.1473313210121887
 20
215.0134139471682033
 30
0.0
 11
3877.142168796029182
 21
215.0082840769447046
 31
0.0
  0
LINE
  5
B3FC
  8
0
 10
3877.142168796029182
 20
215.0082840769447046
 30
0.0
 11
3877.142168796029182
 21
214.9945777927447921
 31
0.0
  0
LINE
  5
B3FD
  8
0
 10
3877.1546898745500584
 20
215.0379540244223904
 30
0.0
 11
3877.142168796029182
 21
215.025514789544701
 31
0.0
  0
LINE
  5
B3FE
  8
0
 10
3877.1477799232247889
 20
215.0447967086172127
 30
0.0
 11
3877.142168796029182
 21
215.0392210737446987
 31
0.0
  0
LINE
  5
B3FF
  8
0
 10
3877.142168796029182
 20
215.0392210737446987
 30
0.0
 11
3877.142168796029182
 21
215.025514789544701
 31
0.0
  0
LINE
  5
B400
  8
0
 10
3877.1542459910879188
 20
215.0684500390925109
 30
0.0
 11
3877.142168796029182
 21
215.0564517862447076
 31
0.0
  0
LINE
  5
B401
  8
0
 10
3877.147344956318193
 20
215.0753014897267121
 30
0.0
 11
3877.142168796029182
 21
215.0701580704447053
 31
0.0
  0
LINE
  5
B402
  8
0
 10
3877.142168796029182
 20
215.0701580704447053
 30
0.0
 11
3877.142168796029182
 21
215.0564517862447076
 31
0.0
  0
LINE
  5
B403
  8
0
 10
3877.1542459910879188
 20
215.0993870358925051
 30
0.0
 11
3877.142168796029182
 21
215.0873887830447018
 31
0.0
  0
LINE
  5
B404
  8
0
 10
3877.147344956318193
 20
215.1062384865267063
 30
0.0
 11
3877.142168796029182
 21
215.1010950672446995
 31
0.0
  0
LINE
  5
B405
  8
0
 10
3877.142168796029182
 20
215.1010950672446995
 30
0.0
 11
3877.142168796029182
 21
215.0873887830447018
 31
0.0
  0
LINE
  5
B406
  8
0
 10
3877.1542459910879188
 20
215.1303240325925117
 30
0.0
 11
3877.142168796029182
 21
215.1183257797447084
 31
0.0
  0
LINE
  5
B407
  8
0
 10
3877.147344956318193
 20
215.1371754832267129
 30
0.0
 11
3877.142168796029182
 21
215.1320320639447914
 31
0.0
  0
LINE
  5
B408
  8
0
 10
3877.142168796029182
 20
215.1320320639447914
 30
0.0
 11
3877.142168796029182
 21
215.1183257797447084
 31
0.0
  0
LINE
  5
B409
  8
0
 10
3877.1542459910879188
 20
215.1921980261925
 30
0.0
 11
3877.142168796029182
 21
215.1801997733446967
 31
0.0
  0
LINE
  5
B40A
  8
0
 10
3877.147344956318193
 20
215.1990494768267013
 30
0.0
 11
3877.142168796029182
 21
215.1939060575446945
 31
0.0
  0
LINE
  5
B40B
  8
0
 10
3877.142168796029182
 20
215.1939060575446945
 30
0.0
 11
3877.142168796029182
 21
215.1801997733446967
 31
0.0
  0
ARC
  5
B40C
  8
0
 10
3877.1956909030418501
 20
215.0029320845675898
 30
0.0
 40
0.005695592579206
 50
260.024097047586281
 51
3.4716856605461319
  0
LINE
  5
B40D
  8
0
 10
3877.2013760433278549
 20
215.0032769827446941
 30
0.0
 11
3877.2013760433278549
 21
215.0098719530213884
 31
0.0
  0
ARC
  5
B40E
  8
0
 10
3877.2248410429010619
 20
215.0256288722482054
 30
0.0
 40
0.0084608911808288
 50
291.7590487894030957
 51
359.2274270686518207
  0
LINE
  5
B40F
  8
0
 10
3877.2279775301290101
 20
215.017770810944711
 30
0.0
 11
3877.208922306536806
 21
215.0177651871242119
 31
0.0
  0
LINE
  5
B410
  8
0
 10
3877.2333011649288892
 20
215.025514789544701
 30
0.0
 11
3877.210131129696947
 21
215.0253913364553
 31
0.0
  0
LINE
  5
B411
  8
0
 10
3877.210131129696947
 20
215.0253913364553
 30
0.0
 11
3877.1971438751461392
 21
215.0374629505712107
 31
0.0
  0
LINE
  5
B412
  8
0
 10
3877.2393994886670043
 20
215.0448253431169974
 30
0.0
 11
3877.2333011649288892
 21
215.0392210737446987
 31
0.0
  0
LINE
  5
B413
  8
0
 10
3877.2333011649288892
 20
215.0392210737446987
 30
0.0
 11
3877.210131129696947
 21
215.0383259709832942
 31
0.0
  0
LINE
  5
B414
  8
0
 10
3877.210131129696947
 20
215.0383259709832942
 30
0.0
 11
3877.204137947216168
 21
215.0441432659490033
 31
0.0
  0
LINE
  5
B415
  8
0
 10
3877.210131129696947
 20
215.0383259709832942
 30
0.0
 11
3877.210131129696947
 21
215.0253913364553
 31
0.0
  0
LINE
  5
B416
  8
0
 10
3877.2333011649288892
 20
215.0392210737446987
 30
0.0
 11
3877.2333011649288892
 21
215.025514789544701
 31
0.0
  0
ARC
  5
B417
  8
0
 10
3877.2442344969149417
 20
215.0445978978698065
 30
0.0
 40
0.00809391887453
 50
291.5701188795702024
 51
6.5496980497675761
  0
LINE
  5
B418
  8
0
 10
3877.2472101420289619
 20
215.0370708095277905
 30
0.0
 11
3877.2354935843609383
 21
215.048703183386408
 31
0.0
  0
LINE
  5
B419
  8
0
 10
3877.2560296243750599
 20
215.0641712032833084
 30
0.0
 11
3877.2430576492970431
 21
215.0512814396832937
 31
0.0
  0
ARC
  5
B41A
  8
0
 10
3877.2368039355728797
 20
215.0575750398687092
 30
0.0
 40
0.0088723355798629
 50
269.9790252196966094
 51
314.8178639522034814
  0
LINE
  5
B41B
  8
0
 10
3877.2368006875972242
 20
215.0487027048833113
 30
0.0
 11
3877.2089222159597739
 21
215.0487129106060991
 31
0.0
  0
LINE
  5
B41C
  8
0
 10
3877.2476662893568573
 20
215.0684449362310033
 30
0.0
 11
3877.235589094297211
 21
215.0564466833833137
 31
0.0
  0
LINE
  5
B41D
  8
0
 10
3877.235589094297211
 20
215.0564466833833137
 30
0.0
 11
3877.210131129696947
 21
215.0564466833833137
 31
0.0
  0
LINE
  5
B41E
  8
0
 10
3877.210131129696947
 20
215.0564466833833137
 30
0.0
 11
3877.1980516600360716
 21
215.0684461638414007
 31
0.0
  0
LINE
  5
B41F
  8
0
 10
3877.2407652545871315
 20
215.0752963868652898
 30
0.0
 11
3877.235589094297211
 21
215.0701529675833967
 31
0.0
  0
LINE
  5
B420
  8
0
 10
3877.235589094297211
 20
215.0701529675833967
 30
0.0
 11
3877.210131129696947
 21
215.0701529675833967
 31
0.0
  0
LINE
  5
B421
  8
0
 10
3877.210131129696947
 20
215.0701529675833967
 30
0.0
 11
3877.2050615777038729
 21
215.0750737387062088
 31
0.0
  0
LINE
  5
B422
  8
0
 10
3877.210131129696947
 20
215.0701529675833967
 30
0.0
 11
3877.210131129696947
 21
215.0564466833833137
 31
0.0
  0
LINE
  5
B423
  8
0
 10
3877.235589094297211
 20
215.0701529675833967
 30
0.0
 11
3877.235589094297211
 21
215.0564466833833137
 31
0.0
  0
ARC
  5
B424
  8
0
 10
3877.2556594314210088
 20
215.0730951676206928
 30
0.0
 40
0.0089316393970375
 50
225.2667652773766065
 51
272.3754397712373247
  0
LINE
  5
B425
  8
0
 10
3877.2493732820971672
 20
215.0667502082833096
 30
0.0
 11
3877.2372743090149925
 21
215.078762249891696
 31
0.0
  0
LINE
  5
B426
  8
0
 10
3877.2552142843160254
 20
215.0942214777170989
 30
0.0
 11
3877.2430563095158504
 21
215.0813284366832931
 31
0.0
  0
ARC
  5
B427
  8
0
 10
3877.2368025957907776
 20
215.0876220368687086
 30
0.0
 40
0.0088723355798629
 50
269.9790252196966094
 51
314.8178639522034814
  0
LINE
  5
B428
  8
0
 10
3877.236799347815122
 20
215.0787497018833108
 30
0.0
 11
3877.2089208761781265
 21
215.0787599076060985
 31
0.0
  0
LINE
  5
B429
  8
0
 10
3877.2476649495752099
 20
215.0984919332310028
 30
0.0
 11
3877.2355877545160183
 21
215.0864936803833132
 31
0.0
  0
LINE
  5
B42A
  8
0
 10
3877.2355877545160183
 20
215.0864936803833132
 30
0.0
 11
3877.2101297899148449
 21
215.0864936803833132
 31
0.0
  0
LINE
  5
B42B
  8
0
 10
3877.2101297899148449
 20
215.0864936803833132
 30
0.0
 11
3877.19762971074897
 21
215.0989109851070111
 31
0.0
  0
LINE
  5
B42C
  8
0
 10
3877.2407639148050293
 20
215.1053433838652893
 30
0.0
 11
3877.2355877545160183
 21
215.1001999645833962
 31
0.0
  0
LINE
  5
B42D
  8
0
 10
3877.2355877545160183
 20
215.1001999645833962
 30
0.0
 11
3877.2101297899148449
 21
215.1001999645833962
 31
0.0
  0
LINE
  5
B42E
  8
0
 10
3877.2101297899148449
 20
215.1001999645833962
 30
0.0
 11
3877.2045994194731975
 21
215.1055680300873121
 31
0.0
  0
LINE
  5
B42F
  8
0
 10
3877.2101297899148449
 20
215.1001999645833962
 30
0.0
 11
3877.2101297899148449
 21
215.0864936803833132
 31
0.0
  0
LINE
  5
B430
  8
0
 10
3877.2355877545160183
 20
215.1001999645833962
 30
0.0
 11
3877.2355877545160183
 21
215.0864936803833132
 31
0.0
  0
ARC
  5
B431
  8
0
 10
3877.2556571994100523
 20
215.1031398618009121
 30
0.0
 40
0.0089293755911456
 50
225.2604327305035099
 51
267.1568467428542135
  0
LINE
  5
B432
  8
0
 10
3877.2493719423159746
 20
215.096797205283309
 30
0.0
 11
3877.2363890156029811
 21
215.1096868492878116
 31
0.0
  0
LINE
  5
B433
  8
0
 10
3877.2560296243750599
 20
215.1251551969833997
 30
0.0
 11
3877.2430576492970431
 21
215.1122654333832998
 31
0.0
  0
ARC
  5
B434
  8
0
 10
3877.2368039355728797
 20
215.1185590335686868
 30
0.0
 40
0.0088723355798629
 50
269.9790252196966094
 51
314.8178639522034814
  0
LINE
  5
B435
  8
0
 10
3877.2368006875972242
 20
215.1096866985832889
 30
0.0
 11
3877.2089222159597739
 21
215.1096969043061051
 31
0.0
  0
LINE
  5
B436
  8
0
 10
3877.2476662893568573
 20
215.1294289299310947
 30
0.0
 11
3877.235589094297211
 21
215.1174306770832914
 31
0.0
  0
LINE
  5
B437
  8
0
 10
3877.235589094297211
 20
215.1174306770832914
 30
0.0
 11
3877.210131129696947
 21
215.1174306770832914
 31
0.0
  0
LINE
  5
B438
  8
0
 10
3877.210131129696947
 20
215.1174306770832914
 30
0.0
 11
3877.1976303937340163
 21
215.1298486342537046
 31
0.0
  0
LINE
  5
B439
  8
0
 10
3877.2407652545871315
 20
215.1362803805652959
 30
0.0
 11
3877.235589094297211
 21
215.1311369612832891
 31
0.0
  0
LINE
  5
B43A
  8
0
 10
3877.235589094297211
 20
215.1311369612832891
 30
0.0
 11
3877.210131129696947
 21
215.1311369612832891
 31
0.0
  0
LINE
  5
B43B
  8
0
 10
3877.210131129696947
 20
215.1311369612832891
 30
0.0
 11
3877.2046000947070752
 21
215.1365056718310029
 31
0.0
  0
LINE
  5
B43C
  8
0
 10
3877.210131129696947
 20
215.1311369612832891
 30
0.0
 11
3877.210131129696947
 21
215.1174306770832914
 31
0.0
  0
LINE
  5
B43D
  8
0
 10
3877.235589094297211
 20
215.1311369612832891
 30
0.0
 11
3877.235589094297211
 21
215.1174306770832914
 31
0.0
  0
ARC
  5
B43E
  8
0
 10
3877.2556594314210088
 20
215.1340791613206989
 30
0.0
 40
0.0089316393970366
 50
225.2667652773766065
 51
272.3754397712373247
  0
LINE
  5
B43F
  8
0
 10
3877.2493732820971672
 20
215.1277342019834009
 30
0.0
 11
3877.2363903557788944
 21
215.1406238455971902
 31
0.0
  0
LINE
  5
B440
  8
0
 10
3877.2449226130979696
 20
215.1450555745479107
 30
0.0
 11
3877.2430576492970431
 21
215.1432024301832939
 31
0.0
  0
ARC
  5
B441
  8
0
 10
3877.2368039355728797
 20
215.1494960303687094
 30
0.0
 40
0.0088723355798629
 50
269.9790252196966094
 51
314.8178639522034814
  0
LINE
  5
B442
  8
0
 10
3877.2368006875972242
 20
215.1406236953833968
 30
0.0
 11
3877.2089222159597739
 21
215.140633901106213
 31
0.0
  0
LINE
  5
B443
  8
0
 10
3877.2387491471799876
 20
215.1515070711785995
 30
0.0
 11
3877.235589094297211
 21
215.1483676738833992
 31
0.0
  0
LINE
  5
B444
  8
0
 10
3877.235589094297211
 20
215.1483676738833992
 30
0.0
 11
3877.210131129696947
 21
215.1483676738833992
 31
0.0
  0
LINE
  5
B445
  8
0
 10
3877.210131129696947
 20
215.1483676738833992
 30
0.0
 11
3877.1976055352652111
 21
215.1608103249130863
 31
0.0
  0
LINE
  5
B446
  8
0
 10
3877.2260095393221491
 20
215.1620739580833117
 30
0.0
 11
3877.210131129696947
 21
215.1620739580833117
 31
0.0
  0
LINE
  5
B447
  8
0
 10
3877.210131129696947
 20
215.1620739580833117
 30
0.0
 11
3877.2044382637700437
 21
215.1675997501654933
 31
0.0
  0
LINE
  5
B448
  8
0
 10
3877.210131129696947
 20
215.1620739580833117
 30
0.0
 11
3877.210131129696947
 21
215.1483676738833992
 31
0.0
  0
LINE
  5
B449
  8
0
 10
3877.235589094297211
 20
215.1544374779913937
 30
0.0
 11
3877.235589094297211
 21
215.1483676738833992
 31
0.0
  0
LINE
  5
B44A
  8
0
 10
3877.2560296243750599
 20
215.0641712032833084
 30
0.0
 11
3877.2653180776278532
 21
215.0641763061447023
 31
0.0
  0
ARC
  5
B44B
  8
0
 10
3877.2524790939310151
 20
215.0712025427665992
 30
0.0
 40
0.0146358294418854
 50
331.3099636809536719
 51
2.8109156111465028
  0
LINE
  5
B44C
  8
0
 10
3877.2670973137278452
 20
215.0719202846447047
 30
0.0
 11
3877.2670973137278452
 21
215.0856265688447024
 31
0.0
  0
LINE
  5
B44D
  8
0
 10
3877.2670973137278452
 20
215.0856265688447024
 30
0.0
 11
3877.2701601124649642
 21
215.0951480106161
 31
0.0
  0
LINE
  5
B44E
  8
0
 10
3877.2701601124649642
 20
215.0951480106161
 30
0.0
 11
3877.2552142843160254
 21
215.0942214777170989
 31
0.0
  0
LINE
  5
B44F
  8
0
 10
3877.25211276850996
 20
215.1212631646716886
 30
0.0
 11
3877.2568432884281719
 21
215.1165635656446966
 31
0.0
  0
LINE
  5
B450
  8
0
 10
3877.2568432884281719
 20
215.1165635656446966
 30
0.0
 11
3877.2631818854251833
 21
215.1165635656446966
 31
0.0
  0
LINE
  5
B451
  8
0
 10
3877.2522755891291126
 20
215.045521130644687
 30
0.0
 11
3877.2523463076990993
 21
215.0605112300767132
 31
0.0
  0
LINE
  5
B452
  8
0
 10
3877.0360181756791462
 20
215.0082840769447046
 30
0.0
 11
3877.048747158029073
 21
215.0082840769447046
 31
0.0
  0
LINE
  5
B453
  8
0
 10
3877.048747158029073
 20
215.0082840769447046
 30
0.0
 11
3877.0539278759629269
 21
215.0134309313833114
 31
0.0
  0
LINE
  5
B454
  8
0
 10
3877.0360181756791462
 20
214.9945777927447921
 30
0.0
 11
3877.048747158029073
 21
214.9945777927447921
 31
0.0
  0
LINE
  5
B455
  8
0
 10
3877.048747158029073
 20
214.9945777927447921
 30
0.0
 11
3877.048747158029073
 21
215.0082840769447046
 31
0.0
  0
LINE
  5
B456
  8
0
 10
3877.048747158029073
 20
214.9945777927447921
 30
0.0
 11
3877.0608224328020697
 21
215.0065741379573012
 31
0.0
  0
LINE
  5
B457
  8
0
 10
3877.0360181756791462
 20
215.0392210737446987
 30
0.0
 11
3877.048747158029073
 21
215.0392210737446987
 31
0.0
  0
LINE
  5
B458
  8
0
 10
3877.048747158029073
 20
215.0392210737446987
 30
0.0
 11
3877.0543727738440793
 21
215.044809918012902
 31
0.0
  0
LINE
  5
B459
  8
0
 10
3877.0360181756791462
 20
215.025514789544701
 30
0.0
 11
3877.048747158029073
 21
215.025514789544701
 31
0.0
  0
LINE
  5
B45A
  8
0
 10
3877.048747158029073
 20
215.025514789544701
 30
0.0
 11
3877.048747158029073
 21
215.0392210737446987
 31
0.0
  0
LINE
  5
B45B
  8
0
 10
3877.048747158029073
 20
215.025514789544701
 30
0.0
 11
3877.0612703157430587
 21
215.0379560901291995
 31
0.0
  0
LINE
  5
B45C
  8
0
 10
3877.0360181756791462
 20
215.0701580704447053
 30
0.0
 11
3877.048747158029073
 21
215.0701580704447053
 31
0.0
  0
LINE
  5
B45D
  8
0
 10
3877.048747158029073
 20
215.0701580704447053
 30
0.0
 11
3877.0539278759629269
 21
215.0753049248833122
 31
0.0
  0
LINE
  5
B45E
  8
0
 10
3877.0360181756791462
 20
215.0564517862447076
 30
0.0
 11
3877.048747158029073
 21
215.0564517862447076
 31
0.0
  0
LINE
  5
B45F
  8
0
 10
3877.048747158029073
 20
215.0564517862447076
 30
0.0
 11
3877.048747158029073
 21
215.0701580704447053
 31
0.0
  0
LINE
  5
B460
  8
0
 10
3877.048747158029073
 20
215.0564517862447076
 30
0.0
 11
3877.0608224328020697
 21
215.0684481314573873
 31
0.0
  0
LINE
  5
B461
  8
0
 10
3877.0360181756791462
 20
215.1320320640448074
 30
0.0
 11
3877.048747158029073
 21
215.1320320640448074
 31
0.0
  0
LINE
  5
B462
  8
0
 10
3877.048747158029073
 20
215.1320320640448074
 30
0.0
 11
3877.0539278759629269
 21
215.1371789184833005
 31
0.0
  0
LINE
  5
B463
  8
0
 10
3877.0360181756791462
 20
215.1183257798446959
 30
0.0
 11
3877.048747158029073
 21
215.1183257798446959
 31
0.0
  0
LINE
  5
B464
  8
0
 10
3877.048747158029073
 20
215.1183257798446959
 30
0.0
 11
3877.048747158029073
 21
215.1320320640448074
 31
0.0
  0
LINE
  5
B465
  8
0
 10
3877.048747158029073
 20
215.1183257798446959
 30
0.0
 11
3877.0608224328020697
 21
215.1303221250572904
 31
0.0
  0
LINE
  5
B466
  8
0
 10
3877.0360181756791462
 20
215.1629690607447003
 30
0.0
 11
3877.048747158029073
 21
215.1629690607447003
 31
0.0
  0
LINE
  5
B467
  8
0
 10
3877.048747158029073
 20
215.1629690607447003
 30
0.0
 11
3877.0539278759629269
 21
215.1681159151833072
 31
0.0
  0
LINE
  5
B468
  8
0
 10
3877.0360181756791462
 20
215.1492627765447025
 30
0.0
 11
3877.048747158029073
 21
215.1492627765447025
 31
0.0
  0
LINE
  5
B469
  8
0
 10
3877.048747158029073
 20
215.1492627765447025
 30
0.0
 11
3877.048747158029073
 21
215.1629690607447003
 31
0.0
  0
LINE
  5
B46A
  8
0
 10
3877.048747158029073
 20
215.1492627765447025
 30
0.0
 11
3877.0608224328020697
 21
215.1612591217574106
 31
0.0
  0
LINE
  5
B46B
  8
0
 10
3877.0360181756791462
 20
215.1939060575446945
 30
0.0
 11
3877.048747158029073
 21
215.1939060575446945
 31
0.0
  0
LINE
  5
B46C
  8
0
 10
3877.048747158029073
 20
215.1939060575446945
 30
0.0
 11
3877.0539278759629269
 21
215.1990529119833013
 31
0.0
  0
LINE
  5
B46D
  8
0
 10
3877.0360181756791462
 20
215.1801997733446967
 30
0.0
 11
3877.048747158029073
 21
215.1801997733446967
 31
0.0
  0
LINE
  5
B46E
  8
0
 10
3877.048747158029073
 20
215.1801997733446967
 30
0.0
 11
3877.048747158029073
 21
215.1939060575446945
 31
0.0
  0
LINE
  5
B46F
  8
0
 10
3877.048747158029073
 20
215.1801997733446967
 30
0.0
 11
3877.0608224328020697
 21
215.1921961185572911
 31
0.0
  0
ARC
  5
B470
  8
0
 10
3877.0360181756791462
 20
214.8218454244693021
 30
0.0
 40
0.395757495312818
 50
80.8750494987196049
 51
99.1249505013331458
  0
CIRCLE
  5
B485
  8
0
 10
3876.7753162028561746
 20
218.5937181597165022
 30
0.0
 40
0.0489055340225022
  0
CIRCLE
  5
B486
  8
0
 10
3877.2967201484980251
 20
218.5937181597165022
 30
0.0
 40
0.0489055340225022
  0
ENDSEC
  0
EOF
