  0
SECTION
  2
HEADER
  9
$ACADVER
  1
AC1009
  9
$INSBASE
 10
2635.6339548195769567
 20
175.9116230692600027
 30
0.0
  9
$EXTMIN
 10
2627.7839566416128037
 20
146.835342078445791
 30
0.0
  9
$EXTMAX
 10
2643.2274578975261647
 20
175.9163035502425885
 30
0.0
  9
$LIMMIN
 10
0.0
 20
0.0
  9
$LIMMAX
 10
11.6929133858000007
 20
8.2677165353999982
  9
$ORTHOMODE
 70
     0
  9
$REGENMODE
 70
     1
  9
$FILLMODE
 70
     1
  9
$QTEXTMODE
 70
     0
  9
$MIRRTEXT
 70
     0
  9
$DRAGMODE
 70
     2
  9
$LTSCALE
 40
0.6431102362
  9
$OSMODE
 70
  2047
  9
$ATTMODE
 70
     1
  9
$TEXTSIZE
 40
0.2
  9
$TRACEWID
 40
0.05
  9
$TEXTSTYLE
  7
STANDARD
  9
$CLAYER
  8
0
  9
$CELTYPE
  6
BYLAYER
  9
$CECOLOR
 62
   256
  9
$DIMSCALE
 40
1.0
  9
$DIMASZ
 40
0.1875
  9
$DIMEXO
 40
0.0625
  9
$DIMDLI
 40
0.4443307087
  9
$DIMRND
 40
0.0
  9
$DIMDLE
 40
0.0
  9
$DIMEXE
 40
0.125
  9
$DIMTP
 40
0.01
  9
$DIMTM
 40
0.01
  9
$DIMTXT
 40
2.0
  9
$DIMCEN
 40
0.1052362205
  9
$DIMTSZ
 40
0.0
  9
$DIMTOL
 70
     1
  9
$DIMLIM
 70
     0
  9
$DIMTIH
 70
     1
  9
$DIMTOH
 70
     1
  9
$DIMSE1
 70
     0
  9
$DIMSE2
 70
     0
  9
$DIMTAD
 70
     0
  9
$DIMZIN
 70
     0
  9
$DIMBLK
  1

  9
$DIMASO
 70
     1
  9
$DIMSHO
 70
     1
  9
$DIMPOST
  1
\X
  9
$DIMAPOST
  1

  9
$DIMALT
 70
     1
  9
$DIMALTD
 70
     2
  9
$DIMALTF
 40
25.3999999999999986
  9
$DIMLFAC
 40
1.0
  9
$DIMTOFL
 70
     0
  9
$DIMTVP
 40
0.0
  9
$DIMTIX
 70
     0
  9
$DIMSOXD
 70
     0
  9
$DIMSAH
 70
     0
  9
$DIMBLK1
  1

  9
$DIMBLK2
  1

  9
$DIMSTYLE
  2
STANDARD
  9
$DIMCLRD
 70
     0
  9
$DIMCLRE
 70
     0
  9
$DIMCLRT
 70
     0
  9
$DIMTFAC
 40
1.0
  9
$DIMGAP
 40
0.09
  9
$LUNITS
 70
     2
  9
$LUPREC
 70
     4
  9
$SKETCHINC
 40
0.1
  9
$FILLETRAD
 40
0.0
  9
$AUNITS
 70
     0
  9
$AUPREC
 70
     0
  9
$MENU
  1
.
  9
$ELEVATION
 40
0.0
  9
$PELEVATION
 40
0.0
  9
$THICKNESS
 40
0.0
  9
$LIMCHECK
 70
     0
  9
$BLIPMODE
 70
     0
  9
$CHAMFERA
 40
0.0
  9
$CHAMFERB
 40
0.0
  9
$SKPOLY
 70
     0
  9
$TDCREATE
 40
2458060.468368056230247
  9
$TDUPDATE
 40
2459029.640625
  9
$TDINDWG
 40
0.281546412
  9
$TDUSRTIMER
 40
0.281546412
  9
$USRTIMER
 70
     1
  9
$ANGBASE
 50
0.0
  9
$ANGDIR
 70
     0
  9
$PDMODE
 70
     0
  9
$PDSIZE
 40
0.3125
  9
$PLINEWID
 40
0.0
  9
$COORDS
 70
     1
  9
$SPLFRAME
 70
     0
  9
$SPLINETYPE
 70
     6
  9
$SPLINESEGS
 70
     8
  9
$ATTDIA
 70
     1
  9
$ATTREQ
 70
     1
  9
$HANDLING
 70
     1
  9
$HANDSEED
  5
64D1
  9
$SURFTAB1
 70
     6
  9
$SURFTAB2
 70
     6
  9
$SURFTYPE
 70
     6
  9
$SURFU
 70
     6
  9
$SURFV
 70
     6
  9
$UCSNAME
  2

  9
$UCSORG
 10
0.0
 20
0.0
 30
0.0
  9
$UCSXDIR
 10
1.0
 20
0.0
 30
0.0
  9
$UCSYDIR
 10
0.0
 20
1.0
 30
0.0
  9
$PUCSNAME
  2

  9
$PUCSORG
 10
0.0
 20
0.0
 30
0.0
  9
$PUCSXDIR
 10
1.0
 20
0.0
 30
0.0
  9
$PUCSYDIR
 10
0.0
 20
1.0
 30
0.0
  9
$USERI1
 70
     0
  9
$USERI2
 70
     0
  9
$USERI3
 70
     0
  9
$USERI4
 70
     0
  9
$USERI5
 70
     0
  9
$USERR1
 40
0.0
  9
$USERR2
 40
0.0
  9
$USERR3
 40
0.0
  9
$USERR4
 40
0.0
  9
$USERR5
 40
0.0
  9
$WORLDVIEW
 70
     1
  9
$SHADEDGE
 70
     3
  9
$SHADEDIF
 70
    70
  9
$TILEMODE
 70
     1
  9
$MAXACTVP
 70
    64
  9
$PLIMCHECK
 70
     0
  9
$PEXTMIN
 10
1.0000000000000000E+20
 20
1.0000000000000000E+20
 30
1.0000000000000000E+20
  9
$PEXTMAX
 10
-1.0000000000000000E+20
 20
-1.0000000000000000E+20
 30
-1.0000000000000000E+20
  9
$PLIMMIN
 10
0.0
 20
0.0
  9
$PLIMMAX
 10
12.0
 20
9.0
  9
$UNITMODE
 70
     0
  9
$VISRETAIN
 70
     1
  9
$PLINEGEN
 70
     0
  9
$PSLTSCALE
 70
     1
  0
ENDSEC
  0
SECTION
  2
TABLES
  0
TABLE
  2
VPORT
 70
     1
  0
VPORT
  2
*ACTIVE
 70
     0
 10
0.0
 20
0.0
 11
1.0
 21
1.0
 12
-0.0000000000000071
 22
0.2064136988217768
 13
0.0
 23
0.0
 14
1.0
 24
1.0
 15
0.0
 25
0.0
 16
0.0
 26
0.0
 36
113.3970955364238051
 17
2635.5057373046879547
 27
161.3758229787345044
 37
0.0
 40
33.3498975985914115
 41
2.6486111111111108
 42
50.0
 43
0.0
 44
0.0
 50
0.0
 51
0.0
 71
     0
 72
   100
 73
     1
 74
     1
 75
     0
 76
     0
 77
     0
 78
     0
  0
ENDTAB
  0
TABLE
  2
LTYPE
 70
     2
  0
LTYPE
  2
CONTINUOUS
 70
     0
  3
Solid line
 72
    65
 73
     0
 40
0.0
  0
LTYPE
  2
PHANTOM2
 70
     0
  3
___ _ _ ___ _ _ ___ _ _ ___ _ _
 72
    65
 73
     6
 40
1.25
 49
0.625
 49
-0.125
 49
0.125
 49
-0.125
 49
0.125
 49
-0.125
  0
ENDTAB
  0
TABLE
  2
LAYER
 70
     2
  0
LAYER
  2
0
 70
     0
 62
   255
  6
CONTINUOUS
  0
LAYER
  2
DEFPOINTS
 70
     0
 62
     7
  6
CONTINUOUS
  0
ENDTAB
  0
TABLE
  2
STYLE
 70
     1
  0
STYLE
  2
STANDARD
 70
     0
 40
0.0
 41
0.8
 50
0.0
 71
     0
 42
0.2
  3
txt
  4

  0
ENDTAB
  0
TABLE
  2
VIEW
 70
     0
  0
ENDTAB
  0
TABLE
  2
UCS
 70
     0
  0
ENDTAB
  0
TABLE
  2
APPID
 70
     9
  0
APPID
  2
ACAD
 70
     0
  0
APPID
  2
ACAD_MLEADERVER
 70
     0
  0
APPID
  2
ACAD_EXEMPT_FROM_CAD_STANDARDS
 70
     0
  0
APPID
  2
ACAD_NAV_VCDISPLAY
 70
     0
  0
APPID
  2
ACAECLAYERSTANDARD
 70
     0
  0
APPID
  2
ACCMTRANSPARENCY
 70
     0
  0
APPID
  2
ACAD_DSTYLE_DIMJAG
 70
     0
  0
APPID
  2
ACAD_DSTYLE_DIMTALN
 70
     0
  0
APPID
  2
ACDBATTR
 70
     0
  0
ENDTAB
  0
TABLE
  2
DIMSTYLE
 70
     1
  0
DIMSTYLE
  2
STANDARD
 70
     0
  3

  4

  5

  6

  7

 40
1.0
 41
0.1875
 42
0.0625
 43
0.38
 44
0.125
 45
0.0
 46
0.0
 47
0.01
 48
0.01
140
0.15625
141
0.09
142
0.0
143
25.3999999999999986
144
1.0
145
0.0
146
1.0
147
0.09
 71
     1
 72
     0
 73
     1
 74
     1
 75
     0
 76
     0
 77
     0
 78
     4
170
     0
171
     2
172
     0
173
     0
174
     0
175
     0
176
     0
177
     0
178
     0
  0
ENDTAB
  0
ENDSEC
  0
SECTION
  2
BLOCKS
  0
BLOCK
  8
0
  2
$MODEL_SPACE
 70
     0
 10
0.0
 20
0.0
 30
0.0
  3
$MODEL_SPACE
  1

  0
ENDBLK
  5
21
  8
0
  0
BLOCK
 67
     1
  8
0
  2
$PAPER_SPACE
 70
     0
 10
0.0
 20
0.0
 30
0.0
  3
$PAPER_SPACE
  1

  0
ENDBLK
  5
1D
 67
     1
  8
0
  0
BLOCK
  8
0
  2
_FILLED
 70
     0
 10
0.0
 20
0.0
 30
0.0
  3
_FILLED
  1

  0
SOLID
  5
5582
  8
0
  6
BYBLOCK
 62
     0
 10
0.0
 20
0.0
 30
0.0
 11
-1.0
 21
0.1666666667
 31
0.0
 12
-1.0
 22
-0.1666666667
 32
0.0
 13
-1.0
 23
-0.1666666667
 33
0.0
  0
ENDBLK
  5
5583
  8
0
  6
BYBLOCK
 62
     0
  0
ENDSEC
  0
SECTION
  2
ENTITIES
  0
ATTDEF
  5
3930
  8
DEFPOINTS
 10
2635.6234497700388602
 20
175.9153035502424984
 30
0.0
 40
0.001
  1
K-1381T-S
  3

  2
MODELNUMBER
 70
     0
1001
ACDBATTR
1070
     0
1070
     1
  0
ATTDEF
  5
3931
  8
DEFPOINTS
 10
2635.6234497700388602
 20
175.9136368835758049
 30
0.0
 40
0.001
  1
VEIL
  3

  2
TRADENAME
 70
     0
1001
ACDBATTR
1070
     0
1070
     1
  0
ATTDEF
  5
3932
  8
DEFPOINTS
 10
2635.6234497700388602
 20
175.9119702169091966
 30
0.0
 40
0.001
  1
TOILET
  3

  2
PRODUCT
 70
     0
1001
ACDBATTR
1070
     0
1070
     1
  0
ARC
  5
6325
  8
0
 10
2635.7793888351388887
 20
152.530918330629504
 30
0.0
 40
5.6974327461868057
 50
245.7411248236425934
 51
268.5372955069917111
  0
ARC
  5
6326
  8
0
 10
2636.62271499988492
 20
153.2565894267262934
 30
0.0
 40
6.7220159928613521
 50
215.2300150236314096
 51
241.7256959612896878
  0
ARC
  5
6327
  8
0
 10
2643.4104848180900262
 20
158.1583608901289892
 30
0.0
 40
15.0944531485567293
 50
201.8511253699317081
 51
215.5654981449661136
  0
ARC
  5
6328
  8
0
 10
2642.7803135733352065
 20
157.7905714144366129
 30
0.0
 40
14.3730642273695395
 50
185.9033140635110897
 51
201.4253097420148038
  0
ARC
  5
6329
  8
0
 10
2644.932883367103841
 20
157.4895724469716072
 30
0.0
 40
16.4914861954828282
 50
170.1230725449914019
 51
184.0936348663223043
  0
ARC
  5
632A
  8
0
 10
2644.5891941499057793
 20
157.983292432004788
 30
0.0
 40
16.0738865205670187
 50
150.0190014947361874
 51
171.6469031900342088
  0
ARC
  5
632B
  8
0
 10
2632.6419150887059004
 20
164.9668685272463904
 30
0.0
 40
2.23686878638338
 50
137.9670213938130985
 51
152.0404932751962122
  0
ARC
  5
632C
  8
0
 10
2631.0837110410329842
 20
166.3675897856610106
 30
0.0
 40
0.1416632496847804
 50
91.6581183765574679
 51
136.7902904337830989
  0
LINE
  5
632D
  8
0
 10
2631.0796119319270474
 20
166.509193717865486
 30
0.0
 11
2631.3003427693261074
 21
166.5091937324654907
 31
0.0
  0
ARC
  5
632E
  8
0
 10
2631.3036907553591845
 20
166.4540573396662921
 30
0.0
 40
0.0552379472952685
 50
49.051809385686127
 51
93.4748415174702956
  0
LINE
  5
632F
  8
0
 10
2631.3398923979270876
 20
166.4957786998654967
 30
0.0
 11
2631.3475006045141527
 21
166.2621768033764056
 31
0.0
  0
ARC
  5
6330
  8
0
 10
2631.3600168296688935
 20
166.2633838805676874
 30
0.0
 40
0.0125742963018106
 50
185.5086257352259054
 51
228.8686770218536992
  0
ARC
  5
6331
  8
0
 10
2631.3984864269468744
 20
166.3139934929060075
 30
0.0
 40
0.0761208521499312
 50
232.1182222396120949
 51
258.7307161970231277
  0
ARC
  5
6332
  8
0
 10
2631.4587853430080031
 20
166.5507689815875096
 30
0.0
 40
0.3203732772477692
 50
256.4292109777641144
 51
268.8991077700147798
  0
ARC
  5
6333
  8
0
 10
2632.2460565287660756
 20
189.6620365223535885
 30
0.0
 40
23.4450111053853405
 50
268.0606248076550173
 51
269.3543339776402945
  0
LINE
  5
6334
  8
0
 10
2631.9818603382968831
 20
166.2185140458873036
 30
0.0
 11
2639.2860493008561207
 21
166.2172353149437924
 31
0.0
  0
ARC
  5
6335
  8
0
 10
2685.7248070436471608
 20
163.8289554685385951
 30
0.0
 40
57.6843748753476788
 50
180.0471998782988976
 51
186.8279807246138944
  0
ARC
  5
6336
  8
0
 10
5054.4426958284639113
 20
156.0845484306418882
 30
0.0
 40
2426.4144518568541571
 50
179.669132213942305
 51
179.8182503890938051
  0
ARC
  5
6337
  8
0
 10
2635.6078134029608009
 20
190.5771231328571105
 30
0.0
 40
22.4182320517895306
 50
265.6865585554477889
 51
270.0668113872044955
  0
ARC
  5
6338
  8
0
 10
2635.3671019979660741
 20
187.3857775813586102
 30
0.0
 40
19.2178213891457084
 50
260.2310490401030734
 51
265.6865585554477889
  0
ARC
  5
6339
  8
0
 10
2635.1093730742418302
 20
185.8888502618013092
 30
0.0
 40
17.6988692509394703
 50
248.0473319093898112
 51
260.2310490401030734
  0
ARC
  5
633A
  8
0
 10
2628.5862750907717782
 20
169.7051372279734949
 30
0.0
 40
0.2499903510436964
 50
180.3059205630931956
 51
248.0473319093904081
  0
LINE
  5
633B
  8
0
 10
2628.3362883031259116
 20
169.7038024555654943
 30
0.0
 11
2628.3355718637858445
 21
169.8379829107248895
 31
0.0
  0
ARC
  5
633C
  8
0
 10
2628.4556537041371485
 20
169.8338928225539917
 30
0.0
 40
0.1201514760767604
 50
67.5551721155394915
 51
178.0492118703186861
  0
ARC
  5
633D
  8
0
 10
2635.3495236658181966
 20
186.6993927428488007
 30
0.0
 40
18.0999078227654309
 50
247.7688377699577984
 51
257.4205403578376945
  0
ARC
  5
633E
  8
0
 10
2635.273023915046906
 20
186.633117007343003
 30
0.0
 40
18.0186625651826198
 50
257.6120568554925967
 51
264.8180904196108258
  0
ARC
  5
633F
  8
0
 10
2635.6100671553917891
 20
190.510295740677293
 30
0.0
 40
21.9104410585090683
 50
264.8560440722063163
 51
270.0624662282176018
  0
ARC
  5
6340
  8
0
 10
2635.6172918082229444
 20
190.8519702490831094
 30
0.0
 40
22.1825343999315194
 50
266.3065074621400186
 51
270.0430392802433062
  0
ARC
  5
6341
  8
0
 10
2635.412634825108853
 20
187.6816012556473936
 30
0.0
 40
19.0055666576848417
 50
260.0961347683792155
 51
266.3065074621400186
  0
ARC
  5
6342
  8
0
 10
2635.1055238740900677
 20
185.9226354678883126
 30
0.0
 40
17.2199917422183617
 50
247.0883467727055915
 51
260.0961347683792155
  0
ARC
  5
6343
  8
0
 10
2628.4481061283618146
 20
170.1712584543367939
 30
0.0
 40
0.119492075127493
 50
176.6363075470133879
 51
247.0883467727055915
  0
ARC
  5
6344
  8
0
 10
3599.3462534936998054
 20
150.4214013292672121
 30
0.0
 40
971.2184049726821513
 50
178.5698679332676875
 51
178.8343885956749943
  0
ARC
  5
6345
  8
0
 10
2628.9026492007619709
 20
174.6492073747739084
 30
0.0
 40
0.4724156949428103
 50
89.9974804564915445
 51
178.5703304980326038
  0
ARC
  5
6346
  8
0
 10
2628.4452078955259822
 20
174.8754933120654869
 30
0.0
 40
0.2461297572000047
 50
89.9996158990968382
 51
177.4282820256981097
  0
LINE
  5
6347
  8
0
 10
2628.1993260303938769
 20
174.8865371238240982
 30
0.0
 11
2628.1209402475728893
 21
172.7114590633094053
 31
0.0
  0
LINE
  5
6348
  8
0
 10
2628.2839566335260315
 20
170.090727798065501
 30
0.0
 11
2627.8329273828599071
 21
170.1025384145659984
 31
0.0
  0
ARC
  5
6349
  8
0
 10
2627.8334509218220774
 20
170.1225315610614928
 30
0.0
 40
0.0199999999958359
 50
185.6929144895815114
 51
268.5000000105142135
  0
ARC
  5
634A
  8
0
 10
2633.7840553163500772
 20
170.7157326226544001
 30
0.0
 40
6.000098674737349
 50
180.0
 51
185.6928668676777079
  0
ARC
  5
634B
  8
0
 10
2633.7705352305420092
 20
170.7141895731853936
 30
0.0
 40
5.9865787877911716
 50
174.1061739785257032
 51
179.9852319285755868
  0
ARC
  5
634C
  8
0
 10
2627.5310858403258862
 20
171.3539335533145902
 30
0.0
 40
0.2856134512025276
 50
354.9764017436601193
 51
359.0471745749998718
  0
LINE
  5
634D
  8
0
 10
2627.8166597985341468
 20
171.3491840374356059
 30
0.0
 11
2627.8165975024257932
 21
172.6838056667988894
 31
0.0
  0
ARC
  5
634E
  8
0
 10
2627.8365982664618059
 20
172.6840046961793007
 30
0.0
 40
0.0200017542907759
 50
91.5020452588132969
 51
180.5701365753554057
  0
LINE
  5
634F
  8
0
 10
2627.8360739678259961
 20
172.7039995776655985
 30
0.0
 11
2628.2539566335271957
 21
172.7149422197655042
 31
0.0
  0
LINE
  5
6350
  8
0
 10
2628.2539566335271957
 20
172.7149422197655042
 30
0.0
 11
2628.2539564134272041
 21
171.3264096501654876
 31
0.0
  0
LINE
  5
6351
  8
0
 10
2628.2539564134272041
 20
171.3264096501654876
 30
0.0
 11
2628.2839566335260315
 21
171.3224600461655029
 31
0.0
  0
LINE
  5
6352
  8
0
 10
2628.2839566335260315
 20
171.3224600461655029
 30
0.0
 11
2628.2839566335260315
 21
170.090727798065501
 31
0.0
  0
LINE
  5
6353
  8
0
 10
2628.2539564134272041
 20
171.3264096501654876
 30
0.0
 11
2627.815602169433987
 21
171.3289235157544113
 31
0.0
  0
LINE
  5
6354
  8
0
 10
2627.8135495649307813
 20
170.1205476271628072
 30
0.0
 11
2627.815602169433987
 21
171.3289235157544113
 31
0.0
  0
LINE
  5
6355
  8
0
 10
2628.2839566335260315
 20
170.2724957083655113
 30
0.0
 11
2628.3307079060441538
 21
170.2708442632010133
 31
0.0
  0
LINE
  5
6356
  8
0
 10
2628.2839566335260315
 20
171.1589598876655032
 30
0.0
 11
2628.3493318781329435
 21
171.1619020650936136
 31
0.0
  0
LINE
  5
6357
  8
0
 10
2631.3748313635460363
 20
166.2416414223928882
 30
0.0
 11
2631.3768711525008257
 21
166.4099763756493076
 31
0.0
  0
ARC
  5
6358
  8
0
 10
2631.4563055661301405
 20
166.4107136112650949
 30
0.0
 40
0.0794378347194808
 50
90.2061971627623933
 51
180.5317503408068092
  0
LINE
  5
6359
  8
0
 10
2631.4560196843272024
 20
166.4901509315654948
 30
0.0
 11
2631.7975914212202042
 21
166.4902395264622044
 31
0.0
  0
ARC
  5
635A
  8
0
 10
2631.7983852749021025
 20
166.4307679560766076
 30
0.0
 40
0.059476868510297
 50
5.0056336328480473
 51
90.7647648120494352
  0
ARC
  5
635B
  8
0
 10
2629.3517267917532081
 20
166.2493017397420942
 30
0.0
 40
2.512850546035148
 50
359.3348814184474236
 51
4.2598826245400963
  0
LINE
  5
635C
  8
0
 10
2631.8621488590511035
 20
166.3597504189218057
 30
0.0
 11
2631.8721456099260649
 21
166.3598730154654959
 31
0.0
  0
LINE
  5
635D
  8
0
 10
2631.8721456099260649
 20
166.3598730154654959
 30
0.0
 11
2631.8721456099260649
 21
166.2200072510551934
 31
0.0
  0
LINE
  5
635E
  8
0
 10
2631.8721456099260649
 20
166.2378257713654932
 30
0.0
 11
2631.8983673606289813
 21
166.2380421297845032
 31
0.0
  0
LINE
  5
635F
  8
0
 10
2631.8868323941260314
 20
166.2379469535644034
 30
0.0
 11
2631.8868325973048741
 21
166.5075071923623113
 31
0.0
  0
ARC
  5
6360
  8
0
 10
2631.9262063565779499
 20
166.5075071626847034
 30
0.0
 40
0.0393737592739193
 50
90.0141716232923841
 51
179.9999568139126893
  0
LINE
  5
6361
  8
0
 10
2631.9261966178141847
 20
166.5468809207542051
 30
0.0
 11
2632.0375083928120148
 21
166.5465371364059024
 31
0.0
  0
ARC
  5
6362
  8
0
 10
2632.0370950472688492
 20
166.5264652839655923
 30
0.0
 40
0.020076108062185
 50
36.0698859583845319
 51
88.8202579601857565
  0
LINE
  5
6363
  8
0
 10
2632.0533225542858418
 20
166.5382855263877957
 30
0.0
 11
2639.2145903963491946
 21
166.5382900712432104
 31
0.0
  0
LINE
  5
6364
  8
0
 10
2643.2171465809060464
 20
166.5382926114413067
 30
0.0
 11
2643.2274578975261647
 21
166.5382926179852916
 31
0.0
  0
LINE
  5
6365
  8
0
 10
2633.0088202307852043
 20
166.2183342579054965
 30
0.0
 11
2633.0110165578889792
 21
166.5321225202654887
 31
0.0
  0
LINE
  5
6366
  8
0
 10
2633.0110165578889792
 20
166.5321225202654887
 30
0.0
 11
2633.0119740339259806
 21
166.5369103672655058
 31
0.0
  0
LINE
  5
6367
  8
0
 10
2633.0119740339259806
 20
166.5369103672655058
 30
0.0
 11
2638.2559356056658544
 21
166.5369103650656086
 31
0.0
  0
LINE
  5
6368
  8
0
 10
2643.2171525357221071
 20
166.5369103629842016
 30
0.0
 11
2643.2274578975261647
 21
166.5369103629797962
 31
0.0
  0
LINE
  5
6369
  8
0
 10
2633.0217519091261238
 20
166.2183319939803141
 30
0.0
 11
2633.0217519091261238
 21
166.5358795762655006
 31
0.0
  0
LINE
  5
636A
  8
0
 10
2633.0217519091261238
 20
166.5358795762655006
 30
0.0
 11
2638.2461577300259705
 21
166.5358795762655006
 31
0.0
  0
LINE
  5
636B
  8
0
 10
2643.2171569759047998
 20
166.5358795762655006
 30
0.0
 11
2643.2274578975261647
 21
166.5358795762655006
 31
0.0
  0
ARC
  5
636C
  8
0
 10
2632.0406492799911575
 20
166.5356770291452904
 30
0.0
 40
0.0196857498220003
 50
7.614492048480809
 51
89.9992230788009948
  0
LINE
  5
636D
  8
0
 10
2632.0406495469260335
 20
166.5553627789655025
 30
0.0
 11
2631.9666337989328895
 21
166.5553637826066904
 31
0.0
  0
ARC
  5
636E
  8
0
 10
2631.966634065863218
 20
166.5750490889824107
 30
0.0
 40
0.0196853063774874
 50
180.003704800119209
 51
269.9992230787748895
  0
LINE
  5
636F
  8
0
 10
2631.9469487595260944
 20
166.5750478161116064
 30
0.0
 11
2631.9469482503850486
 21
166.5829218340491025
 31
0.0
  0
ARC
  5
6370
  8
0
 10
2631.9666320170690597
 20
166.5829231068202887
 30
0.0
 40
0.0196837667256551
 50
89.9948199244329032
 51
180.003704800119209
  0
LINE
  5
6371
  8
0
 10
2631.9666337966659739
 20
166.6026068734655041
 30
0.0
 11
2632.1044290738627751
 21
166.602594415480695
 31
0.0
  0
ARC
  5
6372
  8
0
 10
2632.1044272939889197
 20
166.582907590570187
 30
0.0
 40
0.0196868249910093
 50
0.0414606254989017
 51
89.9948199244329032
  0
LINE
  5
6373
  8
0
 10
2632.124114113826181
 20
166.5829218364364124
 30
0.0
 11
2632.124146413456856
 21
166.5382859389669079
 31
0.0
  0
LINE
  5
6374
  8
0
 10
2632.1123030649978318
 20
166.5382855638194997
 30
0.0
 11
2632.112302855238795
 21
166.5829158326712047
 31
0.0
  0
ARC
  5
6375
  8
0
 10
2632.1044230338470697
 20
166.5829157956366089
 30
0.0
 40
0.0078798213923359
 50
0.0002692854952607
 51
89.9793295784010354
  0
LINE
  5
6376
  8
0
 10
2632.10442587662601
 20
166.5907956165162034
 30
0.0
 11
2631.9666338078927765
 21
166.5908453273378882
 31
0.0
  0
ARC
  5
6377
  8
0
 10
2631.9666309682511383
 20
166.5829742012219867
 30
0.0
 40
0.0078711266281046
 50
89.9793295784010354
 51
180.3811956441049915
  0
LINE
  5
6378
  8
0
 10
2631.9587600158261012
 20
166.5829218340655018
 30
0.0
 11
2631.9588123691419241
 21
166.5750529619324993
 31
0.0
  0
ARC
  5
6379
  8
0
 10
2631.9667446704302165
 20
166.5751057372561945
 30
0.0
 40
0.0079324768489872
 50
180.3811956441066116
 51
269.1991560504129097
  0
LINE
  5
637A
  8
0
 10
2631.9666337989260683
 20
166.5671740352655092
 30
0.0
 11
2632.0406403342221893
 21
166.5671737828785126
 31
0.0
  0
ARC
  5
637B
  8
0
 10
2632.0406500167791819
 20
166.5356790395655935
 30
0.0
 40
0.0314947448013381
 50
4.747216751812025
 51
90.0176146721145045
  0
LINE
  5
637C
  8
0
 10
2628.4452095455371818
 20
175.1216230692600107
 30
0.0
 11
2642.8227017436261121
 21
175.1216230692600107
 31
0.0
  0
LINE
  5
637D
  8
0
 10
2631.8983673606289813
 20
166.2380421297845032
 30
0.0
 11
2631.8980414098209621
 21
166.2196085079899035
 31
0.0
  0
ARC
  5
637E
  8
0
 10
2635.5135898125131462
 20
152.4211160449308124
 30
0.0
 40
5.5870706581882148
 50
271.2344466182015026
 51
294.4871330511675751
  0
ARC
  5
637F
  8
0
 10
2634.6451946392671744
 20
153.2565894267262934
 30
0.0
 40
6.7220159928613521
 50
298.2743040387102837
 51
324.7699849763686188
  0
ARC
  5
6380
  8
0
 10
2627.8574248210620681
 20
158.1583608901289892
 30
0.0
 40
15.0944531485567293
 50
324.4345018550325221
 51
338.1488746300682919
  0
ARC
  5
6381
  8
0
 10
2628.4875960658168879
 20
157.7905714144366129
 30
0.0
 40
14.3730642273695395
 50
338.5746902579853099
 51
354.0966859364888251
  0
ARC
  5
6382
  8
0
 10
2626.3350262720491628
 20
157.4895724469716072
 30
0.0
 40
16.4914861954828282
 50
355.9063651336776957
 51
9.8769274550085377
  0
ARC
  5
6383
  8
0
 10
2626.6787154892472245
 20
157.983292432004788
 30
0.0
 40
16.0738865205670187
 50
8.3530968099658285
 51
29.9809985052638197
  0
ARC
  5
6384
  8
0
 10
2638.6259945504471034
 20
164.9668685272463904
 30
0.0
 40
2.23686878638338
 50
27.9595067248037807
 51
42.0329786061868731
  0
ARC
  5
6385
  8
0
 10
2640.1841985981200196
 20
166.3675897856610106
 30
0.0
 40
0.1416632496847804
 50
43.2097095662168726
 51
88.3418816234425179
  0
LINE
  5
6386
  8
0
 10
2640.1882977072259564
 20
166.509193717865486
 30
0.0
 11
2639.9675668698259869
 21
166.5091937324654907
 31
0.0
  0
ARC
  5
6387
  8
0
 10
2639.9642188837929098
 20
166.4540573396662921
 30
0.0
 40
0.0552379472952685
 50
86.5251584825296902
 51
130.9481906143138019
  0
LINE
  5
6388
  8
0
 10
2639.9280172412259162
 20
166.4957786998654967
 30
0.0
 11
2639.9204090346388512
 21
166.2621768033764056
 31
0.0
  0
ARC
  5
6389
  8
0
 10
2639.9078928094841103
 20
166.2633838805676874
 30
0.0
 40
0.0125742963018106
 50
311.1313229781462724
 51
354.4913742647723893
  0
ARC
  5
638A
  8
0
 10
2639.8694232122052199
 20
166.3139934929060075
 30
0.0
 40
0.0761208521499312
 50
281.2692838029768723
 51
307.8817777603878199
  0
ARC
  5
638B
  8
0
 10
2639.8091242961450007
 20
166.5507689815875096
 30
0.0
 40
0.3203732772477692
 50
271.1008922299852202
 51
283.5707890222358856
  0
ARC
  5
638C
  8
0
 10
2638.5246801257330844
 20
207.29808836180149
 30
0.0
 40
41.0879078328203704
 50
271.0617658469067237
 51
271.7999959987405987
  0
ARC
  5
638D
  8
0
 10
2585.5431025955058431
 20
163.8289554685385951
 30
0.0
 40
57.6843748753476788
 50
353.1720192753859919
 51
359.9528001217009887
  0
ARC
  5
638E
  8
0
 10
216.8252138106873019
 20
156.0845484306418882
 30
0.0
 40
2426.4144518568541571
 50
0.1817496109061561
 51
0.3308677860576668
  0
ARC
  5
638F
  8
0
 10
2635.6600962361908387
 20
190.5771231328571105
 30
0.0
 40
22.4182320517895306
 50
269.9331886127953908
 51
274.3134414445520974
  0
ARC
  5
6390
  8
0
 10
2635.9008076411869297
 20
187.3857775813586102
 30
0.0
 40
19.2178213891457084
 50
274.3134414445520974
 51
279.7689509598969266
  0
ARC
  5
6391
  8
0
 10
2636.1585365649111736
 20
185.8888502618013092
 30
0.0
 40
17.6988692509394703
 50
279.7689509598969266
 51
291.9526680906101888
  0
ARC
  5
6392
  8
0
 10
2642.6816345483798614
 20
169.7051372279734949
 30
0.0
 40
0.2499903510436964
 50
291.9526680906096203
 51
359.6940794369068044
  0
LINE
  5
6393
  8
0
 10
2642.9316213360261827
 20
169.7038024555654943
 30
0.0
 11
2642.9323377753657951
 21
169.8379829107248895
 31
0.0
  0
ARC
  5
6394
  8
0
 10
2642.8122559350149459
 20
169.8338928225539917
 30
0.0
 40
0.1201514760767604
 50
1.9507881296812271
 51
112.4448278844604943
  0
ARC
  5
6395
  8
0
 10
2635.9183859733348072
 20
186.6993927428488007
 30
0.0
 40
18.0999078227654309
 50
282.5794596421623055
 51
292.2311622300421732
  0
ARC
  5
6396
  8
0
 10
2635.9948857241051883
 20
186.633117007343003
 30
0.0
 40
18.0186625651826198
 50
275.1819095803891742
 51
282.3879431445074033
  0
ARC
  5
6397
  8
0
 10
2635.6578424837598504
 20
190.510295740677293
 30
0.0
 40
21.9104410585090683
 50
269.9375337717823982
 51
275.1439559277936837
  0
ARC
  5
6398
  8
0
 10
2635.6506178309300594
 20
190.8519702490831094
 30
0.0
 40
22.1825343999315194
 50
269.9569607197566938
 51
273.6934925378600951
  0
ARC
  5
6399
  8
0
 10
2635.8552748140427866
 20
187.6816012556473936
 30
0.0
 40
19.0055666576848417
 50
273.6934925378600951
 51
279.9038652316207845
  0
ARC
  5
639A
  8
0
 10
2636.1623857650629361
 20
185.9226354678883126
 30
0.0
 40
17.2199917422183617
 50
279.9038652316207845
 51
292.91165322729438
  0
ARC
  5
639B
  8
0
 10
2642.8198035107911892
 20
170.1712584543367939
 30
0.0
 40
0.119492075127493
 50
292.91165322729438
 51
3.3636924529849219
  0
ARC
  5
639C
  8
0
 10
1671.9216561454520615
 20
150.4214013292672121
 30
0.0
 40
971.2184049726821513
 50
1.1656114043266419
 51
1.4301320667322881
  0
ARC
  5
639D
  8
0
 10
2642.3652604383901235
 20
174.6492073747739084
 30
0.0
 40
0.4724156949428103
 50
1.4296695019673979
 51
90.0025195435084555
  0
ARC
  5
639E
  8
0
 10
2642.8227017436361166
 20
174.8754933120698922
 30
0.0
 40
0.2461297571900285
 50
2.5717179733702169
 51
90.0000000022667876
  0
LINE
  5
639F
  8
0
 10
2643.0685836087591269
 20
174.8865371238240982
 30
0.0
 11
2643.1992083124259807
 21
170.0963643540657984
 31
0.0
  0
LINE
  5
63A0
  8
0
 10
2639.893078275606058
 20
166.2416414223928882
 30
0.0
 11
2639.8910384866521781
 21
166.4099763756493076
 31
0.0
  0
ARC
  5
63A1
  8
0
 10
2639.8116040730228633
 20
166.4107136112650949
 30
0.0
 40
0.0794378347194808
 50
359.4682496591931908
 51
89.7938028372376351
  0
LINE
  5
63A2
  8
0
 10
2639.8118899548258014
 20
166.4901509315654948
 30
0.0
 11
2639.4703182179327996
 21
166.4902395264622044
 31
0.0
  0
ARC
  5
63A3
  8
0
 10
2639.4695243642509013
 20
166.4307679560766076
 30
0.0
 40
0.059476868510297
 50
89.2352351879505648
 51
174.9943663671519118
  0
ARC
  5
63A4
  8
0
 10
2641.9161828473997957
 20
166.2493017397420942
 30
0.0
 40
2.512850546035148
 50
175.7401173754599029
 51
180.6776995149268998
  0
LINE
  5
63A5
  8
0
 10
2639.4057607801019003
 20
166.3597504189218057
 30
0.0
 11
2639.3957640292260294
 21
166.3598730154654959
 31
0.0
  0
LINE
  5
63A6
  8
0
 10
2639.3957640292260294
 20
166.3598730154654959
 30
0.0
 11
2639.3957640292260294
 21
166.2194152708723891
 31
0.0
  0
LINE
  5
63A7
  8
0
 10
2639.3957640292260294
 20
166.2378257713654932
 30
0.0
 11
2639.369542278524932
 21
166.2380421297845032
 31
0.0
  0
LINE
  5
63A8
  8
0
 10
2639.3810772450269724
 20
166.2379469535644034
 30
0.0
 11
2639.3810770418481297
 21
166.5075071923623113
 31
0.0
  0
ARC
  5
63A9
  8
0
 10
2639.3417032825741444
 20
166.5075071626847034
 30
0.0
 40
0.0393737592739193
 50
0.0000431860872746
 51
89.9858283767076159
  0
LINE
  5
63AA
  8
0
 10
2639.3417130213379096
 20
166.5468809207542051
 30
0.0
 11
2639.230401246340989
 21
166.5465371364059024
 31
0.0
  0
ARC
  5
63AB
  8
0
 10
2639.2308145918850641
 20
166.5264652839655923
 30
0.0
 40
0.020076108062185
 50
91.1797420398142293
 51
143.9301140416154112
  0
LINE
  5
63AC
  8
0
 10
2638.2590894083677995
 20
166.2183342579054965
 30
0.0
 11
2638.2568930812640247
 21
166.5321225202654887
 31
0.0
  0
LINE
  5
63AD
  8
0
 10
2638.2568930812640247
 20
166.5321225202654887
 30
0.0
 11
2638.2559356052261137
 21
166.5369103672655058
 31
0.0
  0
LINE
  5
63AE
  8
0
 10
2638.2461577300259705
 20
166.2183319939803141
 30
0.0
 11
2638.2461577300259705
 21
166.5358795762655006
 31
0.0
  0
ARC
  5
63AF
  8
0
 10
2639.2272603591618463
 20
166.5356770291452904
 30
0.0
 40
0.0196857498220003
 50
90.0007769211990052
 51
172.3855079515192017
  0
LINE
  5
63B0
  8
0
 10
2639.2272600922260608
 20
166.5553627789655025
 30
0.0
 11
2639.3012758402201143
 21
166.5553637826066904
 31
0.0
  0
ARC
  5
63B1
  8
0
 10
2639.3012755732897858
 20
166.5750490889824107
 30
0.0
 40
0.0196853063774874
 50
270.0007769212251105
 51
359.9962951998808194
  0
LINE
  5
63B2
  8
0
 10
2639.320960879626
 20
166.5750478161116064
 30
0.0
 11
2639.3209613887679552
 21
166.5829218340491025
 31
0.0
  0
ARC
  5
63B3
  8
0
 10
2639.3012776220830347
 20
166.5829231068202887
 30
0.0
 40
0.0196837667256551
 50
359.9962951998808194
 51
90.0051800755670968
  0
LINE
  5
63B4
  8
0
 10
2639.3012758424861204
 20
166.6026068734655041
 30
0.0
 11
2639.1634805652897739
 21
166.602594415480695
 31
0.0
  0
ARC
  5
63B5
  8
0
 10
2639.1634823451631746
 20
166.582907590570187
 30
0.0
 40
0.0196868249910093
 50
90.0051800755670968
 51
179.9585393745011004
  0
LINE
  5
63B6
  8
0
 10
2639.1437955253259133
 20
166.5829218364364124
 30
0.0
 11
2639.1437632256947836
 21
166.5382859389669079
 31
0.0
  0
LINE
  5
63B7
  8
0
 10
2639.155606574155172
 20
166.5382855638194997
 30
0.0
 11
2639.1556067839128445
 21
166.5829158326712047
 31
0.0
  0
ARC
  5
63B8
  8
0
 10
2639.1634866053059341
 20
166.5829157956366089
 30
0.0
 40
0.0078798213923359
 50
90.0206704215989646
 51
179.9997307145046932
  0
LINE
  5
63B9
  8
0
 10
2639.1634837625269938
 20
166.5907956165162034
 30
0.0
 11
2639.301275831258863
 21
166.5908453273378882
 31
0.0
  0
ARC
  5
63BA
  8
0
 10
2639.3012786709009561
 20
166.5829742012219867
 30
0.0
 40
0.0078711266281046
 50
359.6188043558933032
 51
90.0206704215989646
  0
LINE
  5
63BB
  8
0
 10
2639.3091496233259932
 20
166.5829218340655018
 30
0.0
 11
2639.3090972700101702
 21
166.5750529619324993
 31
0.0
  0
ARC
  5
63BC
  8
0
 10
2639.3011649687227873
 20
166.5751057372561945
 30
0.0
 40
0.0079324768489872
 50
270.8008439495870903
 51
359.6188043558933032
  0
LINE
  5
63BD
  8
0
 10
2639.301275840226026
 20
166.5671740352655092
 30
0.0
 11
2639.227269304929905
 21
166.5671737828785126
 31
0.0
  0
ARC
  5
63BE
  8
0
 10
2639.2272596223738219
 20
166.5356790395655935
 30
0.0
 40
0.0314947448013381
 50
89.9823853278854813
 51
175.2527832481879102
  0
LINE
  5
63BF
  8
0
 10
2639.369542278524932
 20
166.2380421297845032
 30
0.0
 11
2639.369881207006074
 21
166.2188745765967042
 31
0.0
  0
LINE
  5
63C1
  8
0
 10
2631.3472037847259344
 20
166.2712903382654872
 30
0.0
 11
2631.3623030902258506
 21
166.2712893461655028
 31
0.0
  0
LINE
  5
63C2
  8
0
 10
2631.3623030902258506
 20
166.2712893461655028
 30
0.0
 11
2631.3623030902258506
 21
166.2470222283535009
 31
0.0
  0
LINE
  5
63C3
  8
0
 10
2639.9207058544261599
 20
166.2712903382654872
 30
0.0
 11
2639.905606548925789
 21
166.2712893461655028
 31
0.0
  0
LINE
  5
63C4
  8
0
 10
2639.905606548925789
 20
166.2712893461655028
 30
0.0
 11
2639.905606548925789
 21
166.2470222283535009
 31
0.0
  0
ENDSEC
  0
EOF
