  0
SECTION
  2
HEADER
  9
$ACADVER
  1
AC1009
  9
$INSBASE
 10
2614.062918092477048
 20
148.376506632217513
 30
0.0
  9
$EXTMIN
 10
2606.2129199145138045
 20
148.3716252336178059
 30
0.0
  9
$EXTMAX
 10
2621.6564211704280751
 20
175.2308514488699132
 30
0.0
  9
$LIMMIN
 10
0.0
 20
0.0
  9
$LIMMAX
 10
11.6929133858000007
 20
8.2677165353999982
  9
$ORTHOMODE
 70
     0
  9
$REGENMODE
 70
     1
  9
$FILLMODE
 70
     1
  9
$QTEXTMODE
 70
     0
  9
$MIRRTEXT
 70
     0
  9
$DRAGMODE
 70
     2
  9
$LTSCALE
 40
0.6431102362
  9
$OSMODE
 70
  2047
  9
$ATTMODE
 70
     1
  9
$TEXTSIZE
 40
0.2
  9
$TRACEWID
 40
0.05
  9
$TEXTSTYLE
  7
STANDARD
  9
$CLAYER
  8
0
  9
$CELTYPE
  6
BYLAYER
  9
$CECOLOR
 62
   256
  9
$DIMSCALE
 40
1.0
  9
$DIMASZ
 40
0.1875
  9
$DIMEXO
 40
0.0625
  9
$DIMDLI
 40
0.4443307087
  9
$DIMRND
 40
0.0
  9
$DIMDLE
 40
0.0
  9
$DIMEXE
 40
0.125
  9
$DIMTP
 40
0.01
  9
$DIMTM
 40
0.01
  9
$DIMTXT
 40
2.0
  9
$DIMCEN
 40
0.1052362205
  9
$DIMTSZ
 40
0.0
  9
$DIMTOL
 70
     1
  9
$DIMLIM
 70
     0
  9
$DIMTIH
 70
     1
  9
$DIMTOH
 70
     1
  9
$DIMSE1
 70
     0
  9
$DIMSE2
 70
     0
  9
$DIMTAD
 70
     0
  9
$DIMZIN
 70
     0
  9
$DIMBLK
  1

  9
$DIMASO
 70
     1
  9
$DIMSHO
 70
     1
  9
$DIMPOST
  1
\X
  9
$DIMAPOST
  1

  9
$DIMALT
 70
     1
  9
$DIMALTD
 70
     2
  9
$DIMALTF
 40
25.3999999999999986
  9
$DIMLFAC
 40
1.0
  9
$DIMTOFL
 70
     0
  9
$DIMTVP
 40
0.0
  9
$DIMTIX
 70
     0
  9
$DIMSOXD
 70
     0
  9
$DIMSAH
 70
     0
  9
$DIMBLK1
  1

  9
$DIMBLK2
  1

  9
$DIMSTYLE
  2
STANDARD
  9
$DIMCLRD
 70
     0
  9
$DIMCLRE
 70
     0
  9
$DIMCLRT
 70
     0
  9
$DIMTFAC
 40
1.0
  9
$DIMGAP
 40
0.09
  9
$LUNITS
 70
     2
  9
$LUPREC
 70
     4
  9
$SKETCHINC
 40
0.1
  9
$FILLETRAD
 40
0.0
  9
$AUNITS
 70
     0
  9
$AUPREC
 70
     0
  9
$MENU
  1
.
  9
$ELEVATION
 40
0.0
  9
$PELEVATION
 40
0.0
  9
$THICKNESS
 40
0.0
  9
$LIMCHECK
 70
     0
  9
$BLIPMODE
 70
     0
  9
$CHAMFERA
 40
0.0
  9
$CHAMFERB
 40
0.0
  9
$SKPOLY
 70
     0
  9
$TDCREATE
 40
2458060.468368056230247
  9
$TDUPDATE
 40
2459029.6407060190103948
  9
$TDINDWG
 40
0.282796412
  9
$TDUSRTIMER
 40
0.282796412
  9
$USRTIMER
 70
     1
  9
$ANGBASE
 50
0.0
  9
$ANGDIR
 70
     0
  9
$PDMODE
 70
     0
  9
$PDSIZE
 40
0.3125
  9
$PLINEWID
 40
0.0
  9
$COORDS
 70
     1
  9
$SPLFRAME
 70
     0
  9
$SPLINETYPE
 70
     6
  9
$SPLINESEGS
 70
     8
  9
$ATTDIA
 70
     1
  9
$ATTREQ
 70
     1
  9
$HANDLING
 70
     1
  9
$HANDSEED
  5
623B
  9
$SURFTAB1
 70
     6
  9
$SURFTAB2
 70
     6
  9
$SURFTYPE
 70
     6
  9
$SURFU
 70
     6
  9
$SURFV
 70
     6
  9
$UCSNAME
  2

  9
$UCSORG
 10
0.0
 20
0.0
 30
0.0
  9
$UCSXDIR
 10
1.0
 20
0.0
 30
0.0
  9
$UCSYDIR
 10
0.0
 20
1.0
 30
0.0
  9
$PUCSNAME
  2

  9
$PUCSORG
 10
0.0
 20
0.0
 30
0.0
  9
$PUCSXDIR
 10
1.0
 20
0.0
 30
0.0
  9
$PUCSYDIR
 10
0.0
 20
1.0
 30
0.0
  9
$USERI1
 70
     0
  9
$USERI2
 70
     0
  9
$USERI3
 70
     0
  9
$USERI4
 70
     0
  9
$USERI5
 70
     0
  9
$USERR1
 40
0.0
  9
$USERR2
 40
0.0
  9
$USERR3
 40
0.0
  9
$USERR4
 40
0.0
  9
$USERR5
 40
0.0
  9
$WORLDVIEW
 70
     1
  9
$SHADEDGE
 70
     3
  9
$SHADEDIF
 70
    70
  9
$TILEMODE
 70
     1
  9
$MAXACTVP
 70
    64
  9
$PLIMCHECK
 70
     0
  9
$PEXTMIN
 10
1.0000000000000000E+20
 20
1.0000000000000000E+20
 30
1.0000000000000000E+20
  9
$PEXTMAX
 10
-1.0000000000000000E+20
 20
-1.0000000000000000E+20
 30
-1.0000000000000000E+20
  9
$PLIMMIN
 10
0.0
 20
0.0
  9
$PLIMMAX
 10
12.0
 20
9.0
  9
$UNITMODE
 70
     0
  9
$VISRETAIN
 70
     1
  9
$PLINEGEN
 70
     0
  9
$PSLTSCALE
 70
     1
  0
ENDSEC
  0
SECTION
  2
TABLES
  0
TABLE
  2
VPORT
 70
     1
  0
VPORT
  2
*ACTIVE
 70
     0
 10
0.0
 20
0.0
 11
1.0
 21
1.0
 12
0.0
 22
1.1527828586400091
 13
0.0
 23
0.0
 14
1.0
 24
1.0
 15
0.0
 25
0.0
 16
0.0
 26
0.0
 36
106.6998405208618976
 17
2613.9346923828129547
 27
161.8012300972777098
 37
0.0
 40
31.3832551924094894
 41
2.6486111111111108
 42
50.0
 43
0.0
 44
0.0
 50
0.0
 51
0.0
 71
     0
 72
   100
 73
     1
 74
     1
 75
     0
 76
     0
 77
     0
 78
     0
  0
ENDTAB
  0
TABLE
  2
LTYPE
 70
     2
  0
LTYPE
  2
CONTINUOUS
 70
     0
  3
Solid line
 72
    65
 73
     0
 40
0.0
  0
LTYPE
  2
PHANTOM2
 70
     0
  3
___ _ _ ___ _ _ ___ _ _ ___ _ _
 72
    65
 73
     6
 40
1.25
 49
0.625
 49
-0.125
 49
0.125
 49
-0.125
 49
0.125
 49
-0.125
  0
ENDTAB
  0
TABLE
  2
LAYER
 70
     2
  0
LAYER
  2
0
 70
     0
 62
   255
  6
CONTINUOUS
  0
LAYER
  2
DEFPOINTS
 70
     0
 62
     7
  6
CONTINUOUS
  0
ENDTAB
  0
TABLE
  2
STYLE
 70
     1
  0
STYLE
  2
STANDARD
 70
     0
 40
0.0
 41
0.8
 50
0.0
 71
     0
 42
0.2
  3
txt
  4

  0
ENDTAB
  0
TABLE
  2
VIEW
 70
     0
  0
ENDTAB
  0
TABLE
  2
UCS
 70
     0
  0
ENDTAB
  0
TABLE
  2
APPID
 70
     9
  0
APPID
  2
ACAD
 70
     0
  0
APPID
  2
ACAD_MLEADERVER
 70
     0
  0
APPID
  2
ACAD_EXEMPT_FROM_CAD_STANDARDS
 70
     0
  0
APPID
  2
ACAD_NAV_VCDISPLAY
 70
     0
  0
APPID
  2
ACAECLAYERSTANDARD
 70
     0
  0
APPID
  2
ACCMTRANSPARENCY
 70
     0
  0
APPID
  2
ACAD_DSTYLE_DIMJAG
 70
     0
  0
APPID
  2
ACAD_DSTYLE_DIMTALN
 70
     0
  0
APPID
  2
ACDBATTR
 70
     0
  0
ENDTAB
  0
TABLE
  2
DIMSTYLE
 70
     1
  0
DIMSTYLE
  2
STANDARD
 70
     0
  3

  4

  5

  6

  7

 40
1.0
 41
0.1875
 42
0.0625
 43
0.38
 44
0.125
 45
0.0
 46
0.0
 47
0.01
 48
0.01
140
0.15625
141
0.09
142
0.0
143
25.3999999999999986
144
1.0
145
0.0
146
1.0
147
0.09
 71
     1
 72
     0
 73
     1
 74
     1
 75
     0
 76
     0
 77
     0
 78
     4
170
     0
171
     2
172
     0
173
     0
174
     0
175
     0
176
     0
177
     0
178
     0
  0
ENDTAB
  0
ENDSEC
  0
SECTION
  2
BLOCKS
  0
BLOCK
  8
0
  2
$MODEL_SPACE
 70
     0
 10
0.0
 20
0.0
 30
0.0
  3
$MODEL_SPACE
  1

  0
ENDBLK
  5
21
  8
0
  0
BLOCK
 67
     1
  8
0
  2
$PAPER_SPACE
 70
     0
 10
0.0
 20
0.0
 30
0.0
  3
$PAPER_SPACE
  1

  0
ENDBLK
  5
1D
 67
     1
  8
0
  0
BLOCK
  8
0
  2
_FILLED
 70
     0
 10
0.0
 20
0.0
 30
0.0
  3
_FILLED
  1

  0
SOLID
  5
5582
  8
0
  6
BYBLOCK
 62
     0
 10
0.0
 20
0.0
 30
0.0
 11
-1.0
 21
0.1666666667
 31
0.0
 12
-1.0
 22
-0.1666666667
 32
0.0
 13
-1.0
 23
-0.1666666667
 33
0.0
  0
ENDBLK
  5
5583
  8
0
  6
BYBLOCK
 62
     0
  0
ENDSEC
  0
SECTION
  2
ENTITIES
  0
ATTDEF
  5
3930
  8
DEFPOINTS
 10
2614.0631031794050614
 20
148.374958566951193
 30
0.0
 40
0.001
  1
K-1381T-S
  3

  2
MODELNUMBER
 70
     0
1001
ACDBATTR
1070
     0
1070
     1
  0
ATTDEF
  5
3931
  8
DEFPOINTS
 10
2614.0631031794050614
 20
148.3732919002844994
 30
0.0
 40
0.001
  1
VEIL
  3

  2
TRADENAME
 70
     0
1001
ACDBATTR
1070
     0
1070
     1
  0
ATTDEF
  5
3932
  8
DEFPOINTS
 10
2614.0631031794050614
 20
148.3716252336178059
 30
0.0
 40
0.001
  1
TOILET
  3

  2
PRODUCT
 70
     0
1001
ACDBATTR
1070
     0
1070
     1
  0
ARC
  5
60D1
  8
0
 10
2608.1086449563508722
 20
148.4552321476714098
 30
0.0
 40
0.0787267347396127
 50
180.9660485429293999
 51
270.3188818583442981
  0
ARC
  5
60D2
  8
0
 10
2550.8603069076148131
 20
146.3876150316326061
 30
0.0
 40
57.2069514198610207
 50
2.0699484703577209
 51
6.5980497608183937
  0
ARC
  5
60D3
  8
0
 10
2299.6655499972089274
 20
117.878461983868803
 30
0.0
 40
310.0142364031905231
 50
6.4977334157459881
 51
7.5801651373468628
  0
ARC
  5
60D4
  8
0
 10
2478.8492213388949494
 20
143.555210044631707
 30
0.0
 40
129.0220766552943132
 50
6.7738418793743991
 51
7.908701371826365
  0
ARC
  5
60D5
  8
0
 10
2606.1571165994992043
 20
161.247319567453701
 30
0.0
 40
0.4907637587453829
 50
7.1023781138555471
 51
15.5568764432949802
  0
ARC
  5
60D6
  8
0
 10
2606.678452507712791
 20
161.4250023935946956
 30
0.0
 40
0.0669253140935999
 50
184.1310760926444061
 51
223.493132568680096
  0
ARC
  5
60D7
  8
0
 10
2683.6403005121660499
 20
167.7696946531908111
 30
0.0
 40
77.2898534888806097
 50
183.179414681903495
 51
184.7122716069499972
  0
ARC
  5
60D8
  8
0
 10
2606.7372837487509969
 20
163.4622837091818042
 30
0.0
 40
0.2686674188868063
 50
91.6676036355255945
 51
175.5809852851126891
  0
ARC
  5
60D9
  8
0
 10
2608.081296160571128
 20
148.455288538263602
 30
0.0
 40
0.078781954335569
 50
176.6324590739550899
 51
269.9365619077153156
  0
LINE
  5
60DA
  8
0
 10
2608.0026502417272241
 20
148.4599162567174915
 30
0.0
 11
2608.0211993628831806
 21
148.6827543458483945
 31
0.0
  0
ARC
  5
60DB
  8
0
 10
2606.9085035174311997
 20
161.4451643786883039
 30
0.0
 40
0.2978520589305105
 50
184.8114978526998016
 51
207.4203730349593968
  0
LINE
  5
60DC
  8
0
 10
2610.8540082607269142
 20
163.9369603242174946
 30
0.0
 11
2610.8467732968269956
 21
163.7989089882173914
 31
0.0
  0
ARC
  5
60DD
  8
0
 10
2610.7877991116451994
 20
163.801999694277896
 30
0.0
 40
0.0590551181682411
 50
269.9965378906712772
 51
357.0000000193779215
  0
LINE
  5
60DE
  8
0
 10
2610.7877955432268209
 20
163.7429445762174964
 30
0.0
 11
2609.7238710523702139
 21
163.7430088640749943
 31
0.0
  0
ARC
  5
60DF
  8
0
 10
2609.7238746214597995
 20
163.8020751160362067
 30
0.0
 40
0.0590662520690954
 50
183.0729426585349131
 51
269.9965378906712772
  0
LINE
  5
60E0
  8
0
 10
2609.6648933009228131
 20
163.7989087362036003
 30
0.0
 11
2609.6600726280757954
 21
163.8887051805585884
 31
0.0
  0
ARC
  5
60E1
  8
0
 10
2609.5736632798480059
 20
163.8770052794978938
 30
0.0
 40
0.087197839112285
 50
7.711003714414506
 51
43.4384433119433879
  0
LINE
  5
60E2
  8
0
 10
2609.3621893774270575
 20
163.7308373409173896
 30
0.0
 11
2609.2331280019770929
 21
163.8225152065674877
 31
0.0
  0
LINE
  5
60E3
  8
0
 10
2609.2331280019770929
 20
163.8225152065674877
 30
0.0
 11
2609.0552788686268286
 21
163.9369603242174946
 31
0.0
  0
LINE
  5
60E4
  8
0
 10
2609.127474023150171
 20
163.8905030668923075
 30
0.0
 11
2609.1263877180272175
 21
163.8697751300175014
 31
0.0
  0
ARC
  5
60E5
  8
0
 10
2609.067413528256111
 20
163.8728658362865929
 30
0.0
 40
0.0590551227615481
 50
269.9779015332543963
 51
357.0000000501979116
  0
LINE
  5
60E6
  8
0
 10
2609.067390751226867
 20
163.8138107179173915
 30
0.0
 11
2607.8379538390267953
 21
163.8138107179173915
 31
0.0
  0
ARC
  5
60E7
  8
0
 10
2607.839020888486175
 20
163.8742356397042101
 30
0.0
 40
0.0604343426164067
 50
195.1762492214695897
 51
268.9883135172079278
  0
ARC
  5
60E8
  8
0
 10
2607.6672175966559735
 20
163.829761675267207
 30
0.0
 40
0.1170381391007647
 50
14.1710114077890896
 51
66.3380320909862178
  0
ARC
  5
60E9
  8
0
 10
2607.2153444482551095
 20
164.0155220864282057
 30
0.0
 40
0.0785617648781561
 50
241.4603329662371891
 51
270.0
  0
ARC
  5
60EA
  8
0
 10
2606.9203174377162213
 20
163.996352188170107
 30
0.0
 40
0.0500145369193613
 50
182.748717699180304
 51
274.7109804128838846
  0
LINE
  5
60EB
  8
0
 10
2606.8703604445217934
 20
163.9939537023452942
 30
0.0
 11
2606.9811771938270795
 21
165.2149726377174943
 31
0.0
  0
ARC
  5
60EC
  8
0
 10
2607.2366425758600599
 20
165.1870713140606028
 30
0.0
 40
0.2569845234232451
 50
112.8329763222839972
 51
173.7669958323131141
  0
ARC
  5
60ED
  8
0
 10
2607.3288471006171676
 20
164.9316900321078094
 30
0.0
 40
0.5283224542930592
 50
95.7306340822173354
 51
111.3014648128608002
  0
ARC
  5
60EE
  8
0
 10
2613.5478590059829003
 20
99.559620331565128
 30
0.0
 40
66.1955341023185042
 50
93.5428368372250958
 51
95.4367040098636181
  0
ARC
  5
60EF
  8
0
 10
2613.654678917729143
 20
99.0950845187229135
 30
0.0
 40
66.6658285673107258
 50
91.0560754719420089
 51
93.6097963049046768
  0
ARC
  5
60F0
  8
0
 10
2614.000280769912024
 20
79.8546883692848866
 30
0.0
 40
85.9093267085103349
 50
89.9582250882637737
 51
91.0500226253504934
  0
ARC
  5
60F1
  8
0
 10
2607.2461714202650001
 20
165.4789673165867896
 30
0.0
 40
0.0528482894677403
 50
219.4597488386590953
 51
261.1207774879583781
  0
ARC
  5
60F2
  8
0
 10
2607.4374124590708561
 20
166.6340846182681901
 30
0.0
 40
1.2236873958209891
 50
260.6219084120431262
 51
265.9698065332833039
  0
ARC
  5
60F3
  8
0
 10
2608.7210731840709741
 20
186.255181378846288
 30
0.0
 40
20.8867149910489012
 50
266.2400824729139117
 51
268.3162518863193782
  0
ARC
  5
60F4
  8
0
 10
2612.7374483770681763
 20
319.8491207515024257
 30
0.0
 40
154.5410109538412087
 50
268.2831485669594258
 51
269.5766961142904847
  0
ARC
  5
60F5
  8
0
 10
2613.992057681760798
 20
460.4637095717126272
 30
0.0
 40
295.1611100479100855
 50
269.5348217053200983
 51
270.0137552081595231
  0
LINE
  5
60F6
  8
0
 10
2606.4808981013648008
 20
163.5425867713030925
 30
0.0
 11
2606.476571994826827
 21
163.7391170432175045
 31
0.0
  0
ARC
  5
60F7
  8
0
 10
368.0498781612682251
 20
226.2308119810556946
 30
0.0
 40
2239.2988357079188972
 50
358.4008497549215804
 51
358.6920274322172872
  0
ARC
  5
60F8
  8
0
 10
2606.8833240435269545
 20
175.1127271754174899
 30
0.0
 40
0.1181101648000012
 50
90.0001419804886069
 51
178.6159198536990971
  0
LINE
  5
60F9
  8
0
 10
2606.7073967119958979
 20
172.6417250403293906
 30
0.0
 11
2606.2618906558282106
 21
172.6534747291173915
 31
0.0
  0
ARC
  5
60FA
  8
0
 10
2606.2624180608381721
 20
172.6734720354926083
 30
0.0
 40
0.0200042600039696
 50
185.703671991761297
 51
268.4892426385669069
  0
ARC
  5
60FB
  8
0
 10
2612.2129215459549414
 20
173.2666641125175033
 30
0.0
 40
6.000001631441199
 50
174.3070870529577974
 51
185.6929129470420889
  0
ARC
  5
60FC
  8
0
 10
2606.2624141946971577
 20
173.859860349491413
 30
0.0
 40
0.0199999999252904
 50
91.4999999191129945
 51
174.3070856440942009
  0
LINE
  5
60FD
  8
0
 10
2606.261890655760908
 20
173.8798534959169899
 30
0.0
 11
2606.7129176061807811
 21
173.8917487932048971
 31
0.0
  0
LINE
  5
60FE
  8
0
 10
2606.7129176061807811
 20
173.8917487932048971
 30
0.0
 11
2606.7129176061821454
 21
172.8728563783257073
 31
0.0
  0
LINE
  5
60FF
  8
0
 10
2606.7129199064270324
 20
173.7098962021175055
 30
0.0
 11
2606.7327328482379016
 21
173.7107992864299035
 31
0.0
  0
LINE
  5
6100
  8
0
 10
2606.2425128378718
 20
172.6714839416912923
 30
0.0
 11
2606.2425128378758927
 21
173.8618442833868869
 31
0.0
  0
LINE
  5
6101
  8
0
 10
2608.0812089329269838
 20
148.376506632217513
 30
0.0
 11
2620.0446272520271123
 21
148.376506632217513
 31
0.0
  0
LINE
  5
6102
  8
0
 10
2606.7294652407272224
 20
163.7308373405174962
 30
0.0
 11
2621.3963709442268737
 21
163.7308373405174962
 31
0.0
  0
LINE
  5
6103
  8
0
 10
2606.9244251069790153
 20
163.9465066170882039
 30
0.0
 11
2621.2014110779750808
 21
163.9465066170882039
 31
0.0
  0
LINE
  5
6104
  8
0
 10
2607.2153444482551095
 20
163.9369603215500888
 30
0.0
 11
2620.9104917366998961
 21
163.9369603215500888
 31
0.0
  0
LINE
  5
6105
  8
0
 10
2606.883323750847012
 20
175.2308373402171071
 30
0.0
 11
2621.2425124341070841
 21
175.2308373402171071
 31
0.0
  0
ARC
  5
6106
  8
0
 10
2620.0171912286041334
 20
148.4552321476714098
 30
0.0
 40
0.0787267347396162
 50
269.6811181416557019
 51
359.0339514570690085
  0
ARC
  5
6107
  8
0
 10
2677.2655292773388283
 20
146.3876150316326061
 30
0.0
 40
57.2069514198610207
 50
173.4019502391815877
 51
177.9300515296422134
  0
ARC
  5
6108
  8
0
 10
2928.4602861877451687
 20
117.878461983868803
 30
0.0
 40
310.0142364031905231
 50
172.4198348626530901
 51
173.502266584253988
  0
ARC
  5
6109
  8
0
 10
2749.2766148460591467
 20
143.555210044631707
 30
0.0
 40
129.0220766552943132
 50
172.0912986281736039
 51
173.2261581206255983
  0
ARC
  5
610A
  8
0
 10
2621.9687195854548918
 20
161.247319567453701
 30
0.0
 40
0.4907637587453829
 50
164.4431235567049896
 51
172.8976218861444067
  0
ARC
  5
610B
  8
0
 10
2621.4473836772408504
 20
161.4250023935946956
 30
0.0
 40
0.0669253140935999
 50
316.5068674313200177
 51
355.8689239073556223
  0
ARC
  5
610C
  8
0
 10
2544.4855356727889557
 20
167.7696946531908111
 30
0.0
 40
77.2898534888806097
 50
355.2877283930499743
 51
356.8205853180963913
  0
ARC
  5
610D
  8
0
 10
2621.387641437800994
 20
163.4613278784931936
 30
0.0
 40
0.2696508008573903
 50
4.6065929665006369
 51
88.144818112859241
  0
ARC
  5
610E
  8
0
 10
2620.0445400243829681
 20
148.455288538263602
 30
0.0
 40
0.078781954335569
 50
270.0634380922846844
 51
3.3675409260448208
  0
LINE
  5
610F
  8
0
 10
2620.123185943226872
 20
148.4599162567174915
 30
0.0
 11
2620.104636822071825
 21
148.6827543458483945
 31
0.0
  0
ARC
  5
6110
  8
0
 10
2621.2173326675228964
 20
161.4451643786883039
 30
0.0
 40
0.2978520589305105
 50
332.5796269650405748
 51
355.1885021473001984
  0
LINE
  5
6111
  8
0
 10
2617.2718279242271819
 20
163.9369603242174946
 30
0.0
 11
2617.2790628881271005
 21
163.7989089882173914
 31
0.0
  0
ARC
  5
6112
  8
0
 10
2617.3380370733098061
 20
163.801999694277896
 30
0.0
 40
0.0590551181682411
 50
182.9999999806221069
 51
270.0034621093286091
  0
LINE
  5
6113
  8
0
 10
2617.3380406417268205
 20
163.7429445762174964
 30
0.0
 11
2618.4019651325847917
 21
163.7430088640749943
 31
0.0
  0
ARC
  5
6114
  8
0
 10
2618.4019615634952061
 20
163.8020751160362067
 30
0.0
 40
0.0590662520690954
 50
270.0034621093286091
 51
356.9270573414650016
  0
LINE
  5
6115
  8
0
 10
2618.4609428840308283
 20
163.7989087362036003
 30
0.0
 11
2618.4657635568792102
 21
163.8887051805585884
 31
0.0
  0
ARC
  5
6116
  8
0
 10
2618.5521729051060902
 20
163.8770052794978938
 30
0.0
 40
0.087197839112285
 50
136.5615566880566121
 51
172.2889962855855117
  0
LINE
  5
6117
  8
0
 10
2618.7636468075270386
 20
163.7308373409173896
 30
0.0
 11
2618.8927081829770032
 21
163.8225152065674877
 31
0.0
  0
LINE
  5
6118
  8
0
 10
2618.8927081829770032
 20
163.8225152065674877
 30
0.0
 11
2619.0705573163268127
 21
163.9369603242174946
 31
0.0
  0
LINE
  5
6119
  8
0
 10
2618.9983621618039251
 20
163.8905030668923075
 30
0.0
 11
2618.9994484669268786
 21
163.8697751300175014
 31
0.0
  0
ARC
  5
611A
  8
0
 10
2619.0584226566979851
 20
163.8728658362865929
 30
0.0
 40
0.0590551227615481
 50
182.9999999498022021
 51
270.02209846674549
  0
LINE
  5
611B
  8
0
 10
2619.0584454337281386
 20
163.8138107179173915
 30
0.0
 11
2620.287882345926846
 21
163.8138107179173915
 31
0.0
  0
ARC
  5
611C
  8
0
 10
2620.2868152964688306
 20
163.8742356397042101
 30
0.0
 40
0.0604343426164067
 50
271.0116864827920722
 51
344.8237507785303819
  0
ARC
  5
611D
  8
0
 10
2620.4586185882990321
 20
163.829761675267207
 30
0.0
 40
0.1170381391007647
 50
113.6619679090137964
 51
165.8289885922108908
  0
ARC
  5
611E
  8
0
 10
2620.9104917366998961
 20
164.015522086428291
 30
0.0
 40
0.0785617648781711
 50
270.0
 51
298.5396670337619867
  0
ARC
  5
611F
  8
0
 10
2621.2051835687548191
 20
163.9966681638076977
 30
0.0
 40
0.0503032052256673
 50
265.6990628088317976
 51
358.7999334278254082
  0
LINE
  5
6120
  8
0
 10
2621.255475740431848
 20
163.9956146345276977
 30
0.0
 11
2621.1446589911279261
 21
165.2149726377174943
 31
0.0
  0
ARC
  5
6121
  8
0
 10
2620.8891936090940362
 20
165.1870713140606028
 30
0.0
 40
0.2569845234232451
 50
6.2330041676868531
 51
67.1670236777159602
  0
ARC
  5
6122
  8
0
 10
2620.7969890843369285
 20
164.9316900321078094
 30
0.0
 40
0.5283224542930592
 50
68.698535187139214
 51
84.269365917782693
  0
ARC
  5
6123
  8
0
 10
2614.5779771789730148
 20
99.559620331565128
 30
0.0
 40
66.1955341023185042
 50
84.5632959901363677
 51
86.4571631627749042
  0
ARC
  5
6124
  8
0
 10
2614.4711572672249531
 20
99.0950845187229135
 30
0.0
 40
66.6658285673107258
 50
86.3902036950953658
 51
88.9439245280580053
  0
ARC
  5
6125
  8
0
 10
2614.1255554150429816
 20
79.8546883692848866
 30
0.0
 40
85.9093267085103349
 50
88.9499773746494924
 51
90.0417749117362263
  0
ARC
  5
6126
  8
0
 10
2620.8796647646900055
 20
165.4789673165867896
 30
0.0
 40
0.0528482894677403
 50
278.8792225120415083
 51
320.5402511613410184
  0
ARC
  5
6127
  8
0
 10
2620.6884237258841495
 20
166.6340846182681901
 30
0.0
 40
1.2236873958209891
 50
274.0301934667168098
 51
279.3780915879568738
  0
ARC
  5
6128
  8
0
 10
2619.4047630008840315
 20
186.255181378846288
 30
0.0
 40
20.8867149910489012
 50
271.6837481136806218
 51
273.7599175270859746
  0
ARC
  5
6129
  8
0
 10
2615.3883878078868293
 20
319.8491207515024257
 30
0.0
 40
154.5410109538412087
 50
270.4233038857095721
 51
271.7168514330405742
  0
ARC
  5
612A
  8
0
 10
2614.1337785031928433
 20
460.4637095717126272
 30
0.0
 40
295.1611100479100855
 50
269.9862447918404769
 51
270.4651782946799017
  0
LINE
  5
612B
  8
0
 10
2621.6449262691871809
 20
163.5420500560005053
 30
0.0
 11
2621.6492641901268144
 21
163.7391170432175045
 31
0.0
  0
ARC
  5
612C
  8
0
 10
4860.0759580236863258
 20
226.2308119810556946
 30
0.0
 40
2239.2988357079188972
 50
181.3079725677827128
 51
181.5991502450783912
  0
ARC
  5
612D
  8
0
 10
2621.2443236721660469
 20
175.1145829994630105
 30
0.0
 40
0.1162684494068847
 50
0.4913443899250615
 51
90.8925937758697557
  0
ENDSEC
  0
EOF
