  0
SECTION
  2
HEADER
  9
$ACADVER
  1
AC1009
  9
$INSBASE
 10
3.1831775586000002
 20
6.0096102820000006
 30
0.0
  9
$EXTMIN
 10
-1.819203258333622
 20
1.0093038990965719
 30
-0.0015258207003583
  9
$EXTMAX
 10
8.1822124038039377
 20
11.0099462942760393
 30
0.0000000349246037
  9
$LIMMIN
 10
0.0
 20
0.0
  9
$LIMMAX
 10
11.6929133858000007
 20
8.2677165353999982
  9
$ORTHOMODE
 70
     0
  9
$REGENMODE
 70
     1
  9
$FILLMODE
 70
     1
  9
$QTEXTMODE
 70
     0
  9
$MIRRTEXT
 70
     0
  9
$DRAGMODE
 70
     2
  9
$LTSCALE
 40
0.6431102362
  9
$OSMODE
 70
  2047
  9
$ATTMODE
 70
     1
  9
$TEXTSIZE
 40
0.2
  9
$TRACEWID
 40
0.05
  9
$TEXTSTYLE
  7
STANDARD
  9
$CLAYER
  8
0
  9
$CELTYPE
  6
BYLAYER
  9
$CECOLOR
 62
   256
  9
$DIMSCALE
 40
1.0
  9
$DIMASZ
 40
0.1875
  9
$DIMEXO
 40
0.0625
  9
$DIMDLI
 40
0.4443307087
  9
$DIMRND
 40
0.0
  9
$DIMDLE
 40
0.0
  9
$DIMEXE
 40
0.125
  9
$DIMTP
 40
0.01
  9
$DIMTM
 40
0.01
  9
$DIMTXT
 40
1.0
  9
$DIMCEN
 40
0.1052362205
  9
$DIMTSZ
 40
0.0
  9
$DIMTOL
 70
     1
  9
$DIMLIM
 70
     0
  9
$DIMTIH
 70
     1
  9
$DIMTOH
 70
     1
  9
$DIMSE1
 70
     0
  9
$DIMSE2
 70
     0
  9
$DIMTAD
 70
     0
  9
$DIMZIN
 70
     0
  9
$DIMBLK
  1

  9
$DIMASO
 70
     1
  9
$DIMSHO
 70
     1
  9
$DIMPOST
  1
\X
  9
$DIMAPOST
  1

  9
$DIMALT
 70
     1
  9
$DIMALTD
 70
     2
  9
$DIMALTF
 40
25.3999999999999986
  9
$DIMLFAC
 40
1.0
  9
$DIMTOFL
 70
     0
  9
$DIMTVP
 40
0.0
  9
$DIMTIX
 70
     0
  9
$DIMSOXD
 70
     0
  9
$DIMSAH
 70
     0
  9
$DIMBLK1
  1

  9
$DIMBLK2
  1

  9
$DIMSTYLE
  2
STANDARD
  9
$DIMCLRD
 70
     0
  9
$DIMCLRE
 70
     0
  9
$DIMCLRT
 70
     0
  9
$DIMTFAC
 40
1.0
  9
$DIMGAP
 40
0.09
  9
$LUNITS
 70
     2
  9
$LUPREC
 70
     4
  9
$SKETCHINC
 40
0.1
  9
$FILLETRAD
 40
0.0
  9
$AUNITS
 70
     0
  9
$AUPREC
 70
     0
  9
$MENU
  1
.
  9
$ELEVATION
 40
0.0
  9
$PELEVATION
 40
0.0
  9
$THICKNESS
 40
0.0
  9
$LIMCHECK
 70
     0
  9
$BLIPMODE
 70
     0
  9
$CHAMFERA
 40
0.0
  9
$CHAMFERB
 40
0.0
  9
$SKPOLY
 70
     0
  9
$TDCREATE
 40
2457704.4687268519774079
  9
$TDUPDATE
 40
2459031.5376736111938953
  9
$TDINDWG
 40
0.0378809375
  9
$TDUSRTIMER
 40
0.0378809375
  9
$USRTIMER
 70
     1
  9
$ANGBASE
 50
0.0
  9
$ANGDIR
 70
     0
  9
$PDMODE
 70
     0
  9
$PDSIZE
 40
0.3125
  9
$PLINEWID
 40
0.0
  9
$COORDS
 70
     1
  9
$SPLFRAME
 70
     0
  9
$SPLINETYPE
 70
     6
  9
$SPLINESEGS
 70
     8
  9
$ATTDIA
 70
     1
  9
$ATTREQ
 70
     1
  9
$HANDLING
 70
     1
  9
$HANDSEED
  5
23B8
  9
$SURFTAB1
 70
     6
  9
$SURFTAB2
 70
     6
  9
$SURFTYPE
 70
     6
  9
$SURFU
 70
     6
  9
$SURFV
 70
     6
  9
$UCSNAME
  2

  9
$UCSORG
 10
0.0
 20
0.0
 30
0.0
  9
$UCSXDIR
 10
1.0
 20
0.0
 30
0.0
  9
$UCSYDIR
 10
0.0
 20
1.0
 30
0.0
  9
$PUCSNAME
  2

  9
$PUCSORG
 10
0.0
 20
0.0
 30
0.0
  9
$PUCSXDIR
 10
1.0
 20
0.0
 30
0.0
  9
$PUCSYDIR
 10
0.0
 20
1.0
 30
0.0
  9
$USERI1
 70
     0
  9
$USERI2
 70
     0
  9
$USERI3
 70
     0
  9
$USERI4
 70
     0
  9
$USERI5
 70
     0
  9
$USERR1
 40
0.0
  9
$USERR2
 40
0.0
  9
$USERR3
 40
0.0
  9
$USERR4
 40
0.0
  9
$USERR5
 40
0.0
  9
$WORLDVIEW
 70
     1
  9
$SHADEDGE
 70
     3
  9
$SHADEDIF
 70
    70
  9
$TILEMODE
 70
     1
  9
$MAXACTVP
 70
    64
  9
$PLIMCHECK
 70
     0
  9
$PEXTMIN
 10
1.0000000000000000E+20
 20
1.0000000000000000E+20
 30
1.0000000000000000E+20
  9
$PEXTMAX
 10
-1.0000000000000000E+20
 20
-1.0000000000000000E+20
 30
-1.0000000000000000E+20
  9
$PLIMMIN
 10
0.0
 20
0.0
  9
$PLIMMAX
 10
12.0
 20
9.0
  9
$UNITMODE
 70
     0
  9
$VISRETAIN
 70
     1
  9
$PLINEGEN
 70
     0
  9
$PSLTSCALE
 70
     1
  0
ENDSEC
  0
SECTION
  2
TABLES
  0
TABLE
  2
VPORT
 70
     1
  0
VPORT
  2
*ACTIVE
 70
     0
 10
0.0
 20
0.0
 11
1.0
 21
1.0
 12
0.0002957237819103
 22
0.0000148609952362
 13
0.0
 23
0.0
 14
1.0
 24
1.0
 15
0.0
 25
0.0
 16
-0.0000000000000089
 26
0.0
 36
40.7505095764678487
 17
3.1812088489532471
 27
6.0096102356910697
 37
0.0
 40
10.0872280436225807
 41
2.7557803468208091
 42
50.0
 43
0.0
 44
0.0
 50
0.0
 51
0.0
 71
     0
 72
   100
 73
     1
 74
     1
 75
     0
 76
     0
 77
     0
 78
     0
  0
ENDTAB
  0
TABLE
  2
LTYPE
 70
     2
  0
LTYPE
  2
CONTINUOUS
 70
     0
  3
Solid line
 72
    65
 73
     0
 40
0.0
  0
LTYPE
  2
PHANTOM2
 70
     0
  3
___ _ _ ___ _ _ ___ _ _ ___ _ _
 72
    65
 73
     6
 40
1.25
 49
0.625
 49
-0.125
 49
0.125
 49
-0.125
 49
0.125
 49
-0.125
  0
ENDTAB
  0
TABLE
  2
LAYER
 70
     2
  0
LAYER
  2
0
 70
     0
 62
     7
  6
CONTINUOUS
  0
LAYER
  2
DEFPOINTS
 70
     0
 62
     7
  6
CONTINUOUS
  0
ENDTAB
  0
TABLE
  2
STYLE
 70
     1
  0
STYLE
  2
STANDARD
 70
     0
 40
0.0
 41
0.8
 50
0.0
 71
     0
 42
0.2
  3
txt
  4

  0
ENDTAB
  0
TABLE
  2
VIEW
 70
     0
  0
ENDTAB
  0
TABLE
  2
UCS
 70
     0
  0
ENDTAB
  0
TABLE
  2
APPID
 70
     7
  0
APPID
  2
ACAD
 70
     0
  0
APPID
  2
ACAD_DSTYLE_DIMJAG
 70
     0
  0
APPID
  2
ACAD_DSTYLE_DIMTALN
 70
     0
  0
APPID
  2
ACAD_NAV_VCDISPLAY
 70
     0
  0
APPID
  2
ACAD_EXEMPT_FROM_CAD_STANDARDS
 70
     0
  0
APPID
  2
ACAD_MLEADERVER
 70
     0
  0
APPID
  2
ACDBATTR
 70
     0
  0
ENDTAB
  0
TABLE
  2
DIMSTYLE
 70
     1
  0
DIMSTYLE
  2
STANDARD
 70
     0
  3

  4

  5

  6

  7

 40
1.0
 41
0.1875
 42
0.0625
 43
0.38
 44
0.125
 45
0.0
 46
0.0
 47
0.01
 48
0.01
140
0.15625
141
0.09
142
0.0
143
25.3999999999999986
144
1.0
145
0.0
146
1.0
147
0.09
 71
     1
 72
     0
 73
     1
 74
     1
 75
     0
 76
     0
 77
     0
 78
     4
170
     0
171
     2
172
     0
173
     0
174
     0
175
     0
176
     0
177
     0
178
     0
  0
ENDTAB
  0
ENDSEC
  0
SECTION
  2
BLOCKS
  0
BLOCK
  8
0
  2
$MODEL_SPACE
 70
     0
 10
0.0
 20
0.0
 30
0.0
  3
$MODEL_SPACE
  1

  0
ENDBLK
  5
21
  8
0
  0
BLOCK
 67
     1
  8
0
  2
$PAPER_SPACE
 70
     0
 10
0.0
 20
0.0
 30
0.0
  3
$PAPER_SPACE
  1

  0
ENDBLK
  5
1D
 67
     1
  8
0
  0
ENDSEC
  0
SECTION
  2
ENTITIES
  0
LINE
  5
219
  8
0
 10
-1.8187909452999991
 20
1.0096102819999999
 30
0.0
 11
-1.8187909452999991
 21
11.0096102820000006
 31
0.0
  0
LINE
  5
21A
  8
0
 10
-1.759735827199999
 20
1.0686654000999991
 30
0.0
 11
-1.759735827199999
 21
10.9505551639000007
 31
0.0
  0
LINE
  5
21B
  8
0
 10
-1.7479248035999999
 20
1.198586659999999
 30
0.0
 11
-1.7479248035999999
 21
10.8206339040999993
 31
0.0
  0
LINE
  5
21D
  8
0
 10
8.1812090547
 20
1.0096102819999999
 30
0.0
 11
-1.8187909452999991
 21
1.0096102819999999
 31
0.0
  0
LINE
  5
21E
  8
0
 10
8.1221539366000002
 20
1.0686654000999991
 30
0.0
 11
-1.759735827199999
 21
1.0686654000999991
 31
0.0
  0
LINE
  5
21F
  8
0
 10
7.9922326766999987
 20
1.0804764237999991
 30
0.0
 11
-1.6298145674
 21
1.0804764237999991
 31
0.0
  0
LINE
  5
1D5F
  8
0
 10
8.1103429129000002
 20
10.8206339040999993
 30
0.0
 11
8.1103429129000002
 21
1.198586659999999
 31
0.0
  0
LINE
  5
1D60
  8
0
 10
8.1221539366000002
 20
10.9505551639000007
 30
0.0
 11
8.1221539366000002
 21
1.0686654000999991
 31
0.0
  0
LINE
  5
1D61
  8
0
 10
8.1812090547
 20
11.0096102820000006
 30
0.0
 11
8.1812090547
 21
1.0096102819999999
 31
0.0
  0
LINE
  5
1D67
  8
0
 10
-1.6298145674
 20
10.9387441403000008
 30
0.0
 11
7.9922326766999987
 21
10.9387441403000008
 31
0.0
  0
LINE
  5
1D68
  8
0
 10
-1.759735827199999
 20
10.9505551639000007
 30
0.0
 11
8.1221539366000002
 21
10.9505551639000007
 31
0.0
  0
LINE
  5
1D69
  8
0
 10
-1.8187909452999991
 20
11.0096102820000006
 30
0.0
 11
8.1812090547
 21
11.0096102820000006
 31
0.0
  0
ARC
  5
1DFC
  8
0
 10
-1.6298145674
 20
1.198586659999999
 30
0.0
 40
0.1181102362
 50
180.0
 51
270.0
  0
ARC
  5
1E1D
  8
0
 10
-1.6298145674
 20
10.8206339040999993
 30
0.0
 40
0.1181102362
 50
90.0
 51
180.0
  0
ARC
  5
1E3A
  8
0
 10
7.9922326766999987
 20
1.198586659999999
 30
0.0
 40
0.1181102362
 50
270.0
 51
360.0
  0
ARC
  5
1E6C
  8
0
 10
7.9922326766999987
 20
10.8206339040999993
 30
0.0
 40
0.1181102362
 50
0.0
 51
90.0
  0
LINE
  5
20FB
  8
0
 10
7.9462978874000001
 20
2.8100025161
 30
0.0
 11
7.8885611668000006
 21
2.8100025161
 31
0.0
  0
LINE
  5
20FC
  8
0
 10
7.8885611668000006
 20
2.910005449499999
 30
0.0
 11
7.9462978874000001
 21
2.910005449499999
 31
0.0
  0
LINE
  5
20FD
  8
0
 10
7.8596928065
 20
2.8600039827999999
 30
0.0
 11
7.8885611668000006
 21
2.8100025161
 31
0.0
  0
LINE
  5
20FE
  8
0
 10
7.9751662475999989
 20
2.8600039827999999
 30
0.0
 11
7.9462978874000001
 21
2.910005449499999
 31
0.0
  0
LINE
  5
20FF
  8
0
 10
7.8885611668000006
 20
2.910005449499999
 30
0.0
 11
7.8596928065
 21
2.8600039827999999
 31
0.0
  0
LINE
  5
2100
  8
0
 10
7.9462978874000001
 20
2.8100025161
 30
0.0
 11
7.9751662475999989
 21
2.8600039827999999
 31
0.0
  0
CIRCLE
  5
2101
  8
0
 10
7.9174295271000004
 20
2.8600039827999999
 30
0.0
 40
0.1535433071
  0
CIRCLE
  5
2102
  8
0
 10
7.9174295271000004
 20
2.8600039827999999
 30
0.0
 40
0.1535433071
  0
LINE
  5
2103
  8
0
 10
6.3596837142
 20
1.2233883429000001
 30
0.0
 11
6.3019469936000014
 21
1.2233883429000001
 31
0.0
  0
LINE
  5
2104
  8
0
 10
6.3019469936000014
 20
1.3233912762999991
 30
0.0
 11
6.3596837142
 21
1.3233912762999991
 31
0.0
  0
LINE
  5
2105
  8
0
 10
6.2730786332999999
 20
1.2733898096
 30
0.0
 11
6.3019469936000014
 21
1.2233883429000001
 31
0.0
  0
LINE
  5
2106
  8
0
 10
6.3885520743999988
 20
1.2733898096
 30
0.0
 11
6.3596837142
 21
1.3233912762999991
 31
0.0
  0
LINE
  5
2107
  8
0
 10
6.3019469936000014
 20
1.3233912762999991
 30
0.0
 11
6.2730786332999999
 21
1.2733898096
 31
0.0
  0
LINE
  5
2108
  8
0
 10
6.3596837142
 20
1.2233883429000001
 30
0.0
 11
6.3885520743999988
 21
1.2733898096
 31
0.0
  0
CIRCLE
  5
2109
  8
0
 10
6.3308153539000003
 20
1.2733898096
 30
0.0
 40
0.1535433071
  0
CIRCLE
  5
210A
  8
0
 10
6.3308153539000003
 20
1.2733898096
 30
0.0
 40
0.1535433071
  0
LINE
  5
210B
  8
0
 10
3.2100774150000002
 20
1.2233883429000001
 30
0.0
 11
3.1523406944000012
 21
1.2233883429000001
 31
0.0
  0
LINE
  5
210C
  8
0
 10
3.1523406944000012
 20
1.3233912762999991
 30
0.0
 11
3.2100774150000002
 21
1.3233912762999991
 31
0.0
  0
LINE
  5
210D
  8
0
 10
3.1234723341000001
 20
1.2733898096
 30
0.0
 11
3.1523406944000012
 21
1.2233883429000001
 31
0.0
  0
LINE
  5
210E
  8
0
 10
3.238945775199999
 20
1.2733898096
 30
0.0
 11
3.2100774150000002
 21
1.3233912762999991
 31
0.0
  0
LINE
  5
210F
  8
0
 10
3.1523406944000012
 20
1.3233912762999991
 30
0.0
 11
3.1234723341000001
 21
1.2733898096
 31
0.0
  0
LINE
  5
2110
  8
0
 10
3.2100774150000002
 20
1.2233883429000001
 30
0.0
 11
3.238945775199999
 21
1.2733898096
 31
0.0
  0
CIRCLE
  5
2111
  8
0
 10
3.1812090547
 20
1.2733898096
 30
0.0
 40
0.1535433071
  0
CIRCLE
  5
2112
  8
0
 10
3.1812090547
 20
1.2733898096
 30
0.0
 40
0.1535433071
  0
LINE
  5
2113
  8
0
 10
0.0604711158000004
 20
1.2233883429000001
 30
0.0
 11
0.002734395200001
 21
1.2233883429000001
 31
0.0
  0
LINE
  5
2114
  8
0
 10
0.002734395200001
 20
1.3233912762999991
 30
0.0
 11
0.0604711158000004
 21
1.3233912762999991
 31
0.0
  0
LINE
  5
2115
  8
0
 10
-0.0261339650999997
 20
1.2733898096
 30
0.0
 11
0.002734395200001
 21
1.2233883429000001
 31
0.0
  0
LINE
  5
2116
  8
0
 10
0.0893394759999993
 20
1.2733898096
 30
0.0
 11
0.0604711158000004
 21
1.3233912762999991
 31
0.0
  0
LINE
  5
2117
  8
0
 10
0.002734395200001
 20
1.3233912762999991
 30
0.0
 11
-0.0261339650999997
 21
1.2733898096
 31
0.0
  0
LINE
  5
2118
  8
0
 10
0.0604711158000004
 20
1.2233883429000001
 30
0.0
 11
0.0893394759999993
 21
1.2733898096
 31
0.0
  0
CIRCLE
  5
2119
  8
0
 10
0.0316027554999998
 20
1.2733898096
 30
0.0
 40
0.1535433071
  0
CIRCLE
  5
211A
  8
0
 10
0.0316027554999998
 20
1.2733898096
 30
0.0
 40
0.1535433071
  0
LINE
  5
211B
  8
0
 10
-1.5261430574999979
 20
2.8100025161
 30
0.0
 11
-1.583879778099998
 21
2.8100025161
 31
0.0
  0
LINE
  5
211C
  8
0
 10
-1.583879778099998
 20
2.910005449499999
 30
0.0
 11
-1.5261430574999979
 21
2.910005449499999
 31
0.0
  0
LINE
  5
211D
  8
0
 10
-1.612748138399998
 20
2.8600039827999999
 30
0.0
 11
-1.583879778099998
 21
2.8100025161
 31
0.0
  0
LINE
  5
211E
  8
0
 10
-1.4972746972999991
 20
2.8600039827999999
 30
0.0
 11
-1.5261430574999979
 21
2.910005449499999
 31
0.0
  0
LINE
  5
211F
  8
0
 10
-1.583879778099998
 20
2.910005449499999
 30
0.0
 11
-1.612748138399998
 21
2.8600039827999999
 31
0.0
  0
LINE
  5
2120
  8
0
 10
-1.5261430574999979
 20
2.8100025161
 30
0.0
 11
-1.4972746972999991
 21
2.8600039827999999
 31
0.0
  0
CIRCLE
  5
2121
  8
0
 10
-1.555011417799999
 20
2.8600039827999999
 30
0.0
 40
0.1535433071
  0
CIRCLE
  5
2122
  8
0
 10
-1.555011417799999
 20
2.8600039827999999
 30
0.0
 40
0.1535433071
  0
LINE
  5
2123
  8
0
 10
-1.5261430574999979
 20
5.9596088153000011
 30
0.0
 11
-1.583879778099998
 21
5.9596088153000011
 31
0.0
  0
LINE
  5
2124
  8
0
 10
-1.583879778099998
 20
6.0596117487000001
 30
0.0
 11
-1.5261430574999979
 21
6.0596117487000001
 31
0.0
  0
LINE
  5
2125
  8
0
 10
-1.612748138399998
 20
6.0096102819999997
 30
0.0
 11
-1.583879778099998
 21
5.9596088153000011
 31
0.0
  0
LINE
  5
2126
  8
0
 10
-1.4972746972999991
 20
6.0096102819999997
 30
0.0
 11
-1.5261430574999979
 21
6.0596117487000001
 31
0.0
  0
LINE
  5
2127
  8
0
 10
-1.583879778099998
 20
6.0596117487000001
 30
0.0
 11
-1.612748138399998
 21
6.0096102819999997
 31
0.0
  0
LINE
  5
2128
  8
0
 10
-1.5261430574999979
 20
5.9596088153000011
 30
0.0
 11
-1.4972746972999991
 21
6.0096102819999997
 31
0.0
  0
CIRCLE
  5
2129
  8
0
 10
-1.555011417799999
 20
6.0096102819999997
 30
0.0
 40
0.1535433071
  0
CIRCLE
  5
212A
  8
0
 10
-1.555011417799999
 20
6.0096102819999997
 30
0.0
 40
0.1535433071
  0
LINE
  5
212B
  8
0
 10
-1.5261430574999979
 20
9.1092151145000013
 30
0.0
 11
-1.583879778099998
 21
9.1092151145000013
 31
0.0
  0
LINE
  5
212C
  8
0
 10
-1.583879778099998
 20
9.2092180479000003
 30
0.0
 11
-1.5261430574999979
 21
9.2092180479000003
 31
0.0
  0
LINE
  5
212D
  8
0
 10
-1.612748138399998
 20
9.1592165812000008
 30
0.0
 11
-1.583879778099998
 21
9.1092151145000013
 31
0.0
  0
LINE
  5
212E
  8
0
 10
-1.4972746972999991
 20
9.1592165812000008
 30
0.0
 11
-1.5261430574999979
 21
9.2092180479000003
 31
0.0
  0
LINE
  5
212F
  8
0
 10
-1.583879778099998
 20
9.2092180479000003
 30
0.0
 11
-1.612748138399998
 21
9.1592165812000008
 31
0.0
  0
LINE
  5
2130
  8
0
 10
-1.5261430574999979
 20
9.1092151145000013
 30
0.0
 11
-1.4972746972999991
 21
9.1592165812000008
 31
0.0
  0
CIRCLE
  5
2131
  8
0
 10
-1.555011417799999
 20
9.1592165812000008
 30
0.0
 40
0.1535433071
  0
CIRCLE
  5
2132
  8
0
 10
-1.555011417799999
 20
9.1592165812000008
 30
0.0
 40
0.1535433071
  0
LINE
  5
2133
  8
0
 10
0.0604711158000004
 20
10.6958292878000005
 30
0.0
 11
0.002734395200001
 21
10.6958292878000005
 31
0.0
  0
LINE
  5
2134
  8
0
 10
0.002734395200001
 20
10.7958322211999995
 30
0.0
 11
0.0604711158000004
 21
10.7958322211999995
 31
0.0
  0
LINE
  5
2135
  8
0
 10
-0.0261339650999997
 20
10.7458307545
 30
0.0
 11
0.002734395200001
 21
10.6958292878000005
 31
0.0
  0
LINE
  5
2136
  8
0
 10
0.0893394759999993
 20
10.7458307545
 30
0.0
 11
0.0604711158000004
 21
10.7958322211999995
 31
0.0
  0
LINE
  5
2137
  8
0
 10
0.002734395200001
 20
10.7958322211999995
 30
0.0
 11
-0.0261339650999997
 21
10.7458307545
 31
0.0
  0
LINE
  5
2138
  8
0
 10
0.0604711158000004
 20
10.6958292878000005
 30
0.0
 11
0.0893394759999993
 21
10.7458307545
 31
0.0
  0
CIRCLE
  5
2139
  8
0
 10
0.0316027554999998
 20
10.7458307545
 30
0.0
 40
0.1535433071
  0
CIRCLE
  5
213A
  8
0
 10
0.0316027554999998
 20
10.7458307545
 30
0.0
 40
0.1535433071
  0
LINE
  5
213B
  8
0
 10
3.2100774150000002
 20
10.6958292878000005
 30
0.0
 11
3.1523406944000012
 21
10.6958292878000005
 31
0.0
  0
LINE
  5
213C
  8
0
 10
3.1523406944000012
 20
10.7958322211999995
 30
0.0
 11
3.2100774150000002
 21
10.7958322211999995
 31
0.0
  0
LINE
  5
213D
  8
0
 10
3.1234723341000001
 20
10.7458307545
 30
0.0
 11
3.1523406944000012
 21
10.6958292878000005
 31
0.0
  0
LINE
  5
213E
  8
0
 10
3.238945775199999
 20
10.7458307545
 30
0.0
 11
3.2100774150000002
 21
10.7958322211999995
 31
0.0
  0
LINE
  5
213F
  8
0
 10
3.1523406944000012
 20
10.7958322211999995
 30
0.0
 11
3.1234723341000001
 21
10.7458307545
 31
0.0
  0
LINE
  5
2140
  8
0
 10
3.2100774150000002
 20
10.6958292878000005
 30
0.0
 11
3.238945775199999
 21
10.7458307545
 31
0.0
  0
CIRCLE
  5
2141
  8
0
 10
3.1812090547
 20
10.7458307545
 30
0.0
 40
0.1535433071
  0
CIRCLE
  5
2142
  8
0
 10
3.1812090547
 20
10.7458307545
 30
0.0
 40
0.1535433071
  0
LINE
  5
2143
  8
0
 10
6.3596837142
 20
10.6958292878000005
 30
0.0
 11
6.3019469936000014
 21
10.6958292878000005
 31
0.0
  0
LINE
  5
2144
  8
0
 10
6.3019469936000014
 20
10.7958322211999995
 30
0.0
 11
6.3596837142
 21
10.7958322211999995
 31
0.0
  0
LINE
  5
2145
  8
0
 10
6.2730786332999999
 20
10.7458307545
 30
0.0
 11
6.3019469936000014
 21
10.6958292878000005
 31
0.0
  0
LINE
  5
2146
  8
0
 10
6.3885520743999988
 20
10.7458307545
 30
0.0
 11
6.3596837142
 21
10.7958322211999995
 31
0.0
  0
LINE
  5
2147
  8
0
 10
6.3019469936000014
 20
10.7958322211999995
 30
0.0
 11
6.2730786332999999
 21
10.7458307545
 31
0.0
  0
LINE
  5
2148
  8
0
 10
6.3596837142
 20
10.6958292878000005
 30
0.0
 11
6.3885520743999988
 21
10.7458307545
 31
0.0
  0
CIRCLE
  5
2149
  8
0
 10
6.3308153539000003
 20
10.7458307545
 30
0.0
 40
0.1535433071
  0
CIRCLE
  5
214A
  8
0
 10
6.3308153539000003
 20
10.7458307545
 30
0.0
 40
0.1535433071
  0
LINE
  5
214B
  8
0
 10
7.9462978874000001
 20
9.1092151145000013
 30
0.0
 11
7.8885611668000006
 21
9.1092151145000013
 31
0.0
  0
LINE
  5
214C
  8
0
 10
7.8885611668000006
 20
9.2092180479000003
 30
0.0
 11
7.9462978874000001
 21
9.2092180479000003
 31
0.0
  0
LINE
  5
214D
  8
0
 10
7.8596928065
 20
9.1592165812000008
 30
0.0
 11
7.8885611668000006
 21
9.1092151145000013
 31
0.0
  0
LINE
  5
214E
  8
0
 10
7.9751662475999989
 20
9.1592165812000008
 30
0.0
 11
7.9462978874000001
 21
9.2092180479000003
 31
0.0
  0
LINE
  5
214F
  8
0
 10
7.8885611668000006
 20
9.2092180479000003
 30
0.0
 11
7.8596928065
 21
9.1592165812000008
 31
0.0
  0
LINE
  5
2150
  8
0
 10
7.9462978874000001
 20
9.1092151145000013
 30
0.0
 11
7.9751662475999989
 21
9.1592165812000008
 31
0.0
  0
CIRCLE
  5
2151
  8
0
 10
7.9174295271000004
 20
9.1592165812000008
 30
0.0
 40
0.1535433071
  0
CIRCLE
  5
2152
  8
0
 10
7.9174295271000004
 20
9.1592165812000008
 30
0.0
 40
0.1535433071
  0
LINE
  5
2153
  8
0
 10
7.9462978874000001
 20
5.9596088153000011
 30
0.0
 11
7.8885611668000006
 21
5.9596088153000011
 31
0.0
  0
LINE
  5
2154
  8
0
 10
7.8885611668000006
 20
6.0596117487000001
 30
0.0
 11
7.9462978874000001
 21
6.0596117487000001
 31
0.0
  0
LINE
  5
2155
  8
0
 10
7.8596928065
 20
6.0096102819999997
 30
0.0
 11
7.8885611668000006
 21
5.9596088153000011
 31
0.0
  0
LINE
  5
2156
  8
0
 10
7.9751662475999989
 20
6.0096102819999997
 30
0.0
 11
7.9462978874000001
 21
6.0596117487000001
 31
0.0
  0
LINE
  5
2157
  8
0
 10
7.8885611668000006
 20
6.0596117487000001
 30
0.0
 11
7.8596928065
 21
6.0096102819999997
 31
0.0
  0
LINE
  5
2158
  8
0
 10
7.9462978874000001
 20
5.9596088153000011
 30
0.0
 11
7.9751662475999989
 21
6.0096102819999997
 31
0.0
  0
CIRCLE
  5
2159
  8
0
 10
7.9174295271000004
 20
6.0096102819999997
 30
0.0
 40
0.1535433071
  0
CIRCLE
  5
215A
  8
0
 10
7.9174295271000004
 20
6.0096102819999997
 30
0.0
 40
0.1535433071
  0
LINE
  5
215B
  8
0
 10
2.9793161887999982
 20
5.320633904100001
 30
0.0
 11
3.3870389285
 21
5.320633904100001
 31
0.0
  0
LINE
  5
215C
  8
0
 10
2.9793161887999982
 20
6.698586660000001
 30
0.0
 11
3.3870389285
 21
6.698586660000001
 31
0.0
  0
CIRCLE
  5
215D
  8
0
 10
3.1831775586000002
 20
6.0096102820000006
 30
0.0
 40
0.7185039370000001
  0
CIRCLE
  5
215E
  8
0
 10
3.1831775586000002
 20
6.0096102820000006
 30
0.0
 40
0.2760407044171993
  0
CIRCLE
  5
2161
  8
0
 10
3.1831775586000002
 20
6.0096102820000006
 30
0.0
 40
0.3699999999999992
  0
CIRCLE
  5
2162
  8
0
 10
3.1831775586000002
 20
6.0096102820000006
 30
0.0
 40
0.4351000236999987
  0
CIRCLE
  5
2163
  8
0
 10
3.1831775586000002
 20
6.0096102820000006
 30
0.0
 40
0.4749999964999994
  0
CIRCLE
  5
2164
  8
0
 10
3.1831775586000002
 20
6.0096102820000006
 30
0.0
 40
0.5039370078999981
  0
ATTDEF
  5
2189
  8
DEFPOINTS
 10
3.189796011881227
 20
6.0199424113356912
 30
0.0
 40
0.001
  1
SHOWERHEAD
  3

  2
PRODUCT
 70
     0
1001
ACDBATTR
1070
     0
1070
     1
  0
ATTDEF
  5
218A
  8
DEFPOINTS
 10
3.189796011881227
 20
6.0216090780023563
 30
0.0
 40
0.001
  1

  3

  2
TRADENAME
 70
     0
1001
ACDBATTR
1070
     0
1070
     1
  0
ATTDEF
  5
218B
  8
DEFPOINTS
 10
3.189796011881227
 20
6.0232757446690206
 30
0.0
 40
0.001
  1
K-13696W
  3

  2
MODELNUMBER
 70
     0
1001
ACDBATTR
1070
     0
1070
     1
  0
ENDSEC
  0
EOF
