  0
SECTION
  2
HEADER
  9
$ACADVER
  1
AC1009
  9
$INSBASE
 10
3.1831775585999988
 20
-2.806792844499999
 30
0.0
  9
$EXTMIN
 10
-1.819203258333622
 20
-5.3861779876890017
 30
-0.0015258207003583
  9
$EXTMAX
 10
8.1822124038039377
 20
-2.8007339616035831
 30
0.0000000349246037
  9
$LIMMIN
 10
0.0
 20
0.0
  9
$LIMMAX
 10
11.6929133858000007
 20
8.2677165353999982
  9
$ORTHOMODE
 70
     0
  9
$REGENMODE
 70
     1
  9
$FILLMODE
 70
     1
  9
$QTEXTMODE
 70
     0
  9
$MIRRTEXT
 70
     0
  9
$DRAGMODE
 70
     2
  9
$LTSCALE
 40
0.6431102362
  9
$OSMODE
 70
  2047
  9
$ATTMODE
 70
     1
  9
$TEXTSIZE
 40
0.2
  9
$TRACEWID
 40
0.05
  9
$TEXTSTYLE
  7
STANDARD
  9
$CLAYER
  8
0
  9
$CELTYPE
  6
BYLAYER
  9
$CECOLOR
 62
   256
  9
$DIMSCALE
 40
1.0
  9
$DIMASZ
 40
0.1875
  9
$DIMEXO
 40
0.0625
  9
$DIMDLI
 40
0.4443307087
  9
$DIMRND
 40
0.0
  9
$DIMDLE
 40
0.0
  9
$DIMEXE
 40
0.125
  9
$DIMTP
 40
0.01
  9
$DIMTM
 40
0.01
  9
$DIMTXT
 40
1.0
  9
$DIMCEN
 40
0.1052362205
  9
$DIMTSZ
 40
0.0
  9
$DIMTOL
 70
     1
  9
$DIMLIM
 70
     0
  9
$DIMTIH
 70
     1
  9
$DIMTOH
 70
     1
  9
$DIMSE1
 70
     0
  9
$DIMSE2
 70
     0
  9
$DIMTAD
 70
     0
  9
$DIMZIN
 70
     0
  9
$DIMBLK
  1

  9
$DIMASO
 70
     1
  9
$DIMSHO
 70
     1
  9
$DIMPOST
  1
\X
  9
$DIMAPOST
  1

  9
$DIMALT
 70
     1
  9
$DIMALTD
 70
     2
  9
$DIMALTF
 40
25.3999999999999986
  9
$DIMLFAC
 40
1.0
  9
$DIMTOFL
 70
     0
  9
$DIMTVP
 40
0.0
  9
$DIMTIX
 70
     0
  9
$DIMSOXD
 70
     0
  9
$DIMSAH
 70
     0
  9
$DIMBLK1
  1

  9
$DIMBLK2
  1

  9
$DIMSTYLE
  2
STANDARD
  9
$DIMCLRD
 70
     0
  9
$DIMCLRE
 70
     0
  9
$DIMCLRT
 70
     0
  9
$DIMTFAC
 40
1.0
  9
$DIMGAP
 40
0.09
  9
$LUNITS
 70
     2
  9
$LUPREC
 70
     4
  9
$SKETCHINC
 40
0.1
  9
$FILLETRAD
 40
0.0
  9
$AUNITS
 70
     0
  9
$AUPREC
 70
     0
  9
$MENU
  1
.
  9
$ELEVATION
 40
0.0
  9
$PELEVATION
 40
0.0
  9
$THICKNESS
 40
0.0
  9
$LIMCHECK
 70
     0
  9
$BLIPMODE
 70
     0
  9
$CHAMFERA
 40
0.0
  9
$CHAMFERB
 40
0.0
  9
$SKPOLY
 70
     0
  9
$TDCREATE
 40
2457704.4687268519774079
  9
$TDUPDATE
 40
2459031.5379166668280959
  9
$TDINDWG
 40
0.038585
  9
$TDUSRTIMER
 40
0.038585
  9
$USRTIMER
 70
     1
  9
$ANGBASE
 50
0.0
  9
$ANGDIR
 70
     0
  9
$PDMODE
 70
     0
  9
$PDSIZE
 40
0.3125
  9
$PLINEWID
 40
0.0
  9
$COORDS
 70
     1
  9
$SPLFRAME
 70
     0
  9
$SPLINETYPE
 70
     6
  9
$SPLINESEGS
 70
     8
  9
$ATTDIA
 70
     1
  9
$ATTREQ
 70
     1
  9
$HANDLING
 70
     1
  9
$HANDSEED
  5
23B8
  9
$SURFTAB1
 70
     6
  9
$SURFTAB2
 70
     6
  9
$SURFTYPE
 70
     6
  9
$SURFU
 70
     6
  9
$SURFV
 70
     6
  9
$UCSNAME
  2

  9
$UCSORG
 10
0.0
 20
0.0
 30
0.0
  9
$UCSXDIR
 10
1.0
 20
0.0
 30
0.0
  9
$UCSYDIR
 10
0.0
 20
1.0
 30
0.0
  9
$PUCSNAME
  2

  9
$PUCSORG
 10
0.0
 20
0.0
 30
0.0
  9
$PUCSXDIR
 10
1.0
 20
0.0
 30
0.0
  9
$PUCSYDIR
 10
0.0
 20
1.0
 30
0.0
  9
$USERI1
 70
     0
  9
$USERI2
 70
     0
  9
$USERI3
 70
     0
  9
$USERI4
 70
     0
  9
$USERI5
 70
     0
  9
$USERR1
 40
0.0
  9
$USERR2
 40
0.0
  9
$USERR3
 40
0.0
  9
$USERR4
 40
0.0
  9
$USERR5
 40
0.0
  9
$WORLDVIEW
 70
     1
  9
$SHADEDGE
 70
     3
  9
$SHADEDIF
 70
    70
  9
$TILEMODE
 70
     1
  9
$MAXACTVP
 70
    64
  9
$PLIMCHECK
 70
     0
  9
$PEXTMIN
 10
1.0000000000000000E+20
 20
1.0000000000000000E+20
 30
1.0000000000000000E+20
  9
$PEXTMAX
 10
-1.0000000000000000E+20
 20
-1.0000000000000000E+20
 30
-1.0000000000000000E+20
  9
$PLIMMIN
 10
0.0
 20
0.0
  9
$PLIMMAX
 10
12.0
 20
9.0
  9
$UNITMODE
 70
     0
  9
$VISRETAIN
 70
     1
  9
$PLINEGEN
 70
     0
  9
$PSLTSCALE
 70
     1
  0
ENDSEC
  0
SECTION
  2
TABLES
  0
TABLE
  2
VPORT
 70
     1
  0
VPORT
  2
*ACTIVE
 70
     0
 10
0.0
 20
0.0
 11
1.0
 21
1.0
 12
0.0002957237819103
 22
-0.0047955300056382
 13
0.0
 23
0.0
 14
1.0
 24
1.0
 15
0.0
 25
0.0
 16
-0.0000000000000067
 26
0.0
 36
29.7687812281221298
 17
3.1812088489532471
 27
-4.088660444640654
 37
0.0
 40
3.6406521844625161
 41
2.7557803468208091
 42
50.0
 43
0.0
 44
0.0
 50
0.0
 51
0.0
 71
     0
 72
   100
 73
     1
 74
     1
 75
     0
 76
     0
 77
     0
 78
     0
  0
ENDTAB
  0
TABLE
  2
LTYPE
 70
     2
  0
LTYPE
  2
CONTINUOUS
 70
     0
  3
Solid line
 72
    65
 73
     0
 40
0.0
  0
LTYPE
  2
PHANTOM2
 70
     0
  3
___ _ _ ___ _ _ ___ _ _ ___ _ _
 72
    65
 73
     6
 40
1.25
 49
0.625
 49
-0.125
 49
0.125
 49
-0.125
 49
0.125
 49
-0.125
  0
ENDTAB
  0
TABLE
  2
LAYER
 70
     2
  0
LAYER
  2
0
 70
     0
 62
     7
  6
CONTINUOUS
  0
LAYER
  2
DEFPOINTS
 70
     0
 62
     7
  6
CONTINUOUS
  0
ENDTAB
  0
TABLE
  2
STYLE
 70
     1
  0
STYLE
  2
STANDARD
 70
     0
 40
0.0
 41
0.8
 50
0.0
 71
     0
 42
0.2
  3
txt
  4

  0
ENDTAB
  0
TABLE
  2
VIEW
 70
     0
  0
ENDTAB
  0
TABLE
  2
UCS
 70
     0
  0
ENDTAB
  0
TABLE
  2
APPID
 70
     7
  0
APPID
  2
ACAD
 70
     0
  0
APPID
  2
ACAD_DSTYLE_DIMJAG
 70
     0
  0
APPID
  2
ACAD_DSTYLE_DIMTALN
 70
     0
  0
APPID
  2
ACAD_NAV_VCDISPLAY
 70
     0
  0
APPID
  2
ACAD_EXEMPT_FROM_CAD_STANDARDS
 70
     0
  0
APPID
  2
ACAD_MLEADERVER
 70
     0
  0
APPID
  2
ACDBATTR
 70
     0
  0
ENDTAB
  0
TABLE
  2
DIMSTYLE
 70
     1
  0
DIMSTYLE
  2
STANDARD
 70
     0
  3

  4

  5

  6

  7

 40
1.0
 41
0.1875
 42
0.0625
 43
0.38
 44
0.125
 45
0.0
 46
0.0
 47
0.01
 48
0.01
140
0.15625
141
0.09
142
0.0
143
25.3999999999999986
144
1.0
145
0.0
146
1.0
147
0.09
 71
     1
 72
     0
 73
     1
 74
     1
 75
     0
 76
     0
 77
     0
 78
     4
170
     0
171
     2
172
     0
173
     0
174
     0
175
     0
176
     0
177
     0
178
     0
  0
ENDTAB
  0
ENDSEC
  0
SECTION
  2
BLOCKS
  0
BLOCK
  8
0
  2
$MODEL_SPACE
 70
     0
 10
0.0
 20
0.0
 30
0.0
  3
$MODEL_SPACE
  1

  0
ENDBLK
  5
21
  8
0
  0
BLOCK
 67
     1
  8
0
  2
$PAPER_SPACE
 70
     0
 10
0.0
 20
0.0
 30
0.0
  3
$PAPER_SPACE
  1

  0
ENDBLK
  5
1D
 67
     1
  8
0
  0
ENDSEC
  0
SECTION
  2
ENTITIES
  0
LINE
  5
1D70
  8
0
 10
-1.8187909452999991
 20
-4.8633204035000004
 30
0.0
 11
-1.8187909452999991
 21
-5.3058400885000001
 31
0.0
  0
LINE
  5
1D71
  8
0
 10
-1.0459380783000001
 20
-5.3790278530999993
 30
0.0
 11
-1.0522718572
 21
-5.3357613484000002
 31
0.0
  0
LINE
  5
1D72
  8
0
 10
-0.9381005052999999
 20
-5.3790278530999993
 30
0.0
 11
-0.9317667262999998
 21
-5.3357613484000002
 31
0.0
  0
LINE
  5
1D73
  8
0
 10
-0.0026309917
 20
-5.3790278530999993
 30
0.0
 11
-0.0089647706
 21
-5.3357613484000002
 31
0.0
  0
LINE
  5
1D74
  8
0
 10
0.1052065813
 20
-5.3790278530999993
 30
0.0
 11
0.1115403603
 21
-5.3357613484000002
 31
0.0
  0
LINE
  5
1D75
  8
0
 10
1.0406760949
 20
-5.3790278530999993
 30
0.0
 11
1.034342316
 21
-5.3357613484000002
 31
0.0
  0
LINE
  5
1D76
  8
0
 10
1.148513667999999
 20
-5.3790278530999993
 30
0.0
 11
1.1548474469000001
 21
-5.3357613484000002
 31
0.0
  0
LINE
  5
1D77
  8
0
 10
-1.0381471004
 20
-5.3857613483999991
 30
0.0
 11
-0.9458914831999999
 21
-5.3857613483999991
 31
0.0
  0
LINE
  5
1D78
  8
0
 10
0.0051599862
 20
-5.3857613483999991
 30
0.0
 11
0.0974156034
 21
-5.3857613483999991
 31
0.0
  0
LINE
  5
1D79
  8
0
 10
1.0484670729000001
 20
-5.3857613483999991
 30
0.0
 11
1.14072269
 21
-5.3857613483999991
 31
0.0
  0
LINE
  5
1D7A
  8
0
 10
2.091774159499999
 20
-5.3857613483999991
 30
0.0
 11
2.1840297766000001
 21
-5.3857613483999991
 31
0.0
  0
LINE
  5
1D7B
  8
0
 10
3.1350812460999991
 20
-5.3857613483999991
 30
0.0
 11
3.2273368632999988
 21
-5.3857613483999991
 31
0.0
  0
LINE
  5
1D7C
  8
0
 10
4.1783883326999991
 20
-5.3857613483999991
 30
0.0
 11
4.2706439499000002
 21
-5.3857613483999991
 31
0.0
  0
LINE
  5
1D7D
  8
0
 10
5.2216954192999996
 20
-5.3857613483999991
 30
0.0
 11
5.3139510364999989
 21
-5.3857613483999991
 31
0.0
  0
LINE
  5
1D7E
  8
0
 10
6.2650025059000001
 20
-5.3857613483999991
 30
0.0
 11
6.3572581230999994
 21
-5.3857613483999991
 31
0.0
  0
LINE
  5
1D7F
  8
0
 10
7.3083095924999988
 20
-5.3857613483999991
 30
0.0
 11
7.400565209699999
 21
-5.3857613483999991
 31
0.0
  0
LINE
  5
1D89
  8
0
 10
8.1512877947999982
 20
-5.3357613484000002
 30
0.0
 11
-1.7888696854999999
 21
-5.3357613484000002
 31
0.0
  0
LINE
  5
1D8B
  8
0
 10
2.0839831814999998
 20
-5.3790278530999993
 30
0.0
 11
2.0776494026000001
 21
-5.3357613484000002
 31
0.0
  0
LINE
  5
1D8C
  8
0
 10
2.4646736215999989
 20
-3.8003282774999989
 30
0.0
 11
2.4646736215999989
 21
-4.8633204035000004
 31
0.0
  0
LINE
  5
1D8D
  8
0
 10
2.1918207546000001
 20
-5.3790278530999993
 30
0.0
 11
2.198154533499999
 21
-5.3357613484000002
 31
0.0
  0
LINE
  5
1D8E
  8
0
 10
8.1812090547
 20
-4.8633204035000004
 30
0.0
 11
-1.8187909452999991
 21
-4.8633204035000004
 31
0.0
  0
LINE
  5
1D92
  8
0
 10
2.6881775586000001
 20
-2.826792844499999
 30
0.0
 11
2.6881775586000001
 21
-2.9326507087999989
 31
0.0
  0
LINE
  5
1D93
  8
0
 10
2.7281775586000001
 20
-2.9809349799999989
 30
0.0
 11
2.7281775586000001
 21
-3.4714607440999998
 31
0.0
  0
LINE
  5
1D95
  8
0
 10
3.641106490799999
 20
-2.9738639123000001
 30
0.0
 11
3.6752486263999988
 21
-2.9397217765999999
 31
0.0
  0
LINE
  5
1D9A
  8
0
 10
2.9793161887999999
 20
-3.8003282774999989
 30
0.0
 11
2.9793161887999999
 21
-4.2727692224
 31
0.0
  0
LINE
  5
1D9B
  8
0
 10
3.3870389285
 20
-4.2727692224
 30
0.0
 11
2.9793161887999999
 21
-4.2727692224
 31
0.0
  0
LINE
  5
1D9C
  8
0
 10
3.127290268199999
 20
-5.3790278530999993
 30
0.0
 11
3.1209564892000001
 21
-5.3357613484000002
 31
0.0
  0
LINE
  5
1D9D
  8
0
 10
3.3870389285
 20
-4.2727692224
 30
0.0
 11
3.3870389285
 21
-3.8003282774999989
 31
0.0
  0
LINE
  5
1D9E
  8
0
 10
3.2351278412000002
 20
-5.3790278530999993
 30
0.0
 11
3.2414616200999991
 21
-5.3357613484000002
 31
0.0
  0
LINE
  5
1D9F
  8
0
 10
3.9016814956000001
 20
-3.8003282774999989
 30
0.0
 11
2.4646736215999989
 21
-3.8003282774999989
 31
0.0
  0
LINE
  5
1DA1
  8
0
 10
3.6381775585999998
 20
-2.9809349801999989
 30
0.0
 11
3.6381775585999998
 21
-3.4714607440999998
 31
0.0
  0
LINE
  5
1DA2
  8
0
 10
3.6781775585999998
 20
-2.826792844499999
 30
0.0
 11
3.6781775585999998
 21
-2.9326507087999989
 31
0.0
  0
LINE
  5
1DA3
  8
0
 10
3.9016814956000001
 20
-3.8003282774999989
 30
0.0
 11
3.9016814956000001
 21
-4.8633204035000004
 31
0.0
  0
LINE
  5
1DAD
  8
0
 10
2.6911064907999989
 20
-2.9397217765999999
 30
0.0
 11
2.7252486263999991
 21
-2.9738639123000001
 31
0.0
  0
LINE
  5
1DAF
  8
0
 10
4.170597354799999
 20
-5.3790278530999993
 30
0.0
 11
4.1642635757999988
 21
-5.3357613484000002
 31
0.0
  0
LINE
  5
1DB0
  8
0
 10
4.2784349277999993
 20
-5.3790278530999993
 30
0.0
 11
4.2847687067000004
 21
-5.3357613484000002
 31
0.0
  0
LINE
  5
1DB4
  8
0
 10
3.6581698427
 20
-2.806792844499999
 30
0.0
 11
2.708185274499999
 21
-2.806792844499999
 31
0.0
  0
LINE
  5
1DB5
  8
0
 10
5.2139044413999986
 20
-5.3790278530999993
 30
0.0
 11
5.2075706624000002
 21
-5.3357613484000002
 31
0.0
  0
LINE
  5
1DB6
  8
0
 10
5.3217420143999989
 20
-5.3790278530999993
 30
0.0
 11
5.3280757934
 21
-5.3357613484000002
 31
0.0
  0
LINE
  5
1DB7
  8
0
 10
6.2572115279999991
 20
-5.3790278530999993
 30
0.0
 11
6.2508777490999989
 21
-5.3357613484000002
 31
0.0
  0
LINE
  5
1DB8
  8
0
 10
6.3650491010000003
 20
-5.3790278530999993
 30
0.0
 11
6.3713828799999987
 21
-5.3357613484000002
 31
0.0
  0
LINE
  5
1DB9
  8
0
 10
7.3005186145999996
 20
-5.3790278530999993
 30
0.0
 11
7.2941848357000003
 21
-5.3357613484000002
 31
0.0
  0
LINE
  5
1DBA
  8
0
 10
7.408356187599999
 20
-5.3790278530999993
 30
0.0
 11
7.4146899665999992
 21
-5.3357613484000002
 31
0.0
  0
LINE
  5
1DBB
  8
0
 10
8.1812090547
 20
-4.8633204035000004
 30
0.0
 11
8.1812090547
 21
-5.3058400885000001
 31
0.0
  0
ARC
  5
1E6D
  8
0
 10
-1.7888696854999999
 20
-5.3058400885000001
 30
0.0
 40
0.0299212598
 50
180.0
 51
270.0
  0
ARC
  5
1E6E
  8
0
 10
3.1350812460999991
 20
-5.3778873326000003
 30
0.0
 40
0.0078740157
 50
188.3283668704999911
 51
270.0
  0
ARC
  5
1E6F
  8
0
 10
-1.0381471004
 20
-5.3778873326000003
 30
0.0
 40
0.0078740157
 50
188.3283668704999911
 51
270.0
  0
ARC
  5
1E70
  8
0
 10
-0.9458914831999999
 20
-5.3778873326000003
 30
0.0
 40
0.0078740157
 50
270.0
 51
351.6716331294999804
  0
ARC
  5
1E71
  8
0
 10
0.0051599862
 20
-5.3778873326000003
 30
0.0
 40
0.0078740157
 50
188.3283668704999911
 51
270.0
  0
ARC
  5
1E72
  8
0
 10
0.0974156034
 20
-5.3778873326000003
 30
0.0
 40
0.0078740157
 50
270.0
 51
351.6716331294999804
  0
ARC
  5
1E73
  8
0
 10
1.0484670729000001
 20
-5.3778873326000003
 30
0.0
 40
0.0078740157
 50
188.3283668704999911
 51
270.0
  0
ARC
  5
1E74
  8
0
 10
1.14072269
 20
-5.3778873326000003
 30
0.0
 40
0.0078740157
 50
270.0
 51
351.6716331294999804
  0
ARC
  5
1E75
  8
0
 10
2.091774159499999
 20
-5.3778873326000003
 30
0.0
 40
0.0078740157
 50
188.3283668704999911
 51
270.0
  0
ARC
  5
1E76
  8
0
 10
2.1840297766000001
 20
-5.3778873326000003
 30
0.0
 40
0.0078740157
 50
270.0
 51
351.6716331294999804
  0
ARC
  5
1E77
  8
0
 10
2.9181775586000001
 20
-3.3449696376999989
 30
0.0
 40
0.23
 50
215.0968012275000092
 51
247.459689536500008
  0
ARC
  5
1E78
  8
0
 10
2.8031775585999998
 20
-3.622052657799999
 30
0.0
 40
0.07
 50
309.4534797991000232
 51
67.4596895364999938
  0
ARC
  5
1E7A
  8
0
 10
2.7081775586000001
 20
-2.826792844499999
 30
0.0
 40
0.02
 50
89.9999898466000161
 51
180.0
  0
ARC
  5
1E7B
  8
0
 10
2.6981909374000002
 20
-2.9326454116999998
 30
0.0
 40
0.0100130125
 50
180.0303099998999983
 51
224.9673007122000001
  0
ARC
  5
1E7C
  8
0
 10
2.7181775585999999
 20
-2.9809349800999989
 30
0.0
 40
0.01
 50
0.0000001541
 51
45.0
  0
ARC
  5
1E7D
  8
0
 10
8.1512877947999982
 20
-5.3058400885000001
 30
0.0
 40
0.0299212598
 50
270.0
 51
360.0
  0
ARC
  5
1E7E
  8
0
 10
3.2273368632999988
 20
-5.3778873326000003
 30
0.0
 40
0.0078740157
 50
270.0
 51
351.6716331294999804
  0
ARC
  5
1E7F
  8
0
 10
4.2706439499000002
 20
-5.3778873326000003
 30
0.0
 40
0.0078740157
 50
270.0
 51
351.6716331294999804
  0
ARC
  5
1E80
  8
0
 10
4.1783883326999991
 20
-5.3778873326000003
 30
0.0
 40
0.0078740157
 50
188.3283668704999911
 51
270.0
  0
ARC
  5
1E81
  8
0
 10
5.3139510364999989
 20
-5.3778873326000003
 30
0.0
 40
0.0078740157
 50
270.0
 51
351.6716331294999804
  0
ARC
  5
1E82
  8
0
 10
5.2216954192999996
 20
-5.3778873326000003
 30
0.0
 40
0.0078740157
 50
188.3283668704999911
 51
270.0
  0
ARC
  5
1E83
  8
0
 10
6.3572581230999994
 20
-5.3778873326000003
 30
0.0
 40
0.0078740157
 50
270.0
 51
351.6716331294999804
  0
ARC
  5
1E84
  8
0
 10
6.2650025059000001
 20
-5.3778873326000003
 30
0.0
 40
0.0078740157
 50
188.3283668704999911
 51
270.0
  0
ARC
  5
1E85
  8
0
 10
7.400565209699999
 20
-5.3778873326000003
 30
0.0
 40
0.0078740157
 50
270.0
 51
351.6716331294999804
  0
ARC
  5
1E86
  8
0
 10
7.3083095924999988
 20
-5.3778873326000003
 30
0.0
 40
0.0078740157
 50
188.3283668704999911
 51
270.0
  0
ARC
  5
1E87
  8
0
 10
3.1831775586000002
 20
-4.0837928444999987
 30
0.0
 40
0.5280000000000001
 50
129.4534797990999948
 51
147.5202772487000118
  0
ARC
  5
1E88
  8
0
 10
3.1831775586000002
 20
-4.0837928444999987
 30
0.0
 40
0.5280000000000001
 50
32.4797227510999988
 51
50.546520200899991
  0
ARC
  5
1E89
  8
0
 10
3.4481775585999999
 20
-3.3449696376999989
 30
0.0
 40
0.23
 50
292.5403104635000204
 51
324.9031987724999908
  0
ARC
  5
1E8A
  8
0
 10
3.5631775586000001
 20
-3.622052657799999
 30
0.0
 40
0.07
 50
112.5403104635000062
 51
230.5465202009000052
  0
ARC
  5
1E8B
  8
0
 10
3.6581775585999998
 20
-2.826792844499999
 30
0.0
 40
0.02
 50
0.0
 51
90.0000101533999981
  0
ARC
  5
1E90
  8
0
 10
3.6681641804999998
 20
-2.9326454110000002
 30
0.0
 40
0.0100130125
 50
315.0326933128000064
 51
359.9696856927999988
  0
ARC
  5
1E91
  8
0
 10
3.6481775586
 20
-2.9809349800999989
 30
0.0
 40
0.01
 50
135.0000000000999876
 51
180.0
  0
ATTDEF
  5
2188
  8
DEFPOINTS
 10
3.2103131309837059
 20
-2.8022157476868301
 30
0.0
 40
0.001
  1
K-13696W
  3

  2
MODELNUMBER
 70
     0
1001
ACDBATTR
1070
     0
1070
     1
  0
ATTDEF
  5
2189
  8
DEFPOINTS
 10
3.2103131309837059
 20
-2.8038824143534948
 30
0.0
 40
0.001
  1

  3

  2
TRADENAME
 70
     0
1001
ACDBATTR
1070
     0
1070
     1
  0
ATTDEF
  5
218A
  8
DEFPOINTS
 10
3.2103131309837059
 20
-2.80554908102016
 30
0.0
 40
0.001
  1
SHOWERHEAD
  3

  2
PRODUCT
 70
     0
1001
ACDBATTR
1070
     0
1070
     1
  0
ENDSEC
  0
EOF
