  0
SECTION
  2
HEADER
  9
$ACADVER
  1
AC1009
  9
$INSBASE
 10
5.8892953343865448
 20
1.1255592390782261
 30
0.0
  9
$EXTMIN
 10
0.676458946137821
 20
-2.5808265877217731
 30
0.0
  9
$EXTMAX
 10
11.1021318167749392
 20
1.1255592390782281
 30
0.0
  9
$LIMMIN
 10
0.0
 20
0.0
  9
$LIMMAX
 10
11.6929133858000007
 20
8.2677165353999982
  9
$ORTHOMODE
 70
     0
  9
$REGENMODE
 70
     1
  9
$FILLMODE
 70
     1
  9
$QTEXTMODE
 70
     0
  9
$MIRRTEXT
 70
     0
  9
$DRAGMODE
 70
     2
  9
$LTSCALE
 40
0.6431102362
  9
$OSMODE
 70
  3839
  9
$ATTMODE
 70
     1
  9
$TEXTSIZE
 40
0.2
  9
$TRACEWID
 40
0.05
  9
$TEXTSTYLE
  7
STANDARD
  9
$CLAYER
  8
0
  9
$CELTYPE
  6
BYLAYER
  9
$CECOLOR
 62
   256
  9
$DIMSCALE
 40
1.0
  9
$DIMASZ
 40
0.1875
  9
$DIMEXO
 40
0.0625
  9
$DIMDLI
 40
0.4443307087
  9
$DIMRND
 40
0.0
  9
$DIMDLE
 40
0.0
  9
$DIMEXE
 40
0.125
  9
$DIMTP
 40
0.01
  9
$DIMTM
 40
0.01
  9
$DIMTXT
 40
1.0
  9
$DIMCEN
 40
0.1052362205
  9
$DIMTSZ
 40
0.0
  9
$DIMTOL
 70
     1
  9
$DIMLIM
 70
     0
  9
$DIMTIH
 70
     1
  9
$DIMTOH
 70
     1
  9
$DIMSE1
 70
     0
  9
$DIMSE2
 70
     0
  9
$DIMTAD
 70
     0
  9
$DIMZIN
 70
     0
  9
$DIMBLK
  1

  9
$DIMASO
 70
     1
  9
$DIMSHO
 70
     1
  9
$DIMPOST
  1
\X
  9
$DIMAPOST
  1

  9
$DIMALT
 70
     1
  9
$DIMALTD
 70
     2
  9
$DIMALTF
 40
25.3999999999999986
  9
$DIMLFAC
 40
1.0
  9
$DIMTOFL
 70
     0
  9
$DIMTVP
 40
0.0
  9
$DIMTIX
 70
     0
  9
$DIMSOXD
 70
     0
  9
$DIMSAH
 70
     0
  9
$DIMBLK1
  1

  9
$DIMBLK2
  1

  9
$DIMSTYLE
  2
STANDARD
  9
$DIMCLRD
 70
     0
  9
$DIMCLRE
 70
     0
  9
$DIMCLRT
 70
     0
  9
$DIMTFAC
 40
1.0
  9
$DIMGAP
 40
0.09
  9
$LUNITS
 70
     2
  9
$LUPREC
 70
     4
  9
$SKETCHINC
 40
0.1
  9
$FILLETRAD
 40
0.0
  9
$AUNITS
 70
     0
  9
$AUPREC
 70
     0
  9
$MENU
  1
.
  9
$ELEVATION
 40
0.0
  9
$PELEVATION
 40
0.0
  9
$THICKNESS
 40
0.0
  9
$LIMCHECK
 70
     0
  9
$BLIPMODE
 70
     0
  9
$CHAMFERA
 40
0.0
  9
$CHAMFERB
 40
0.0
  9
$SKPOLY
 70
     0
  9
$TDCREATE
 40
2457893.7626041672192514
  9
$TDUPDATE
 40
2459051.7751620369963348
  9
$TDINDWG
 40
0.3015782292
  9
$TDUSRTIMER
 40
0.3015782292
  9
$USRTIMER
 70
     1
  9
$ANGBASE
 50
0.0
  9
$ANGDIR
 70
     0
  9
$PDMODE
 70
     0
  9
$PDSIZE
 40
0.3125
  9
$PLINEWID
 40
0.0
  9
$COORDS
 70
     1
  9
$SPLFRAME
 70
     0
  9
$SPLINETYPE
 70
     6
  9
$SPLINESEGS
 70
     8
  9
$ATTDIA
 70
     1
  9
$ATTREQ
 70
     1
  9
$HANDLING
 70
     1
  9
$HANDSEED
  5
26D7
  9
$SURFTAB1
 70
     6
  9
$SURFTAB2
 70
     6
  9
$SURFTYPE
 70
     6
  9
$SURFU
 70
     6
  9
$SURFV
 70
     6
  9
$UCSNAME
  2

  9
$UCSORG
 10
0.0
 20
0.0
 30
0.0
  9
$UCSXDIR
 10
1.0
 20
0.0
 30
0.0
  9
$UCSYDIR
 10
0.0
 20
1.0
 30
0.0
  9
$PUCSNAME
  2

  9
$PUCSORG
 10
0.0
 20
0.0
 30
0.0
  9
$PUCSXDIR
 10
1.0
 20
0.0
 30
0.0
  9
$PUCSYDIR
 10
0.0
 20
1.0
 30
0.0
  9
$USERI1
 70
     0
  9
$USERI2
 70
     0
  9
$USERI3
 70
     0
  9
$USERI4
 70
     0
  9
$USERI5
 70
     0
  9
$USERR1
 40
0.0
  9
$USERR2
 40
0.0
  9
$USERR3
 40
0.0
  9
$USERR4
 40
0.0
  9
$USERR5
 40
0.0
  9
$WORLDVIEW
 70
     1
  9
$SHADEDGE
 70
     3
  9
$SHADEDIF
 70
    70
  9
$TILEMODE
 70
     1
  9
$MAXACTVP
 70
    48
  9
$PLIMCHECK
 70
     0
  9
$PEXTMIN
 10
1.0000000000000000E+20
 20
1.0000000000000000E+20
 30
1.0000000000000000E+20
  9
$PEXTMAX
 10
-1.0000000000000000E+20
 20
-1.0000000000000000E+20
 30
-1.0000000000000000E+20
  9
$PLIMMIN
 10
0.0
 20
0.0
  9
$PLIMMAX
 10
12.0
 20
9.0
  9
$UNITMODE
 70
     0
  9
$VISRETAIN
 70
     1
  9
$PLINEGEN
 70
     0
  9
$PSLTSCALE
 70
     1
  0
ENDSEC
  0
SECTION
  2
TABLES
  0
TABLE
  2
VPORT
 70
     1
  0
VPORT
  2
*ACTIVE
 70
     0
 10
0.0
 20
0.0
 11
1.0
 21
1.0
 12
0.0
 22
0.0
 13
0.0
 23
0.0
 14
1.0
 24
1.0
 15
0.0
 25
0.0
 16
-0.0000000000000098
 26
0.0
 36
42.3769209758945493
 17
5.8892953991889954
 27
-0.7276336550712585
 37
0.0
 40
11.0648972148621993
 41
3.0287253141831241
 42
50.0
 43
0.0
 44
0.0
 50
0.0
 51
0.0
 71
     0
 72
   100
 73
     1
 74
     1
 75
     0
 76
     0
 77
     0
 78
     0
  0
ENDTAB
  0
TABLE
  2
LTYPE
 70
     2
  0
LTYPE
  2
CONTINUOUS
 70
     0
  3
Solid line
 72
    65
 73
     0
 40
0.0
  0
LTYPE
  2
PHANTOM2
 70
     0
  3
___ _ _ ___ _ _ ___ _ _ ___ _ _
 72
    65
 73
     6
 40
1.25
 49
0.625
 49
-0.125
 49
0.125
 49
-0.125
 49
0.125
 49
-0.125
  0
ENDTAB
  0
TABLE
  2
LAYER
 70
     2
  0
LAYER
  2
0
 70
     0
 62
     7
  6
CONTINUOUS
  0
LAYER
  2
DEFPOINTS
 70
     0
 62
     7
  6
CONTINUOUS
  0
ENDTAB
  0
TABLE
  2
STYLE
 70
     1
  0
STYLE
  2
STANDARD
 70
     0
 40
0.0
 41
0.8
 50
0.0
 71
     0
 42
0.2
  3
txt
  4

  0
ENDTAB
  0
TABLE
  2
VIEW
 70
     0
  0
ENDTAB
  0
TABLE
  2
UCS
 70
     0
  0
ENDTAB
  0
TABLE
  2
APPID
 70
     9
  0
APPID
  2
ACAD
 70
     0
  0
APPID
  2
ACAD_MLEADERVER
 70
     0
  0
APPID
  2
ACAD_NAV_VCDISPLAY
 70
     0
  0
APPID
  2
ACAD_EXEMPT_FROM_CAD_STANDARDS
 70
     0
  0
APPID
  2
ACAD_DSTYLE_DIMJAG
 70
     0
  0
APPID
  2
ACAD_DSTYLE_DIMTALN
 70
     0
  0
APPID
  2
ACDBATTR
 70
     0
  0
APPID
  2
ACAD_PSEXT
 70
     0
  0
APPID
  2
ACADANNOTATIVE
 70
     0
  0
ENDTAB
  0
TABLE
  2
DIMSTYLE
 70
     3
  0
DIMSTYLE
  2
STANDARD
 70
     0
  3

  4

  5

  6

  7

 40
1.0
 41
0.1875
 42
0.0625
 43
0.38
 44
0.125
 45
0.0
 46
0.0
 47
0.01
 48
0.01
140
0.15625
141
0.09
142
0.0
143
25.3999999999999986
144
1.0
145
0.0
146
1.0
147
0.09
 71
     1
 72
     0
 73
     1
 74
     1
 75
     0
 76
     0
 77
     0
 78
     4
170
     0
171
     2
172
     0
173
     0
174
     0
175
     0
176
     0
177
     0
178
     0
  0
DIMSTYLE
  2
ANNOTATIVE
 70
     0
  3

  4

  5

  6

  7

 40
0.0
 41
2.5
 42
0.625
 43
3.75
 44
1.25
 45
0.0
 46
0.0
 47
0.0
 48
0.0
140
2.5
141
2.5
142
0.0
143
0.03937007874016
144
1.0
145
0.0
146
1.0
147
0.625
 71
     0
 72
     0
 73
     0
 74
     0
 75
     0
 76
     0
 77
     1
 78
     8
170
     0
171
     3
172
     1
173
     0
174
     0
175
     0
176
     0
177
     0
178
     0
  0
DIMSTYLE
  2
ISO-25
 70
     0
  3

  4

  5

  6

  7

 40
1.0
 41
2.5
 42
0.625
 43
3.75
 44
1.25
 45
0.0
 46
0.0
 47
0.0
 48
0.0
140
2.5
141
2.5
142
0.0
143
0.03937007874016
144
1.0
145
0.0
146
1.0
147
0.625
 71
     0
 72
     0
 73
     0
 74
     0
 75
     0
 76
     0
 77
     1
 78
     8
170
     0
171
     3
172
     1
173
     0
174
     0
175
     0
176
     0
177
     0
178
     0
  0
ENDTAB
  0
ENDSEC
  0
SECTION
  2
BLOCKS
  0
BLOCK
  8
0
  2
$MODEL_SPACE
 70
     0
 10
0.0
 20
0.0
 30
0.0
  3
$MODEL_SPACE
  1

  0
ENDBLK
  5
21
  8
0
  0
BLOCK
 67
     1
  8
0
  2
$PAPER_SPACE
 70
     0
 10
0.0
 20
0.0
 30
0.0
  3
$PAPER_SPACE
  1

  0
ENDBLK
  5
1D
 67
     1
  8
0
  0
BLOCK
  8
0
  2
_FILLED
 70
     0
 10
0.0
 20
0.0
 30
0.0
  3
_FILLED
  1

  0
SOLID
  5
1F2C
  8
0
  6
BYBLOCK
 62
     0
 10
0.0
 20
0.0
 30
0.0
 11
-1.0
 21
0.1666666667
 31
0.0
 12
-1.0
 22
-0.1666666667
 32
0.0
 13
-1.0
 23
-0.1666666667
 33
0.0
  0
ENDBLK
  5
1F2D
  8
0
  6
BYBLOCK
 62
     0
  0
ENDSEC
  0
SECTION
  2
ENTITIES
  0
ATTDEF
  5
1B48
  8
DEFPOINTS
 10
5.8781456281438622
 20
1.1242336991804001
 30
0.0
 40
0.001
  1
K-13693W
  3

  2
MODELNUMBER
 70
     0
1001
ACDBATTR
1070
     0
1070
     1
  0
ATTDEF
  5
1B49
  8
DEFPOINTS
 10
5.8781456281438622
 20
1.1225670325137349
 30
0.0
 40
0.001
  1

  3

  2
TRADENAME
 70
     0
1001
ACDBATTR
1070
     0
1070
     1
  0
ATTDEF
  5
1B4A
  8
DEFPOINTS
 10
5.8781456281438622
 20
1.12090036584707
 30
0.0
 40
0.001
  1
SHOWERHEAD
  3

  2
PRODUCT
 70
     0
1001
ACDBATTR
1070
     0
1070
     1
  0
LINE
  5
24FD
  8
0
 10
6.7917009044959542
 20
-0.0645746192217747
 30
0.0
 11
4.9868898584244761
 21
-0.0645746192217747
 31
0.0
  0
LINE
  5
24FE
  8
0
 10
6.802232389305586
 20
-0.1945746192217736
 30
0.0
 11
4.976358373560231
 21
-0.1945746192217736
 31
0.0
  0
LINE
  5
24FF
  8
0
 10
6.3662323893602339
 20
1.1255592390782261
 30
0.0
 11
5.4123583735601946
 21
1.1255592390782261
 31
0.0
  0
ARC
  5
2500
  8
0
 10
7.3730021182264087
 20
0.473903439582136
 30
0.0
 40
0.8789999991423313
 50
229.5081520245107924
 51
256.000000007635208
  0
LINE
  5
2501
  8
0
 10
5.392358373560227
 20
0.9992423244952703
 30
0.0
 11
5.3923583735602341
 21
1.1055592390782261
 31
0.0
  0
LINE
  5
2502
  8
0
 10
5.6118898584244761
 20
-0.0645746192217747
 30
0.0
 11
5.6118898584244761
 21
-0.1945746192217736
 31
0.0
  0
LINE
  5
2503
  8
0
 10
4.9868898584244761
 20
-0.0645746192217747
 30
0.0
 11
4.9868898584244761
 21
-0.1945746192217736
 31
0.0
  0
LINE
  5
2504
  8
0
 10
5.2822434780244762
 20
-0.0645746192217747
 30
0.0
 11
5.2822434780244762
 21
-0.1945746192217736
 31
0.0
  0
ARC
  5
2505
  8
0
 10
4.4055886446940491
 20
0.473903439582136
 30
0.0
 40
0.8789999991423313
 50
283.999999992364792
 51
310.4918479754891791
  0
ARC
  5
2506
  8
0
 10
5.6217791295807942
 20
0.3739957020417588
 30
0.0
 40
0.229421081995012
 50
214.1379463237520895
 51
247.5562752934955881
  0
ARC
  5
2507
  8
0
 10
5.5073583735602289
 20
0.0972994257782265
 30
0.0
 40
0.0700000000000001
 50
309.4534797991000232
 51
67.459689369246604
  0
ARC
  5
2508
  8
0
 10
5.8873583742509217
 20
-0.3644407615132668
 30
0.0
 40
0.5280000009071126
 50
129.4534798151460109
 51
145.3941142855892963
  0
ARC
  5
2509
  8
0
 10
5.4123583735601946
 20
1.105559239078266
 30
0.0
 40
0.0199999999999623
 50
89.9999999998982361
 51
180.000000000111811
  0
LINE
  5
250A
  8
0
 10
5.4318898584244764
 20
0.9514181516782259
 30
0.0
 11
5.4318898584244764
 21
0.2452475076331222
 31
0.0
  0
LINE
  5
250B
  8
0
 10
5.4289609262244758
 20
0.9584881712782262
 30
0.0
 11
5.3948182728122163
 21
0.9926308246904795
 31
0.0
  0
ARC
  5
250C
  8
0
 10
5.4218898582286519
 20
0.9514171032956628
 30
0.0
 40
0.0100000002507753
 50
0.0060067894828749
 51
44.9999999463084279
  0
ARC
  5
250D
  8
0
 10
5.4059074317038798
 20
1.000520318566273
 30
0.0
 40
0.0136091970896661
 50
185.3883939904739862
 51
215.4333725792969005
  0
LINE
  5
250E
  8
0
 10
6.3862323893602024
 20
0.9992423244952703
 30
0.0
 11
6.3862323893601953
 21
1.1055592390782261
 31
0.0
  0
LINE
  5
250F
  8
0
 10
6.1667009044959542
 20
-0.0645746192217747
 30
0.0
 11
6.1667009044959542
 21
-0.1945746192217736
 31
0.0
  0
LINE
  5
2510
  8
0
 10
6.7917009044959542
 20
-0.0645746192217747
 30
0.0
 11
6.7917009044959542
 21
-0.1945746192217736
 31
0.0
  0
LINE
  5
2511
  8
0
 10
6.496347284895954
 20
-0.0645746192217747
 30
0.0
 11
6.496347284895954
 21
-0.1945746192217736
 31
0.0
  0
ARC
  5
2512
  8
0
 10
6.1568116333396361
 20
0.3739957020417588
 30
0.0
 40
0.229421081995012
 50
292.4437247065042129
 51
325.8620536762477968
  0
ARC
  5
2513
  8
0
 10
6.2712323893602004
 20
0.0972994257782265
 30
0.0
 40
0.0700000000000001
 50
112.540310630753396
 51
230.5465202009000052
  0
ARC
  5
2514
  8
0
 10
5.8912323886695068
 20
-0.3644407615132668
 30
0.0
 40
0.5280000009071126
 50
34.6058857144106469
 51
50.5465201848536978
  0
ARC
  5
2515
  8
0
 10
6.3662323893602339
 20
1.105559239078266
 30
0.0
 40
0.0199999999999623
 50
359.9999999998880185
 51
90.0000000001017781
  0
LINE
  5
2516
  8
0
 10
6.346700904495953
 20
0.9514181516782259
 30
0.0
 11
6.346700904495953
 21
0.2452475076331222
 31
0.0
  0
LINE
  5
2517
  8
0
 10
6.3496298366959527
 20
0.9584881712782262
 30
0.0
 11
6.383772490108214
 21
0.9926308246904795
 31
0.0
  0
ARC
  5
2518
  8
0
 10
6.3567009046917766
 20
0.9514171032956628
 30
0.0
 40
0.0100000002507753
 50
135.0000000536913092
 51
179.9939932105170897
  0
ARC
  5
2519
  8
0
 10
6.3726833312165487
 20
1.000520318566273
 30
0.0
 40
0.0136091970896661
 50
324.5666274207031279
 51
354.6116060095258717
  0
LINE
  5
251A
  8
0
 10
5.5341917070822708
 20
0.1619521303782267
 30
0.0
 11
6.2443990558381577
 21
0.1619521303782267
 31
0.0
  0
LINE
  5
251C
  8
0
 10
10.9042325527749409
 20
-2.5808265877217731
 30
0.0
 11
0.8743582101378173
 21
-2.5808265877217731
 31
0.0
  0
LINE
  5
251D
  8
0
 10
10.9632325527749295
 20
-2.0138265877217751
 30
0.0
 11
0.8153582101378233
 21
-2.0138265877217751
 31
0.0
  0
LINE
  5
251E
  8
0
 10
11.0032987774842397
 20
-1.7248781357217751
 30
0.0
 11
0.7752919854285132
 21
-1.7248781357217751
 31
0.0
  0
LINE
  5
251F
  8
0
 10
10.9632325601270697
 20
-1.5178469980217739
 30
0.0
 11
0.815358202785692
 21
-1.5178469980217739
 31
0.0
  0
LINE
  5
2520
  8
0
 10
10.5577917435821593
 20
-0.9757535031217744
 30
0.0
 11
1.2207990193305911
 21
-0.9757535031217744
 31
0.0
  0
ARC
  5
2521
  8
0
 10
10.8051318167951802
 20
-2.3008479383282081
 30
0.0
 40
0.2969999999797535
 50
289.4918342760261112
 51
359.999999998779515
  0
ARC
  5
2522
  8
0
 10
10.8051318168131303
 20
-2.3008479383400089
 30
0.0
 40
0.2969999999618018
 50
0.0000000010559442
 51
51.6477956318041009
  0
ARC
  5
2523
  8
0
 10
11.0322325527010108
 20
-2.0138265877803159
 30
0.0
 40
0.0689999999260784
 50
179.9999999513875082
 51
231.647795632273386
  0
LINE
  5
2524
  8
0
 10
10.9632325527749295
 20
-2.0138265877217751
 30
0.0
 11
10.9632325529437793
 21
-1.8148265877217751
 31
0.0
  0
ARC
  5
2525
  8
0
 10
11.0842325535153208
 20
-1.8148265878244381
 30
0.0
 40
0.121000000571545
 50
131.9802327739027135
 51
179.9999999513869113
  0
ARC
  5
2526
  8
0
 10
10.9832325404656199
 20
-1.702576857768294
 30
0.0
 40
0.0300000144407643
 50
311.980237776169588
 51
359.999968678107507
  0
LINE
  5
2527
  8
0
 10
11.0132325549063808
 20
-1.7025768741684051
 30
0.0
 11
11.0132325549063808
 21
-1.567846998021774
 31
0.0
  0
ARC
  5
2528
  8
0
 10
10.9632325601270608
 20
-1.567846992801087
 30
0.0
 40
0.0499999947793131
 50
359.9999940175326856
 51
89.9999999999959357
  0
LINE
  5
2529
  8
0
 10
10.9451695606749393
 20
-1.5178469980217739
 30
0.0
 11
10.9451695606749393
 21
-1.471574619067604
 31
0.0
  0
ARC
  5
252A
  8
0
 10
10.4341695069544294
 20
-1.47157463771923
 30
0.0
 40
0.5110000537204979
 50
0.0000020740236269
 51
75.9999844020531583
  0
ARC
  5
252B
  8
0
 10
16.3939217213501891
 20
42.2190890921094777
 30
0.0
 40
43.5873243035656728
 50
257.7697566473307802
 51
262.3052651596369742
  0
ARC
  5
252C
  8
0
 10
0.9734589461175744
 20
-2.3008479383282081
 30
0.0
 40
0.2969999999797535
 50
180.0000000012203998
 51
250.5081657239738036
  0
ARC
  5
252D
  8
0
 10
0.9734589460996261
 20
-2.3008479383400089
 30
0.0
 40
0.2969999999618018
 50
128.3522043681959133
 51
179.9999999989439914
  0
ARC
  5
252E
  8
0
 10
0.7463582102117458
 20
-2.0138265877803159
 30
0.0
 40
0.0689999999260784
 50
308.3522043677266993
 51
0.0000000486125138
  0
LINE
  5
252F
  8
0
 10
0.8153582101378233
 20
-2.0138265877217751
 30
0.0
 11
0.8153582099689771
 21
-1.8148265877217751
 31
0.0
  0
ARC
  5
2530
  8
0
 10
0.6943582093974358
 20
-1.8148265878244381
 30
0.0
 40
0.121000000571545
 50
0.0000000486131244
 51
48.0197672260972794
  0
ARC
  5
2531
  8
0
 10
0.7953582224471348
 20
-1.702576857768294
 30
0.0
 40
0.0300000144407643
 50
180.0000313218922088
 51
228.0197622238302131
  0
LINE
  5
2532
  8
0
 10
0.7653582080063757
 20
-1.7025768741684051
 30
0.0
 11
0.7653582080063757
 21
-1.567846998021774
 31
0.0
  0
ARC
  5
2533
  8
0
 10
0.815358202785692
 20
-1.567846992801087
 30
0.0
 40
0.0499999947793131
 50
90.0000000000040643
 51
180.0000059824670871
  0
LINE
  5
2534
  8
0
 10
0.8334212022378223
 20
-1.5178469980217739
 30
0.0
 11
0.8334212022378223
 21
-1.471574619067604
 31
0.0
  0
ARC
  5
2535
  8
0
 10
1.3444212559583271
 20
-1.47157463771923
 30
0.0
 40
0.5110000537204979
 50
104.0000155979467991
 51
179.9999979259764018
  0
ARC
  5
2536
  8
0
 10
-4.615330958526588
 20
42.2190890926840581
 30
0.0
 40
43.5873243041470104
 50
277.6947348403779756
 51
282.2302433526336927
  0
ENDSEC
  0
EOF
