  0
SECTION
  2
HEADER
  9
$ACADVER
  1
AC1009
  9
$INSBASE
 10
5.8309073100583726
 20
-3.1078444459850418
 30
0.0
  9
$EXTMIN
 10
0.6180708747398109
 20
-6.8142302727850428
 30
0.0
  9
$EXTMAX
 10
11.0437437453769292
 20
-3.1078444459850401
 30
0.0
  9
$LIMMIN
 10
0.0
 20
0.0
  9
$LIMMAX
 10
11.6929133858000007
 20
8.2677165353999982
  9
$ORTHOMODE
 70
     0
  9
$REGENMODE
 70
     1
  9
$FILLMODE
 70
     1
  9
$QTEXTMODE
 70
     0
  9
$MIRRTEXT
 70
     0
  9
$DRAGMODE
 70
     2
  9
$LTSCALE
 40
0.6431102362
  9
$OSMODE
 70
  3839
  9
$ATTMODE
 70
     1
  9
$TEXTSIZE
 40
0.2
  9
$TRACEWID
 40
0.05
  9
$TEXTSTYLE
  7
STANDARD
  9
$CLAYER
  8
0
  9
$CELTYPE
  6
BYLAYER
  9
$CECOLOR
 62
   256
  9
$DIMSCALE
 40
1.0
  9
$DIMASZ
 40
0.1875
  9
$DIMEXO
 40
0.0625
  9
$DIMDLI
 40
0.4443307087
  9
$DIMRND
 40
0.0
  9
$DIMDLE
 40
0.0
  9
$DIMEXE
 40
0.125
  9
$DIMTP
 40
0.01
  9
$DIMTM
 40
0.01
  9
$DIMTXT
 40
1.0
  9
$DIMCEN
 40
0.1052362205
  9
$DIMTSZ
 40
0.0
  9
$DIMTOL
 70
     1
  9
$DIMLIM
 70
     0
  9
$DIMTIH
 70
     1
  9
$DIMTOH
 70
     1
  9
$DIMSE1
 70
     0
  9
$DIMSE2
 70
     0
  9
$DIMTAD
 70
     0
  9
$DIMZIN
 70
     0
  9
$DIMBLK
  1

  9
$DIMASO
 70
     1
  9
$DIMSHO
 70
     1
  9
$DIMPOST
  1
\X
  9
$DIMAPOST
  1

  9
$DIMALT
 70
     1
  9
$DIMALTD
 70
     2
  9
$DIMALTF
 40
25.3999999999999986
  9
$DIMLFAC
 40
1.0
  9
$DIMTOFL
 70
     0
  9
$DIMTVP
 40
0.0
  9
$DIMTIX
 70
     0
  9
$DIMSOXD
 70
     0
  9
$DIMSAH
 70
     0
  9
$DIMBLK1
  1

  9
$DIMBLK2
  1

  9
$DIMSTYLE
  2
STANDARD
  9
$DIMCLRD
 70
     0
  9
$DIMCLRE
 70
     0
  9
$DIMCLRT
 70
     0
  9
$DIMTFAC
 40
1.0
  9
$DIMGAP
 40
0.09
  9
$LUNITS
 70
     2
  9
$LUPREC
 70
     4
  9
$SKETCHINC
 40
0.1
  9
$FILLETRAD
 40
0.0
  9
$AUNITS
 70
     0
  9
$AUPREC
 70
     0
  9
$MENU
  1
.
  9
$ELEVATION
 40
0.0
  9
$PELEVATION
 40
0.0
  9
$THICKNESS
 40
0.0
  9
$LIMCHECK
 70
     0
  9
$BLIPMODE
 70
     0
  9
$CHAMFERA
 40
0.0
  9
$CHAMFERB
 40
0.0
  9
$SKPOLY
 70
     0
  9
$TDCREATE
 40
2457893.7626041672192514
  9
$TDUPDATE
 40
2459051.77453703712672
  9
$TDINDWG
 40
0.3051198958
  9
$TDUSRTIMER
 40
0.3051198958
  9
$USRTIMER
 70
     1
  9
$ANGBASE
 50
0.0
  9
$ANGDIR
 70
     0
  9
$PDMODE
 70
     0
  9
$PDSIZE
 40
0.3125
  9
$PLINEWID
 40
0.0
  9
$COORDS
 70
     1
  9
$SPLFRAME
 70
     0
  9
$SPLINETYPE
 70
     6
  9
$SPLINESEGS
 70
     8
  9
$ATTDIA
 70
     1
  9
$ATTREQ
 70
     1
  9
$HANDLING
 70
     1
  9
$HANDSEED
  5
25D2
  9
$SURFTAB1
 70
     6
  9
$SURFTAB2
 70
     6
  9
$SURFTYPE
 70
     6
  9
$SURFU
 70
     6
  9
$SURFV
 70
     6
  9
$UCSNAME
  2

  9
$UCSORG
 10
0.0
 20
0.0
 30
0.0
  9
$UCSXDIR
 10
1.0
 20
0.0
 30
0.0
  9
$UCSYDIR
 10
0.0
 20
1.0
 30
0.0
  9
$PUCSNAME
  2

  9
$PUCSORG
 10
0.0
 20
0.0
 30
0.0
  9
$PUCSXDIR
 10
1.0
 20
0.0
 30
0.0
  9
$PUCSYDIR
 10
0.0
 20
1.0
 30
0.0
  9
$USERI1
 70
     0
  9
$USERI2
 70
     0
  9
$USERI3
 70
     0
  9
$USERI4
 70
     0
  9
$USERI5
 70
     0
  9
$USERR1
 40
0.0
  9
$USERR2
 40
0.0
  9
$USERR3
 40
0.0
  9
$USERR4
 40
0.0
  9
$USERR5
 40
0.0
  9
$WORLDVIEW
 70
     1
  9
$SHADEDGE
 70
     3
  9
$SHADEDIF
 70
    70
  9
$TILEMODE
 70
     1
  9
$MAXACTVP
 70
    48
  9
$PLIMCHECK
 70
     0
  9
$PEXTMIN
 10
1.0000000000000000E+20
 20
1.0000000000000000E+20
 30
1.0000000000000000E+20
  9
$PEXTMAX
 10
-1.0000000000000000E+20
 20
-1.0000000000000000E+20
 30
-1.0000000000000000E+20
  9
$PLIMMIN
 10
0.0
 20
0.0
  9
$PLIMMAX
 10
12.0
 20
9.0
  9
$UNITMODE
 70
     0
  9
$VISRETAIN
 70
     1
  9
$PLINEGEN
 70
     0
  9
$PSLTSCALE
 70
     1
  0
ENDSEC
  0
SECTION
  2
TABLES
  0
TABLE
  2
VPORT
 70
     1
  0
VPORT
  2
*ACTIVE
 70
     0
 10
0.0
 20
0.0
 11
1.0
 21
1.0
 12
0.0
 22
0.0
 13
0.0
 23
0.0
 14
1.0
 24
1.0
 15
0.0
 25
0.0
 16
-0.0000000000000098
 26
0.0
 36
42.3769225101339373
 17
5.8309074938297272
 27
-4.9610373973846427
 37
0.0
 40
11.0648976154623497
 41
3.0287253141831232
 42
50.0
 43
0.0
 44
0.0
 50
0.0
 51
0.0
 71
     0
 72
   100
 73
     1
 74
     1
 75
     0
 76
     0
 77
     0
 78
     0
  0
ENDTAB
  0
TABLE
  2
LTYPE
 70
     2
  0
LTYPE
  2
CONTINUOUS
 70
     0
  3
Solid line
 72
    65
 73
     0
 40
0.0
  0
LTYPE
  2
PHANTOM2
 70
     0
  3
___ _ _ ___ _ _ ___ _ _ ___ _ _
 72
    65
 73
     6
 40
1.25
 49
0.625
 49
-0.125
 49
0.125
 49
-0.125
 49
0.125
 49
-0.125
  0
ENDTAB
  0
TABLE
  2
LAYER
 70
     2
  0
LAYER
  2
0
 70
     0
 62
     7
  6
CONTINUOUS
  0
LAYER
  2
DEFPOINTS
 70
     0
 62
     7
  6
CONTINUOUS
  0
ENDTAB
  0
TABLE
  2
STYLE
 70
     1
  0
STYLE
  2
STANDARD
 70
     0
 40
0.0
 41
0.8
 50
0.0
 71
     0
 42
0.2
  3
txt
  4

  0
ENDTAB
  0
TABLE
  2
VIEW
 70
     0
  0
ENDTAB
  0
TABLE
  2
UCS
 70
     0
  0
ENDTAB
  0
TABLE
  2
APPID
 70
     9
  0
APPID
  2
ACAD
 70
     0
  0
APPID
  2
ACAD_MLEADERVER
 70
     0
  0
APPID
  2
ACAD_NAV_VCDISPLAY
 70
     0
  0
APPID
  2
ACAD_EXEMPT_FROM_CAD_STANDARDS
 70
     0
  0
APPID
  2
ACAD_DSTYLE_DIMJAG
 70
     0
  0
APPID
  2
ACAD_DSTYLE_DIMTALN
 70
     0
  0
APPID
  2
ACDBATTR
 70
     0
  0
APPID
  2
ACAD_PSEXT
 70
     0
  0
APPID
  2
ACADANNOTATIVE
 70
     0
  0
ENDTAB
  0
TABLE
  2
DIMSTYLE
 70
     3
  0
DIMSTYLE
  2
STANDARD
 70
     0
  3

  4

  5

  6

  7

 40
1.0
 41
0.1875
 42
0.0625
 43
0.38
 44
0.125
 45
0.0
 46
0.0
 47
0.01
 48
0.01
140
0.15625
141
0.09
142
0.0
143
25.3999999999999986
144
1.0
145
0.0
146
1.0
147
0.09
 71
     1
 72
     0
 73
     1
 74
     1
 75
     0
 76
     0
 77
     0
 78
     4
170
     0
171
     2
172
     0
173
     0
174
     0
175
     0
176
     0
177
     0
178
     0
  0
DIMSTYLE
  2
ANNOTATIVE
 70
     0
  3

  4

  5

  6

  7

 40
0.0
 41
2.5
 42
0.625
 43
3.75
 44
1.25
 45
0.0
 46
0.0
 47
0.0
 48
0.0
140
2.5
141
2.5
142
0.0
143
0.03937007874016
144
1.0
145
0.0
146
1.0
147
0.625
 71
     0
 72
     0
 73
     0
 74
     0
 75
     0
 76
     0
 77
     1
 78
     8
170
     0
171
     3
172
     1
173
     0
174
     0
175
     0
176
     0
177
     0
178
     0
  0
DIMSTYLE
  2
ISO-25
 70
     0
  3

  4

  5

  6

  7

 40
1.0
 41
2.5
 42
0.625
 43
3.75
 44
1.25
 45
0.0
 46
0.0
 47
0.0
 48
0.0
140
2.5
141
2.5
142
0.0
143
0.03937007874016
144
1.0
145
0.0
146
1.0
147
0.625
 71
     0
 72
     0
 73
     0
 74
     0
 75
     0
 76
     0
 77
     1
 78
     8
170
     0
171
     3
172
     1
173
     0
174
     0
175
     0
176
     0
177
     0
178
     0
  0
ENDTAB
  0
ENDSEC
  0
SECTION
  2
BLOCKS
  0
BLOCK
  8
0
  2
$MODEL_SPACE
 70
     0
 10
0.0
 20
0.0
 30
0.0
  3
$MODEL_SPACE
  1

  0
ENDBLK
  5
21
  8
0
  0
BLOCK
 67
     1
  8
0
  2
$PAPER_SPACE
 70
     0
 10
0.0
 20
0.0
 30
0.0
  3
$PAPER_SPACE
  1

  0
ENDBLK
  5
1D
 67
     1
  8
0
  0
BLOCK
  8
0
  2
_FILLED
 70
     0
 10
0.0
 20
0.0
 30
0.0
  3
_FILLED
  1

  0
SOLID
  5
1F2C
  8
0
  6
BYBLOCK
 62
     0
 10
0.0
 20
0.0
 30
0.0
 11
-1.0
 21
0.1666666667
 31
0.0
 12
-1.0
 22
-0.1666666667
 32
0.0
 13
-1.0
 23
-0.1666666667
 33
0.0
  0
ENDBLK
  5
1F2D
  8
0
  6
BYBLOCK
 62
     0
  0
ENDSEC
  0
SECTION
  2
ENTITIES
  0
ATTDEF
  5
1B48
  8
DEFPOINTS
 10
5.831650999195829
 20
-3.1097523903830959
 30
0.0
 40
0.001
  1
K-13693W
  3

  2
MODELNUMBER
 70
     0
1001
ACDBATTR
1070
     0
1070
     1
  0
ATTDEF
  5
1B49
  8
DEFPOINTS
 10
5.831650999195829
 20
-3.1114190570497611
 30
0.0
 40
0.001
  1

  3

  2
TRADENAME
 70
     0
1001
ACDBATTR
1070
     0
1070
     1
  0
ATTDEF
  5
1B4A
  8
DEFPOINTS
 10
5.831650999195829
 20
-3.1130857237164271
 30
0.0
 40
0.001
  1
SHOWERHEAD
  3

  2
PRODUCT
 70
     0
1001
ACDBATTR
1070
     0
1070
     1
  0
LINE
  5
243B
  8
0
 10
6.6878641351583719
 20
-4.297978304285043
 30
0.0
 11
4.9739504849583742
 21
-4.297978304285043
 31
0.0
  0
LINE
  5
243C
  8
0
 10
10.8458444813769308
 20
-6.8142302727850419
 30
0.0
 11
0.8159701387398089
 21
-6.8142302727850419
 31
0.0
  0
LINE
  5
243D
  8
0
 10
10.9048444813769194
 20
-6.2472302727850444
 30
0.0
 11
0.7569701387398143
 21
-6.2472302727850444
 31
0.0
  0
LINE
  5
243E
  8
0
 10
10.9449107060862296
 20
-5.9582818207850439
 30
0.0
 11
0.7169039140305049
 21
-5.9582818207850439
 31
0.0
  0
LINE
  5
243F
  8
0
 10
10.9048444887290596
 20
-5.7512506830850434
 30
0.0
 11
0.756970131387682
 21
-5.7512506830850434
 31
0.0
  0
LINE
  5
2440
  8
0
 10
10.4994036721841493
 20
-5.2091571881850429
 30
0.0
 11
1.162410947932581
 21
-5.2091571881850429
 31
0.0
  0
LINE
  5
2441
  8
0
 10
6.7438443179037311
 20
-4.427978304285042
 30
0.0
 11
4.9179703021583752
 21
-4.427978304285042
 31
0.0
  0
LINE
  5
2442
  8
0
 10
6.3278443179583741
 20
-3.8590212392850431
 30
0.0
 11
6.3278443179583741
 21
-3.1278444459850419
 31
0.0
  0
LINE
  5
2443
  8
0
 10
6.3278443179583741
 20
-4.297978304285043
 30
0.0
 11
6.3278443179583741
 21
-4.427978304285042
 31
0.0
  0
LINE
  5
2444
  8
0
 10
6.307844317958371
 20
-3.1078444459850418
 30
0.0
 11
5.3539703021583387
 21
-3.1078444459850418
 31
0.0
  0
LINE
  5
2445
  8
0
 10
6.0257173331583704
 20
-3.8590212392850431
 30
0.0
 11
6.0257173331583704
 21
-3.2819861760244371
 31
0.0
  0
LINE
  5
2446
  8
0
 10
6.6878641351583719
 20
-4.297978304285043
 30
0.0
 11
6.6878641351583719
 21
-4.427978304285042
 31
0.0
  0
LINE
  5
2447
  8
0
 10
6.497542708658373
 20
-4.297978304285043
 30
0.0
 11
6.497542708658373
 21
-4.427978304285042
 31
0.0
  0
LINE
  5
2448
  8
0
 10
6.0212287365583723
 20
-4.297978304285043
 30
0.0
 11
6.0212287365583723
 21
-4.427978304285042
 31
0.0
  0
ARC
  5
2449
  8
0
 10
10.7467437453971701
 20
-6.5342516233914782
 30
0.0
 40
0.2969999999797535
 50
289.4918342760261112
 51
359.999999998779515
  0
ARC
  5
244A
  8
0
 10
10.7467437454151202
 20
-6.5342516234032777
 30
0.0
 40
0.2969999999618018
 50
0.0000000010559442
 51
51.6477956318041009
  0
ARC
  5
244B
  8
0
 10
10.9738444813030007
 20
-6.247230272843586
 30
0.0
 40
0.0689999999260784
 50
179.9999999513875082
 51
231.647795632273386
  0
LINE
  5
244C
  8
0
 10
10.9048444813769194
 20
-6.2472302727850444
 30
0.0
 11
10.9048444815457692
 21
-6.0482302727850437
 31
0.0
  0
ARC
  5
244D
  8
0
 10
11.0258444821173107
 20
-6.0482302728877073
 30
0.0
 40
0.121000000571545
 50
131.9802327739027135
 51
179.9999999513869113
  0
ARC
  5
244E
  8
0
 10
10.9248444690676099
 20
-5.9359805428315626
 30
0.0
 40
0.0300000144407643
 50
311.980237776169588
 51
359.999968678107507
  0
LINE
  5
244F
  8
0
 10
10.9548444835083707
 20
-5.935980559231675
 30
0.0
 11
10.9548444835083707
 21
-5.8012506830850441
 31
0.0
  0
ARC
  5
2450
  8
0
 10
10.9048444887290508
 20
-5.8012506778643571
 30
0.0
 40
0.0499999947793131
 50
359.9999940175326856
 51
89.9999999999959357
  0
LINE
  5
2451
  8
0
 10
10.8867814892769292
 20
-5.7512506830850434
 30
0.0
 11
10.8867814892769292
 21
-5.704978304130873
 31
0.0
  0
ARC
  5
2452
  8
0
 10
10.3757814355564193
 20
-5.7049783227824991
 30
0.0
 40
0.5110000537204979
 50
0.0000020740236269
 51
75.9999844020531583
  0
ARC
  5
2453
  8
0
 10
16.3355336499628194
 20
37.985685407113678
 30
0.0
 40
43.5873243036339488
 50
257.7697566473307802
 51
262.3052651596350984
  0
ARC
  5
2454
  8
0
 10
7.3146140468245529
 20
-3.7595002454811328
 30
0.0
 40
0.8789999991423313
 50
229.5081520245107924
 51
256.000000007635208
  0
ARC
  5
2455
  8
0
 10
5.9279969316494681
 20
-3.857392577052364
 30
0.0
 40
0.0977339726591012
 50
316.8551043462667849
 51
359.045165267637401
  0
ARC
  5
2456
  8
0
 10
6.0984235619378149
 20
-3.85940798302151
 30
0.0
 40
0.229421081995012
 50
292.4437247065042129
 51
0.0965856936718401
  0
ARC
  5
2457
  8
0
 10
6.2128443179583721
 20
-4.1361042592850419
 30
0.0
 40
0.0700000000000001
 50
112.540310630753396
 51
230.5465202009000052
  0
ARC
  5
2458
  8
0
 10
5.8328443172676874
 20
-4.597844446576536
 30
0.0
 40
0.5280000009071126
 50
34.6058857144106469
 51
50.546520184853982
  0
ARC
  5
2459
  8
0
 10
6.3078443179584074
 20
-3.1278444459850032
 30
0.0
 40
0.0199999999999623
 50
359.9999999998880185
 51
90.0000000001017781
  0
LINE
  5
245A
  8
0
 10
5.3339703021583711
 20
-3.8590212392850431
 30
0.0
 11
5.3339703021583711
 21
-3.1278444459850419
 31
0.0
  0
LINE
  5
245B
  8
0
 10
5.3339703021583711
 20
-4.297978304285043
 30
0.0
 11
5.3339703021583711
 21
-4.427978304285042
 31
0.0
  0
LINE
  5
245C
  8
0
 10
5.6360972869583756
 20
-3.8590212392850431
 30
0.0
 11
5.6360972869583756
 21
-3.2819861760244371
 31
0.0
  0
LINE
  5
245D
  8
0
 10
4.9739504849583742
 20
-4.297978304285043
 30
0.0
 11
4.9739504849583742
 21
-4.427978304285042
 31
0.0
  0
LINE
  5
245E
  8
0
 10
5.1642719114583731
 20
-4.297978304285043
 30
0.0
 11
5.1642719114583731
 21
-4.427978304285042
 31
0.0
  0
LINE
  5
245F
  8
0
 10
5.6405858835583738
 20
-4.297978304285043
 30
0.0
 11
5.6405858835583738
 21
-4.427978304285042
 31
0.0
  0
ARC
  5
2460
  8
0
 10
4.3472005732921932
 20
-3.7595002454811328
 30
0.0
 40
0.8789999991423313
 50
283.999999992364792
 51
310.4918479754891791
  0
ARC
  5
2461
  8
0
 10
5.733817688467278
 20
-3.857392577052364
 30
0.0
 40
0.0977339726591012
 50
180.9548347323624
 51
223.1448956537331014
  0
ARC
  5
2462
  8
0
 10
5.5633910581789312
 20
-3.85940798302151
 30
0.0
 40
0.229421081995012
 50
179.9034143063281022
 51
247.5562752934955881
  0
ARC
  5
2463
  8
0
 10
5.4489703021583731
 20
-4.1361042592850419
 30
0.0
 40
0.0700000000000001
 50
309.4534797991000232
 51
67.459689369246604
  0
ARC
  5
2464
  8
0
 10
5.8289703028490587
 20
-4.597844446576536
 30
0.0
 40
0.5280000009071126
 50
129.4534798151460109
 51
145.3941142855892963
  0
ARC
  5
2465
  8
0
 10
5.3539703021583387
 20
-3.1278444459850032
 30
0.0
 40
0.0199999999999623
 50
89.9999999998982361
 51
180.0000000001118963
  0
ARC
  5
2466
  8
0
 10
5.8309073100583726
 20
-3.7218632440779582
 30
0.0
 40
0.4810850029876045
 50
66.1127027907038354
 51
113.8872972092966052
  0
ARC
  5
2467
  8
0
 10
5.8309073100583726
 20
-3.7234815458209609
 30
0.0
 40
0.2620250990595338
 50
230.0078647498228008
 51
309.9921352501776823
  0
LINE
  5
2468
  8
0
 10
5.6360972869583756
 20
-3.2819861760244389
 30
0.0
 11
6.0257173331583704
 21
-3.2819861760244389
 31
0.0
  0
LINE
  5
2469
  8
0
 10
6.1860109844363311
 20
-4.0714515546850416
 30
0.0
 11
5.4758036356804149
 21
-4.0714515546850416
 31
0.0
  0
ARC
  5
246B
  8
0
 10
0.9150708747195643
 20
-6.5342516233914782
 30
0.0
 40
0.2969999999797535
 50
180.0000000012205135
 51
250.5081657239738036
  0
ARC
  5
246C
  8
0
 10
0.915070874701616
 20
-6.5342516234032777
 30
0.0
 40
0.2969999999618018
 50
128.3522043681959133
 51
179.9999999989439914
  0
ARC
  5
246D
  8
0
 10
0.6879701388137356
 20
-6.247230272843586
 30
0.0
 40
0.0689999999260784
 50
308.3522043677266993
 51
0.0000000486125138
  0
LINE
  5
246E
  8
0
 10
0.7569701387398134
 20
-6.2472302727850444
 30
0.0
 11
0.7569701385709671
 21
-6.0482302727850437
 31
0.0
  0
ARC
  5
246F
  8
0
 10
0.6359701379994256
 20
-6.0482302728877073
 30
0.0
 40
0.121000000571545
 50
0.0000000486131244
 51
48.0197672260972794
  0
ARC
  5
2470
  8
0
 10
0.7369701510491247
 20
-5.9359805428315626
 30
0.0
 40
0.0300000144407643
 50
180.000031321892294
 51
228.0197622238302131
  0
LINE
  5
2471
  8
0
 10
0.7069701366083656
 20
-5.935980559231675
 30
0.0
 11
0.7069701366083656
 21
-5.8012506830850441
 31
0.0
  0
ARC
  5
2472
  8
0
 10
0.756970131387682
 20
-5.8012506778643571
 30
0.0
 40
0.0499999947793131
 50
90.0000000000040643
 51
180.0000059824672007
  0
LINE
  5
2473
  8
0
 10
0.7750331308398124
 20
-5.7512506830850434
 30
0.0
 11
0.7750331308398124
 21
-5.704978304130873
 31
0.0
  0
ARC
  5
2474
  8
0
 10
1.286033184560315
 20
-5.7049783227824991
 30
0.0
 40
0.5110000537204979
 50
104.0000155979467991
 51
179.9999979259764018
  0
ARC
  5
2475
  8
0
 10
-4.6737190298447402
 20
37.9856854071066579
 30
0.0
 40
43.5873243036268079
 50
277.69473484036439
 51
282.2302433526692766
  0
ENDSEC
  0
EOF
