  0
SECTION
  2
HEADER
  9
$ACADVER
  1
AC1009
  9
$INSBASE
 10
5.8449232293641478
 20
8.6569766528844667
 30
0.0
  9
$EXTMIN
 10
-1.1629484538970509
 20
5.89403216258538
 30
0.0
  9
$EXTMAX
 10
12.8527993738937099
 20
8.6569766529232943
 30
0.0
  9
$LIMMIN
 10
0.0
 20
0.0
  9
$LIMMAX
 10
11.6929133858000007
 20
8.2677165353999982
  9
$ORTHOMODE
 70
     0
  9
$REGENMODE
 70
     1
  9
$FILLMODE
 70
     1
  9
$QTEXTMODE
 70
     0
  9
$MIRRTEXT
 70
     0
  9
$DRAGMODE
 70
     2
  9
$LTSCALE
 40
0.6431102362
  9
$OSMODE
 70
  3839
  9
$ATTMODE
 70
     1
  9
$TEXTSIZE
 40
0.2
  9
$TRACEWID
 40
0.05
  9
$TEXTSTYLE
  7
STANDARD
  9
$CLAYER
  8
0
  9
$CELTYPE
  6
BYLAYER
  9
$CECOLOR
 62
   256
  9
$DIMSCALE
 40
1.0
  9
$DIMASZ
 40
0.1875
  9
$DIMEXO
 40
0.0625
  9
$DIMDLI
 40
0.4443307087
  9
$DIMRND
 40
0.0
  9
$DIMDLE
 40
0.0
  9
$DIMEXE
 40
0.125
  9
$DIMTP
 40
0.01
  9
$DIMTM
 40
0.01
  9
$DIMTXT
 40
1.0
  9
$DIMCEN
 40
0.1052362205
  9
$DIMTSZ
 40
0.0
  9
$DIMTOL
 70
     1
  9
$DIMLIM
 70
     0
  9
$DIMTIH
 70
     1
  9
$DIMTOH
 70
     1
  9
$DIMSE1
 70
     0
  9
$DIMSE2
 70
     0
  9
$DIMTAD
 70
     0
  9
$DIMZIN
 70
     0
  9
$DIMBLK
  1

  9
$DIMASO
 70
     1
  9
$DIMSHO
 70
     1
  9
$DIMPOST
  1
\X
  9
$DIMAPOST
  1

  9
$DIMALT
 70
     1
  9
$DIMALTD
 70
     2
  9
$DIMALTF
 40
25.3999999999999986
  9
$DIMLFAC
 40
1.0
  9
$DIMTOFL
 70
     0
  9
$DIMTVP
 40
0.0
  9
$DIMTIX
 70
     0
  9
$DIMSOXD
 70
     0
  9
$DIMSAH
 70
     0
  9
$DIMBLK1
  1

  9
$DIMBLK2
  1

  9
$DIMSTYLE
  2
STANDARD
  9
$DIMCLRD
 70
     0
  9
$DIMCLRE
 70
     0
  9
$DIMCLRT
 70
     0
  9
$DIMTFAC
 40
1.0
  9
$DIMGAP
 40
0.09
  9
$LUNITS
 70
     2
  9
$LUPREC
 70
     4
  9
$SKETCHINC
 40
0.1
  9
$FILLETRAD
 40
0.0
  9
$AUNITS
 70
     0
  9
$AUPREC
 70
     0
  9
$MENU
  1
.
  9
$ELEVATION
 40
0.0
  9
$PELEVATION
 40
0.0
  9
$THICKNESS
 40
0.0
  9
$LIMCHECK
 70
     0
  9
$BLIPMODE
 70
     0
  9
$CHAMFERA
 40
0.0
  9
$CHAMFERB
 40
0.0
  9
$SKPOLY
 70
     0
  9
$TDCREATE
 40
2457893.7626041672192514
  9
$TDUPDATE
 40
2459051.389664351940155
  9
$TDINDWG
 40
0.2925967477
  9
$TDUSRTIMER
 40
0.2925967477
  9
$USRTIMER
 70
     1
  9
$ANGBASE
 50
0.0
  9
$ANGDIR
 70
     0
  9
$PDMODE
 70
     0
  9
$PDSIZE
 40
0.3125
  9
$PLINEWID
 40
0.0
  9
$COORDS
 70
     1
  9
$SPLFRAME
 70
     0
  9
$SPLINETYPE
 70
     6
  9
$SPLINESEGS
 70
     8
  9
$ATTDIA
 70
     1
  9
$ATTREQ
 70
     1
  9
$HANDLING
 70
     1
  9
$HANDSEED
  5
268E
  9
$SURFTAB1
 70
     6
  9
$SURFTAB2
 70
     6
  9
$SURFTYPE
 70
     6
  9
$SURFU
 70
     6
  9
$SURFV
 70
     6
  9
$UCSNAME
  2

  9
$UCSORG
 10
0.0
 20
0.0
 30
0.0
  9
$UCSXDIR
 10
1.0
 20
0.0
 30
0.0
  9
$UCSYDIR
 10
0.0
 20
1.0
 30
0.0
  9
$PUCSNAME
  2

  9
$PUCSORG
 10
0.0
 20
0.0
 30
0.0
  9
$PUCSXDIR
 10
1.0
 20
0.0
 30
0.0
  9
$PUCSYDIR
 10
0.0
 20
1.0
 30
0.0
  9
$USERI1
 70
     0
  9
$USERI2
 70
     0
  9
$USERI3
 70
     0
  9
$USERI4
 70
     0
  9
$USERI5
 70
     0
  9
$USERR1
 40
0.0
  9
$USERR2
 40
0.0
  9
$USERR3
 40
0.0
  9
$USERR4
 40
0.0
  9
$USERR5
 40
0.0
  9
$WORLDVIEW
 70
     1
  9
$SHADEDGE
 70
     3
  9
$SHADEDIF
 70
    70
  9
$TILEMODE
 70
     1
  9
$MAXACTVP
 70
    48
  9
$PLIMCHECK
 70
     0
  9
$PEXTMIN
 10
1.0000000000000000E+20
 20
1.0000000000000000E+20
 30
1.0000000000000000E+20
  9
$PEXTMAX
 10
-1.0000000000000000E+20
 20
-1.0000000000000000E+20
 30
-1.0000000000000000E+20
  9
$PLIMMIN
 10
0.0
 20
0.0
  9
$PLIMMAX
 10
12.0
 20
9.0
  9
$UNITMODE
 70
     0
  9
$VISRETAIN
 70
     1
  9
$PLINEGEN
 70
     0
  9
$PSLTSCALE
 70
     1
  0
ENDSEC
  0
SECTION
  2
TABLES
  0
TABLE
  2
VPORT
 70
     1
  0
VPORT
  2
*ACTIVE
 70
     0
 10
0.0
 20
0.0
 11
1.0
 21
1.0
 12
0.0
 22
0.0
 13
0.0
 23
0.0
 14
1.0
 24
1.0
 15
0.0
 25
0.0
 16
-0.0000000000000133
 26
0.0
 36
59.3068646352129534
 17
5.8449254631996146
 27
7.2755067348480216
 37
0.0
 40
14.2854830645258506
 41
3.314341846758349
 42
50.0
 43
0.0
 44
0.0
 50
0.0
 51
0.0
 71
     0
 72
   100
 73
     1
 74
     1
 75
     0
 76
     0
 77
     0
 78
     0
  0
ENDTAB
  0
TABLE
  2
LTYPE
 70
     2
  0
LTYPE
  2
CONTINUOUS
 70
     0
  3
Solid line
 72
    65
 73
     0
 40
0.0
  0
LTYPE
  2
PHANTOM2
 70
     0
  3
___ _ _ ___ _ _ ___ _ _ ___ _ _
 72
    65
 73
     6
 40
1.25
 49
0.625
 49
-0.125
 49
0.125
 49
-0.125
 49
0.125
 49
-0.125
  0
ENDTAB
  0
TABLE
  2
LAYER
 70
     2
  0
LAYER
  2
0
 70
     0
 62
     7
  6
CONTINUOUS
  0
LAYER
  2
DEFPOINTS
 70
     0
 62
     7
  6
CONTINUOUS
  0
ENDTAB
  0
TABLE
  2
STYLE
 70
     1
  0
STYLE
  2
STANDARD
 70
     0
 40
0.0
 41
0.8
 50
0.0
 71
     0
 42
0.2
  3
txt
  4

  0
ENDTAB
  0
TABLE
  2
VIEW
 70
     0
  0
ENDTAB
  0
TABLE
  2
UCS
 70
     0
  0
ENDTAB
  0
TABLE
  2
APPID
 70
     9
  0
APPID
  2
ACAD
 70
     0
  0
APPID
  2
ACAD_MLEADERVER
 70
     0
  0
APPID
  2
ACAD_NAV_VCDISPLAY
 70
     0
  0
APPID
  2
ACAD_EXEMPT_FROM_CAD_STANDARDS
 70
     0
  0
APPID
  2
ACAD_DSTYLE_DIMJAG
 70
     0
  0
APPID
  2
ACAD_DSTYLE_DIMTALN
 70
     0
  0
APPID
  2
ACDBATTR
 70
     0
  0
APPID
  2
ACAD_PSEXT
 70
     0
  0
APPID
  2
ACADANNOTATIVE
 70
     0
  0
ENDTAB
  0
TABLE
  2
DIMSTYLE
 70
     3
  0
DIMSTYLE
  2
STANDARD
 70
     0
  3

  4

  5

  6

  7

 40
1.0
 41
0.1875
 42
0.0625
 43
0.38
 44
0.125
 45
0.0
 46
0.0
 47
0.01
 48
0.01
140
0.15625
141
0.09
142
0.0
143
25.3999999999999986
144
1.0
145
0.0
146
1.0
147
0.09
 71
     1
 72
     0
 73
     1
 74
     1
 75
     0
 76
     0
 77
     0
 78
     4
170
     0
171
     2
172
     0
173
     0
174
     0
175
     0
176
     0
177
     0
178
     0
  0
DIMSTYLE
  2
ANNOTATIVE
 70
     0
  3

  4

  5

  6

  7

 40
0.0
 41
2.5
 42
0.625
 43
3.75
 44
1.25
 45
0.0
 46
0.0
 47
0.0
 48
0.0
140
2.5
141
2.5
142
0.0
143
0.03937007874016
144
1.0
145
0.0
146
1.0
147
0.625
 71
     0
 72
     0
 73
     0
 74
     0
 75
     0
 76
     0
 77
     1
 78
     8
170
     0
171
     3
172
     1
173
     0
174
     0
175
     0
176
     0
177
     0
178
     0
  0
DIMSTYLE
  2
ISO-25
 70
     0
  3

  4

  5

  6

  7

 40
1.0
 41
2.5
 42
0.625
 43
3.75
 44
1.25
 45
0.0
 46
0.0
 47
0.0
 48
0.0
140
2.5
141
2.5
142
0.0
143
0.03937007874016
144
1.0
145
0.0
146
1.0
147
0.625
 71
     0
 72
     0
 73
     0
 74
     0
 75
     0
 76
     0
 77
     1
 78
     8
170
     0
171
     3
172
     1
173
     0
174
     0
175
     0
176
     0
177
     0
178
     0
  0
ENDTAB
  0
ENDSEC
  0
SECTION
  2
BLOCKS
  0
BLOCK
  8
0
  2
$MODEL_SPACE
 70
     0
 10
0.0
 20
0.0
 30
0.0
  3
$MODEL_SPACE
  1

  0
ENDBLK
  5
21
  8
0
  0
BLOCK
 67
     1
  8
0
  2
$PAPER_SPACE
 70
     0
 10
0.0
 20
0.0
 30
0.0
  3
$PAPER_SPACE
  1

  0
ENDBLK
  5
1D
 67
     1
  8
0
  0
BLOCK
  8
0
  2
_FILLED
 70
     0
 10
0.0
 20
0.0
 30
0.0
  3
_FILLED
  1

  0
SOLID
  5
1F2C
  8
0
  6
BYBLOCK
 62
     0
 10
0.0
 20
0.0
 30
0.0
 11
-1.0
 21
0.1666666667
 31
0.0
 12
-1.0
 22
-0.1666666667
 32
0.0
 13
-1.0
 23
-0.1666666667
 33
0.0
  0
ENDBLK
  5
1F2D
  8
0
  6
BYBLOCK
 62
     0
  0
BLOCK
  8
0
  2
A$CC30D614B
 70
     0
 10
0.0
 20
0.0
 30
0.0
  3
A$CC30D614B
  1

  0
LINE
  5
21E4
  8
0
 10
14.0157478811202303
 20
1.729274076186595
 30
0.0
 11
0.0000000533294653
 21
1.729274076186595
 31
0.0
  0
LINE
  5
21E5
  8
0
 10
6.5328747390906647
 20
3.9681638399865942
 30
0.0
 11
7.4828687340906654
 21
3.9681638399865942
 31
0.0
  0
ARC
  5
21E6
  8
0
 10
7.4828674875772023
 20
3.9481548240964588
 30
0.0
 40
0.0200090159289637
 50
0.0258185004795233
 51
89.996430611043607
  0
ARC
  5
21E7
  8
0
 10
7.3877380473354526
 20
2.9399239531560761
 30
0.0
 40
0.0699286249674428
 50
112.4431275272081052
 51
230.643373226014802
  0
ARC
  5
21E8
  8
0
 10
7.0299972575837231
 20
2.5036812432608628
 30
0.0
 40
0.4942399444568933
 50
32.9925221736781467
 51
50.6469856944056218
  0
ARC
  5
21E9
  8
0
 10
6.6278724072517932
 20
2.939902817288774
 30
0.0
 40
0.0700017113224115
 50
309.4547980100730911
 51
67.4588969687880109
  0
ARC
  5
21EA
  8
0
 10
7.0480430201594677
 20
2.4482587893301311
 30
0.0
 40
0.5767398709155586
 50
130.647019860367692
 51
145.7549660922333885
  0
ARC
  5
21EB
  8
0
 10
6.5328734929942689
 20
3.948166848279715
 30
0.0
 40
0.0199969917457075
 50
89.9964296597607643
 51
180.0086194214696889
  0
LINE
  5
21EC
  8
0
 10
6.2893701320294637
 20
2.7728095092865961
 30
0.0
 11
7.726377802420223
 21
2.7728095092865961
 31
0.0
  0
LINE
  5
21ED
  8
0
 10
7.726377802420223
 20
2.7728095092865961
 30
0.0
 11
7.726377802420223
 21
1.729274076186595
 31
0.0
  0
LINE
  5
21EE
  8
0
 10
6.2893701320294637
 20
2.772809509286013
 30
0.0
 11
6.2893701320294637
 21
1.729274076186013
 31
0.0
  0
LINE
  5
21EF
  8
0
 10
7.5028765014746881
 20
3.948163840515718
 30
0.0
 11
7.5029082805254239
 21
3.8423059858922661
 31
0.0
  0
ARC
  5
21F0
  8
0
 10
7.4926787315212371
 20
3.8424364176060468
 30
0.0
 40
0.0102303805042082
 50
315.2565347333842283
 51
359.2694905936999135
  0
LINE
  5
21F1
  8
0
 10
7.4999450195406601
 20
3.835234907786595
 30
0.0
 11
7.4660798626143281
 21
3.8013697511346991
 31
0.0
  0
ARC
  5
21F2
  8
0
 10
7.4729199176365517
 20
3.794012090466945
 30
0.0
 40
0.0100459704961189
 50
132.9120943761392937
 51
179.9451683533413018
  0
LINE
  5
21F3
  8
0
 10
7.4628739517406606
 20
3.7940217043865951
 30
0.0
 11
7.4628739517406606
 21
3.0904959402865959
 31
0.0
  0
ARC
  5
21F4
  8
0
 10
7.4517526173180073
 20
3.0908505373851911
 30
0.0
 40
0.0111269860448751
 50
326.729421824577912
 51
358.1737770151094082
  0
ARC
  5
21F5
  8
0
 10
7.2728641364389608
 20
3.2169968267993259
 30
0.0
 40
0.2300137702233346
 50
292.5418156394384823
 51
324.9026112878131016
  0
LINE
  5
21F6
  8
0
 10
6.5128765014748424
 20
3.948163839986595
 30
0.0
 11
6.5128765014748424
 21
3.8423066618292321
 31
0.0
  0
ARC
  5
21F7
  8
0
 10
6.5228018931053517
 20
3.842272548756565
 30
0.0
 40
0.0099254502527925
 50
179.8030780581059958
 51
225.1704239113441872
  0
LINE
  5
21F8
  8
0
 10
6.5158044467409786
 20
3.835233350854935
 30
0.0
 11
6.5496654378230161
 21
3.801372359872071
 31
0.0
  0
ARC
  5
21F9
  8
0
 10
6.542774160143729
 20
3.7939887777498118
 30
0.0
 40
0.0100998511379715
 50
0.1867909375409587
 51
46.9752062134169535
  0
LINE
  5
21FA
  8
0
 10
6.5528739576093136
 20
3.794021704386596
 30
0.0
 11
6.5528739576093136
 21
3.090495940286595
 31
0.0
  0
ARC
  5
21FB
  8
0
 10
6.5640675224308964
 20
3.0908733786262079
 30
0.0
 40
0.0111999264781144
 50
181.9312376178332897
 51
213.1655644149739999
  0
ARC
  5
21FC
  8
0
 10
6.7428224399497187
 20
3.2169227922810788
 30
0.0
 40
0.2299209066474519
 50
215.0910818725278091
 51
247.465408964176504
  0
LINE
  5
21FD
  8
0
 10
7.2117353275593103
 20
2.7728095092865961
 30
0.0
 11
7.2117353275593103
 21
2.300368564386595
 31
0.0
  0
LINE
  5
21FE
  8
0
 10
7.2117353216406661
 20
2.300368564386595
 30
0.0
 11
6.8040125819406612
 21
2.300368564386595
 31
0.0
  0
LINE
  5
21FF
  8
0
 10
6.8040125878593107
 20
2.300368564386595
 30
0.0
 11
6.8040125878593107
 21
2.7728095092865961
 31
0.0
  0
LINE
  5
2200
  8
0
 62
     1
 10
7.0078717365906646
 20
3.9681638399865942
 30
0.0
 11
10.2659993944772108
 21
-0.0000000134048497
 31
0.0
  0
LINE
  5
2201
  8
0
 10
13.9866353116086
 20
1.256833131286599
 30
0.0
 11
0.0291126228411365
 21
1.256833131286597
 31
0.0
  0
ARC
  5
2202
  8
0
 10
13.9858075955646797
 20
1.286761974277961
 30
0.0
 40
0.0299402865158465
 50
271.5841758536877251
 51
359.9854884776946733
  0
LINE
  5
2203
  8
0
 10
7.0681264332295397
 20
1.2568331477447789
 30
0.0
 11
7.0617926542295377
 21
1.2135666431447809
 31
0.0
  0
ARC
  5
2204
  8
0
 10
7.054001655987701
 20
1.2147071665475699
 30
0.0
 40
0.0078740362735157
 50
270.1206964461221105
 51
351.6716330291058057
  0
LINE
  5
2205
  8
0
 10
7.0540182430295379
 20
1.20683314774478
 30
0.0
 11
6.9617294924295399
 21
1.20683314774478
 31
0.0
  0
ARC
  5
2206
  8
0
 10
6.9617460929115529
 20
1.214707182052269
 30
0.0
 40
0.0078740518065056
 50
188.3284645243446107
 51
269.8792059939030992
  0
LINE
  5
2207
  8
0
 10
6.9539550812424373
 20
1.213566643134385
 30
0.0
 11
6.947624207013245
 21
1.256813305639005
 31
0.0
  0
LINE
  5
2208
  8
0
 10
14.0157478811202303
 20
1.2867543911865951
 30
0.0
 11
14.0157478811202303
 21
1.729274076186595
 31
0.0
  0
LINE
  5
2209
  8
0
 10
13.0240414007073095
 20
1.2568331312865959
 30
0.0
 11
13.01960266788174
 21
1.2154711643865981
 31
0.0
  0
ARC
  5
220A
  8
0
 10
13.01177360423927
 20
1.2163113353065971
 30
0.0
 40
0.0078740157919925
 50
272.0000003431890718
 51
353.8747819904901917
  0
LINE
  5
220B
  8
0
 10
12.9198978031727592
 20
1.205224146324424
 30
0.0
 11
13.0120651594817396
 21
1.208442701286597
 31
0.0
  0
ARC
  5
220C
  8
0
 10
12.9196230040068603
 20
1.213093365442947
 30
0.0
 40
0.0078740157554386
 50
190.1252182986549997
 51
271.9999998470818809
  0
LINE
  5
220D
  8
0
 10
12.9118716189646605
 20
1.211709113282234
 30
0.0
 11
12.9038133146638803
 21
1.2568331312865959
 31
0.0
  0
LINE
  5
220E
  8
0
 10
12.8176539294740302
 20
1.2568331312865959
 30
0.0
 11
12.8131582060067704
 21
1.2154065150865969
 31
0.0
  0
ARC
  5
220F
  8
0
 10
12.8050104338799802
 20
1.216455729031281
 30
0.0
 40
0.0082150496365975
 50
266.5794476518166221
 51
352.662226128975874
  0
LINE
  5
2210
  8
0
 10
12.8045202875067705
 20
1.2082553145865971
 30
0.0
 11
12.7135512792067704
 21
1.205303904786597
 31
0.0
  0
ARC
  5
2211
  8
0
 10
12.7131352001366
 20
1.2131224418939881
 30
0.0
 40
0.0078296005193309
 50
189.9282162347440135
 51
273.0462358309133037
  0
LINE
  5
2212
  8
0
 10
12.6974308481890201
 20
1.2568331312865959
 30
0.0
 11
12.7055726105567697
 21
1.211190580536597
 31
0.0
  0
LINE
  5
2213
  8
0
 10
12.2242751928856404
 20
1.2568331312865959
 30
0.0
 11
12.21961144061477
 21
1.2152170552865971
 31
0.0
  0
ARC
  5
2214
  8
0
 10
12.2073093161419592
 20
1.2224532025242381
 30
0.0
 40
0.0142724942946032
 50
273.4665076110496784
 51
329.5358272780301263
  0
LINE
  5
2215
  8
0
 10
12.2081723034655205
 20
1.208206822413177
 30
0.0
 11
12.1203018957647704
 21
1.205305345986597
 31
0.0
  0
ARC
  5
2216
  8
0
 10
12.1199484886430007
 20
1.21353401588514
 30
0.0
 40
0.0082362555140626
 50
191.0278292131625903
 51
272.4592431798228063
  0
LINE
  5
2217
  8
0
 10
12.1118643206147691
 20
1.2119585374865971
 30
0.0
 11
12.1040657856973901
 21
1.2568331312865959
 31
0.0
  0
LINE
  5
2218
  8
0
 10
12.11508771194028
 20
1.2068850494437111
 30
0.0
 11
12.06598870538037
 21
1.206028023086597
 31
0.0
  0
ARC
  5
2219
  8
0
 10
12.0660879818473692
 20
1.2141659534804381
 30
0.0
 40
0.0081380944204577
 50
187.6415495038530139
 51
269.4093095807738223
  0
LINE
  5
221A
  8
0
 10
12.0580221588281606
 20
1.213083789066375
 30
0.0
 11
12.0509110539641195
 21
1.2568331312865959
 31
0.0
  0
LINE
  5
221B
  8
0
 10
11.9971802178387197
 20
1.2568331312865959
 30
0.0
 11
11.9916122516996992
 21
1.2144871584752011
 31
0.0
  0
ARC
  5
221C
  8
0
 10
11.9838186975128806
 20
1.215483005711478
 30
0.0
 40
0.0078569204260262
 50
270.0419024792946061
 51
352.7183008020422221
  0
LINE
  5
221D
  8
0
 10
11.9838244435629093
 20
1.207626087386598
 30
0.0
 11
11.8919309837629203
 21
1.2060541556365969
 31
0.0
  0
ARC
  5
221E
  8
0
 10
11.8916128398088397
 20
1.213956650313746
 30
0.0
 40
0.0079088961112081
 50
189.36477750114841
 51
272.3054071212383747
  0
LINE
  5
221F
  8
0
 10
11.8838093504629203
 20
1.2126697191865969
 30
0.0
 11
11.8766578253467205
 21
1.2568331312865959
 31
0.0
  0
LINE
  5
2220
  8
0
 10
11.3195606394865802
 20
1.2568331312865959
 30
0.0
 11
11.3140738487282793
 21
1.2143929046865971
 31
0.0
  0
ARC
  5
2221
  8
0
 10
11.3061945995749902
 20
1.215411555973362
 30
0.0
 40
0.0079448233248813
 50
269.9943875086534035
 51
352.6335019365728272
  0
LINE
  5
2222
  8
0
 10
11.3061938213282804
 20
1.2074667326865971
 30
0.0
 11
11.2635806734400408
 21
1.207048196153754
 31
0.0
  0
LINE
  5
2223
  8
0
 10
11.2749762861953204
 20
1.2568331312865959
 30
0.0
 11
11.2700423501408604
 21
1.214915935486597
 31
0.0
  0
ARC
  5
2224
  8
0
 10
11.2597712119722999
 20
1.2167641767134381
 30
0.0
 40
0.0104361043934185
 50
286.3638546163384149
 51
349.7990718211818262
  0
LINE
  5
2225
  8
0
 10
11.2627114404896993
 20
1.2067508190759739
 30
0.0
 11
11.1696547607898999
 21
1.2067508190759739
 31
0.0
  0
ARC
  5
2226
  8
0
 10
11.1696547607898999
 20
1.2144445836869779
 30
0.0
 40
0.0076937646110036
 50
196.534696168054893
 51
270.0
  0
LINE
  5
2227
  8
0
 10
11.1622791520408704
 20
1.2122549696865961
 30
0.0
 11
11.1547855609240507
 21
1.256833131286597
 31
0.0
  0
ARC
  5
2228
  8
0
 10
11.1613268407984592
 20
1.2147071469817441
 30
0.0
 40
0.0078740156922494
 50
275.0501274415252055
 51
301.5935392654092198
  0
LINE
  5
2229
  8
0
 10
11.1620199688956294
 20
1.2068636977046281
 30
0.0
 11
11.0700985489094492
 21
1.206833131186597
 31
0.0
  0
ARC
  5
222A
  8
0
 10
11.0692006322364591
 20
1.214805826518115
 30
0.0
 40
0.0080230994759411
 50
185.9785462378148964
 51
276.4258013372539722
  0
LINE
  5
222B
  8
0
 10
11.0612211706780901
 20
1.2139701720205069
 30
0.0
 11
11.0549464666900299
 21
1.2568331312865959
 31
0.0
  0
LINE
  5
222C
  8
0
 10
10.6731097660947807
 20
1.2568331312865959
 30
0.0
 11
10.6674831941408605
 21
1.2142428122865969
 31
0.0
  0
ARC
  5
222D
  8
0
 10
10.6595777973389794
 20
1.215287187745022
 30
0.0
 40
0.0079740841915175
 50
269.7107221016539143
 51
352.4742815571489132
  0
LINE
  5
222E
  8
0
 10
10.6595375375408601
 20
1.207313205186596
 30
0.0
 11
10.5692421838408599
 21
1.206436579686597
 31
0.0
  0
ARC
  5
222F
  8
0
 10
10.5675097674922505
 20
1.214184314389763
 30
0.0
 40
0.007939059102664
 50
189.220835521945304
 51
282.6041727791997005
  0
LINE
  5
2230
  8
0
 10
10.5596732964408595
 20
1.2129121583865969
 30
0.0
 11
10.5527640346251292
 21
1.2568331312865959
 31
0.0
  0
LINE
  5
2231
  8
0
 10
10.5644944900408593
 20
1.206833131186597
 30
0.0
 11
10.5054420862408708
 21
1.206833131286597
 31
0.0
  0
ARC
  5
2232
  8
0
 10
10.5054265470642392
 20
1.21468916741191
 30
0.0
 40
0.0078560514934809
 50
188.2150364333656967
 51
270.1133304458383009
  0
LINE
  5
2233
  8
0
 10
10.4976511083537591
 20
1.213566626576269
 30
0.0
 11
10.4913173293375195
 21
1.2568331312865959
 31
0.0
  0
LINE
  5
2234
  8
0
 10
10.3529795669319107
 20
1.2568331312865959
 30
0.0
 11
10.3476882041042106
 21
1.214524041186597
 31
0.0
  0
ARC
  5
2235
  8
0
 10
10.3390354840530598
 20
1.215606188808513
 30
0.0
 40
0.008720126590777
 50
270.1063563328985992
 51
352.8713481187911043
  0
LINE
  5
2236
  8
0
 10
10.3390516709373603
 20
1.2068860772413379
 30
0.0
 11
10.2511218026042101
 21
1.2055445281865971
 31
0.0
  0
LINE
  5
2237
  8
0
 10
10.2328075263881502
 20
1.2568331312865959
 30
0.0
 11
10.2399089206042095
 21
1.2126421734865971
 31
0.0
  0
ARC
  5
2238
  8
0
 10
10.2491684290633902
 20
1.214867735393488
 30
0.0
 40
0.0095108901580212
 50
192.470174865688108
 51
281.8411313833008762
  0
LINE
  5
2239
  8
0
 10
10.0735484556678703
 20
1.2568331312865959
 30
0.0
 11
10.0681788194364898
 21
1.2145195173532719
 31
0.0
  0
ARC
  5
223A
  8
0
 10
10.0603674316689293
 20
1.215510789591093
 30
0.0
 40
0.0078740332425429
 50
271.1120440003995782
 51
352.7677701842599163
  0
LINE
  5
223B
  8
0
 10
10.0605202478407207
 20
1.2076382393865961
 30
0.0
 11
9.9682710188407242
 21
1.206028023086597
 31
0.0
  0
ARC
  5
223C
  8
0
 10
9.9683702953077216
 20
1.2141659534804381
 30
0.0
 40
0.0081380944204577
 50
187.6415495038530992
 51
269.4093095807738223
  0
LINE
  5
223D
  8
0
 10
9.9603044722885041
 20
1.213083789066375
 30
0.0
 11
9.9531933674244613
 21
1.256833131286597
 31
0.0
  0
LINE
  5
223E
  8
0
 10
9.6195156949378582
 20
1.2568331312865959
 30
0.0
 11
9.6141974211186323
 21
1.2149242615826359
 31
0.0
  0
ARC
  5
223F
  8
0
 10
9.6063860333510718
 20
1.215915533820457
 30
0.0
 40
0.0078740332425429
 50
271.1120440003995782
 51
352.7677701842599163
  0
LINE
  5
2240
  8
0
 10
9.6065388495228632
 20
1.208042983615961
 30
0.0
 11
9.5142896205228666
 21
1.2064327673159609
 31
0.0
  0
ARC
  5
2241
  8
0
 10
9.514388896989864
 20
1.2145706977098021
 30
0.0
 40
0.0081380944204577
 50
187.6415495038530992
 51
269.4093095807738223
  0
LINE
  5
2242
  8
0
 10
9.5063230739706484
 20
1.2134885332957399
 30
0.0
 11
9.4992777570364808
 21
1.256833131286597
 31
0.0
  0
LINE
  5
2243
  8
0
 10
9.8935479706381582
 20
1.256833131286597
 30
0.0
 11
9.8998817496415015
 21
1.2135666264865961
 31
0.0
  0
ARC
  5
2244
  8
0
 10
9.9076727274187775
 20
1.2147071468889099
 30
0.0
 40
0.0078740155901577
 50
188.3283669372729037
 51
258.11325141040669
  0
LINE
  5
2245
  8
0
 10
9.9060508544623271
 20
1.2070019765710529
 30
0.0
 11
9.9425741274870472
 21
1.207094097719716
 31
0.0
  0
LINE
  5
2246
  8
0
 10
9.9255450952482818
 20
1.2568331312865959
 30
0.0
 11
9.9313598272384311
 21
1.214048436263707
 31
0.0
  0
ARC
  5
2247
  8
0
 10
9.939441437739255
 20
1.2153034791137931
 30
0.0
 40
0.0081832593354283
 50
188.8296890846465033
 51
270.6561535903896925
  0
LINE
  5
2248
  8
0
 10
9.9395351507085792
 20
1.207120756386592
 30
0.0
 11
9.9647050649635176
 21
1.20689995958282
 31
0.0
  0
LINE
  5
2249
  8
0
 10
10.0458861479239303
 20
1.2568331312865959
 30
0.0
 11
10.0391778140272194
 21
1.213163301186597
 31
0.0
  0
ARC
  5
224A
  8
0
 10
10.0312627776822705
 20
1.214372136171499
 30
0.0
 40
0.0080068147451089
 50
296.2218084230510158
 51
351.3165221832123848
  0
LINE
  5
224B
  8
0
 10
9.4729996736751616
 20
1.2568331312865959
 30
0.0
 11
9.4671587524665171
 21
1.216933374139997
 31
0.0
  0
ARC
  5
224C
  8
0
 10
9.4554722855944817
 20
1.2186441547835021
 30
0.0
 40
0.0118110235949884
 50
275.2388710742886246
 51
351.6716330154100092
  0
LINE
  5
224D
  8
0
 10
9.4565507288445119
 20
1.2068824695931131
 30
0.0
 11
9.3700231845733413
 21
1.206833131186597
 31
0.0
  0
ARC
  5
224E
  8
0
 10
9.3700712250993874
 20
1.218770262859157
 30
0.0
 40
0.0119372334524632
 50
182.6213021621312009
 51
269.7633987075349182
  0
LINE
  5
224F
  8
0
 10
9.3581464823488716
 20
1.2182243207078221
 30
0.0
 11
9.3524945426587003
 21
1.2568331312865959
 31
0.0
  0
LINE
  5
2250
  8
0
 10
9.0745207535494572
 20
1.256833131286597
 30
0.0
 11
9.0802359160192267
 21
1.214068506086597
 31
0.0
  0
ARC
  5
2251
  8
0
 10
9.0882819136546118
 20
1.215143791641013
 30
0.0
 40
0.0081175314580366
 50
187.6120354090384978
 51
264.5752563587176951
  0
LINE
  5
2252
  8
0
 10
9.0875144964692254
 20
1.207062616736597
 30
0.0
 11
9.1775838970376213
 21
1.205891221149749
 31
0.0
  0
ARC
  5
2253
  8
0
 10
9.178918560457717
 20
1.2151279951934639
 30
0.0
 40
0.0093327017084865
 50
261.7779791472851798
 51
347.4134857239262146
  0
LINE
  5
2254
  8
0
 10
9.1880269794192202
 20
1.2130942731865491
 30
0.0
 11
9.1946791141344377
 21
1.2568331312865959
 31
0.0
  0
LINE
  5
2255
  8
0
 10
9.1831957736026482
 20
1.206833131186597
 30
0.0
 11
9.226181884519228
 21
1.206833131286597
 31
0.0
  0
ARC
  5
2256
  8
0
 10
9.2261818845009103
 20
1.214707147007791
 30
0.0
 40
0.0078740157211938
 50
270.0000001332865054
 51
351.671632328054784
  0
LINE
  5
2257
  8
0
 10
9.2339728623932071
 20
1.213566626486597
 30
0.0
 11
9.240306641963226
 21
1.256833131286597
 31
0.0
  0
LINE
  5
2258
  8
0
 10
8.7666064053800916
 20
1.256833131286597
 30
0.0
 11
8.7605807748408662
 21
1.2138199986865981
 31
0.0
  0
ARC
  5
2259
  8
0
 10
8.7526056002998374
 20
1.214937226202133
 30
0.0
 40
0.0080530495019784
 50
267.784280773823582
 51
352.0254356517281167
  0
LINE
  5
225A
  8
0
 10
8.7522942536408692
 20
1.206890197586598
 30
0.0
 11
8.6617357478408632
 21
1.2064387734865969
 31
0.0
  0
ARC
  5
225B
  8
0
 10
8.6608905080144822
 20
1.214623714078273
 30
0.0
 40
0.0082284678314591
 50
187.9592350365246034
 51
275.8959031081753892
  0
LINE
  5
225C
  8
0
 10
8.6527413063518832
 20
1.2134843304222249
 30
0.0
 11
8.6462687778259308
 21
1.2568331312865959
 31
0.0
  0
LINE
  5
225D
  8
0
 10
7.9474634184737161
 20
1.256833131286597
 30
0.0
 11
7.9411296394732807
 21
1.213566626486597
 31
0.0
  0
ARC
  5
225E
  8
0
 10
7.9333386616862986
 20
1.2147071468898081
 30
0.0
 40
0.0078740155998914
 50
272.2361199181353868
 51
351.6716330665022952
  0
LINE
  5
225F
  8
0
 10
7.9336458880446861
 20
1.2068391272131651
 30
0.0
 11
7.8411535291692473
 21
1.206833131186597
 31
0.0
  0
ARC
  5
2260
  8
0
 10
7.8412416682718771
 20
1.214891973846937
 30
0.0
 40
0.008059324632097
 50
187.191520063556311
 51
269.3733843104672019
  0
LINE
  5
2261
  8
0
 10
7.8332457444114558
 20
1.2138830560386069
 30
0.0
 11
7.8269582875493953
 21
1.256833131286597
 31
0.0
  0
LINE
  5
2262
  8
0
 10
7.8028005670158294
 20
1.2169333741865971
 30
0.0
 11
7.7968692243469446
 21
1.2568331312865959
 31
0.0
  0
LINE
  5
2263
  8
0
 10
7.8143568334539211
 20
1.206833848849671
 30
0.0
 11
7.8411117505198566
 21
1.206833696431556
 31
0.0
  0
ARC
  5
2264
  8
0
 10
7.8146269509828983
 20
1.218804253228899
 30
0.0
 40
0.0119734516527902
 50
187.6673376731106941
 51
268.7073144896505141
  0
LINE
  5
2265
  8
0
 10
7.8002270185176306
 20
1.234245467871844
 30
0.0
 11
7.7971998451732807
 21
1.2135666264865961
 31
0.0
  0
ARC
  5
2266
  8
0
 10
7.7894088674044042
 20
1.214707146875964
 30
0.0
 40
0.0078740155799725
 50
275.3966887136539867
 51
351.6716331470869932
  0
LINE
  5
2267
  8
0
 10
7.7901494246862271
 20
1.2068680336438451
 30
0.0
 11
7.6976510126838056
 21
1.206833131186597
 31
0.0
  0
ARC
  5
2268
  8
0
 10
7.6973636950555209
 20
1.2149478004584251
 30
0.0
 40
0.0081197542333908
 50
186.8630812594770134
 51
272.0278353636851989
  0
LINE
  5
2269
  8
0
 10
7.6830284931959554
 20
1.2568331312865959
 30
0.0
 11
7.6893021225440634
 21
1.2139775131540149
 31
0.0
  0
LINE
  5
226A
  8
0
 10
11.4867065330298495
 20
1.2568331312865959
 30
0.0
 11
11.4811385668908201
 21
1.2144871584752011
 31
0.0
  0
ARC
  5
226B
  8
0
 10
11.4733450127040104
 20
1.215483005711478
 30
0.0
 40
0.0078569204260262
 50
270.0419024792946061
 51
352.7183008020422221
  0
LINE
  5
226C
  8
0
 10
11.4733507587540409
 20
1.207626087386598
 30
0.0
 11
11.3814572989540501
 21
1.2060541556365969
 31
0.0
  0
ARC
  5
226D
  8
0
 10
11.3811391549999694
 20
1.213956650313746
 30
0.0
 40
0.0079088961112081
 50
189.36477750114841
 51
272.3054071212383747
  0
LINE
  5
226E
  8
0
 10
11.3733356656540501
 20
1.2126697191865969
 30
0.0
 11
11.3661841405378503
 21
1.2568331312865959
 31
0.0
  0
LINE
  5
226F
  8
0
 10
10.7507283225658092
 20
1.2568331312865959
 30
0.0
 11
10.7451017506118909
 21
1.2142428122865969
 31
0.0
  0
ARC
  5
2270
  8
0
 10
10.7371963538100097
 20
1.215287187745022
 30
0.0
 40
0.0079740841915175
 50
269.7107221016539143
 51
352.4742815571489132
  0
LINE
  5
2271
  8
0
 10
10.7371560940118904
 20
1.207313205186596
 30
0.0
 11
10.6468607403118902
 21
1.206436579686597
 31
0.0
  0
ARC
  5
2272
  8
0
 10
10.6451283239632808
 20
1.214184314389763
 30
0.0
 40
0.007939059102664
 50
242.5700178163640999
 51
282.6041727791997005
  0
LINE
  5
2273
  8
0
 10
10.4686941040012105
 20
1.2568331312865959
 30
0.0
 11
10.4630675320472903
 21
1.2142428122865969
 31
0.0
  0
ARC
  5
2274
  8
0
 10
10.4551621352454092
 20
1.215287187745022
 30
0.0
 40
0.0079740841915175
 50
269.7107221016539143
 51
352.4742815571489132
  0
LINE
  5
2275
  8
0
 10
10.4551218754472899
 20
1.207313205186596
 30
0.0
 11
10.3648265217472897
 21
1.206436579686597
 31
0.0
  0
ARC
  5
2276
  8
0
 10
10.3630941053986803
 20
1.214184314389763
 30
0.0
 40
0.007939059102664
 50
189.220835521945304
 51
282.6041727791997005
  0
LINE
  5
2277
  8
0
 10
10.3552576343472893
 20
1.2129121583865969
 30
0.0
 11
10.3483483725315608
 21
1.2568331312865959
 31
0.0
  0
LINE
  5
2278
  8
0
 10
8.1682700664772945
 20
1.256833131286597
 30
0.0
 11
8.1622444359380708
 21
1.2138199986865981
 31
0.0
  0
ARC
  5
2279
  8
0
 10
8.1542692613970402
 20
1.214937226202133
 30
0.0
 40
0.0080530495019784
 50
267.784280773823582
 51
352.0254356517281167
  0
LINE
  5
227A
  8
0
 10
8.1539579147380721
 20
1.206890197586598
 30
0.0
 11
8.0633994089380678
 21
1.2064387734865969
 31
0.0
  0
ARC
  5
227B
  8
0
 10
8.0625541691116851
 20
1.214623714078273
 30
0.0
 40
0.0082284678314591
 50
187.9592350365246034
 51
275.8959031081753892
  0
LINE
  5
227C
  8
0
 10
8.0544049674490878
 20
1.2134843304222249
 30
0.0
 11
8.0479324389231337
 21
1.2568331312865959
 31
0.0
  0
LINE
  5
227D
  8
0
 10
8.2800858228501841
 20
1.206648566592665
 30
0.0
 11
8.2380000099469797
 21
1.2064387734865969
 31
0.0
  0
ARC
  5
227E
  8
0
 10
8.2371547701205952
 20
1.214623714078273
 30
0.0
 40
0.0082284678314591
 50
187.9592350365246034
 51
275.8959031081753892
  0
LINE
  5
227F
  8
0
 10
8.2290055684579997
 20
1.2134843304222249
 30
0.0
 11
8.2225330399320455
 21
1.2568331312865959
 31
0.0
  0
LINE
  5
2280
  8
0
 10
8.3878277274803814
 20
1.256833131286597
 30
0.0
 11
8.3818020969411577
 21
1.2138199986865981
 31
0.0
  0
ARC
  5
2281
  8
0
 10
8.3738269224001272
 20
1.214937226202133
 30
0.0
 40
0.0080530495019784
 50
267.784280773823582
 51
352.0254356517281167
  0
LINE
  5
2282
  8
0
 10
8.373515575741159
 20
1.206890197586598
 30
0.0
 11
8.2829570699411548
 21
1.2064387734865969
 31
0.0
  0
ARC
  5
2283
  8
0
 10
8.282111830114772
 20
1.214623714078273
 30
0.0
 40
0.0082284678314591
 50
187.9592350365246034
 51
275.8959031081753892
  0
LINE
  5
2284
  8
0
 10
8.2739626284521748
 20
1.2134843304222249
 30
0.0
 11
8.2674900999262206
 21
1.2568331312865959
 31
0.0
  0
LINE
  5
2285
  8
0
 10
8.5013007584975036
 20
1.2067714868785151
 30
0.0
 11
8.4345563652945543
 21
1.2064387734865969
 31
0.0
  0
ARC
  5
2286
  8
0
 10
8.4337111254681716
 20
1.214623714078273
 30
0.0
 40
0.0082284678314591
 50
187.9592350365246034
 51
275.8959031081753892
  0
LINE
  5
2287
  8
0
 10
8.4255619238055743
 20
1.2134843304222249
 30
0.0
 11
8.4190893952796202
 21
1.2568331312865959
 31
0.0
  0
LINE
  5
2288
  8
0
 10
8.6094763735007156
 20
1.256833131286597
 30
0.0
 11
8.6034507429614901
 21
1.2138199986865981
 31
0.0
  0
ARC
  5
2289
  8
0
 10
8.5954755684204613
 20
1.214937226202133
 30
0.0
 40
0.0080530495019784
 50
267.784280773823582
 51
352.0254356517281167
  0
LINE
  5
228A
  8
0
 10
8.5951642217614932
 20
1.206890197586598
 30
0.0
 11
8.5046057159614872
 21
1.2064387734865969
 31
0.0
  0
ARC
  5
228B
  8
0
 10
8.5037604761351062
 20
1.214623714078273
 30
0.0
 40
0.0082284678314591
 50
187.9592350365246034
 51
275.8959031081753892
  0
LINE
  5
228C
  8
0
 10
8.4956112744725072
 20
1.2134843304222249
 30
0.0
 11
8.4891387459465548
 21
1.2568331312865959
 31
0.0
  0
LINE
  5
228D
  8
0
 10
7.4932787249620141
 20
1.2568331477447789
 30
0.0
 11
7.4869449459620121
 21
1.2135666431447809
 31
0.0
  0
ARC
  5
228E
  8
0
 10
7.4791539477201736
 20
1.2147071665475699
 30
0.0
 40
0.0078740362735157
 50
270.1206964461221105
 51
351.6716330291058057
  0
LINE
  5
228F
  8
0
 10
7.4791705347620123
 20
1.20683314774478
 30
0.0
 11
7.3868817841620142
 21
1.20683314774478
 31
0.0
  0
ARC
  5
2290
  8
0
 10
7.3868983846440273
 20
1.214707182052269
 30
0.0
 40
0.0078740518065056
 50
188.3284645243446107
 51
269.8792059939030992
  0
LINE
  5
2291
  8
0
 10
7.3791073729749099
 20
1.213566643134385
 30
0.0
 11
7.3727764987457176
 21
1.256813305639005
 31
0.0
  0
ARC
  5
2292
  8
0
 10
0.0299403388850124
 20
1.286761974277961
 30
0.0
 40
0.0299402865158465
 50
180.014511522305213
 51
268.4158241463121044
  0
LINE
  5
2293
  8
0
 10
0.0000000533294653
 20
1.2867543911865951
 30
0.0
 11
0.0000000533294653
 21
1.729274076186595
 31
0.0
  0
LINE
  5
2294
  8
0
 10
0.991706533742377
 20
1.2568331312865959
 30
0.0
 11
0.9961452665679502
 21
1.2154711643865981
 31
0.0
  0
ARC
  5
2295
  8
0
 10
1.003974330210418
 20
1.2163113353065971
 30
0.0
 40
0.0078740157919925
 50
186.1252180095098083
 51
267.9999996568109282
  0
LINE
  5
2296
  8
0
 10
1.095850131276932
 20
1.205224146324424
 30
0.0
 11
1.003682774967948
 21
1.208442701286597
 31
0.0
  0
ARC
  5
2297
  8
0
 10
1.096124930442826
 20
1.213093365442947
 30
0.0
 40
0.0078740157554386
 50
268.0000001529181191
 51
349.8747817013450003
  0
LINE
  5
2298
  8
0
 10
1.1038763154850311
 20
1.211709113282234
 30
0.0
 11
1.111934619785806
 21
1.2568331312865959
 31
0.0
  0
LINE
  5
2299
  8
0
 10
1.1980940049756541
 20
1.2568331312865959
 30
0.0
 11
1.202589728442923
 21
1.2154065150865969
 31
0.0
  0
ARC
  5
229A
  8
0
 10
1.2107375005697061
 20
1.216455729031281
 30
0.0
 40
0.0082150496365975
 50
187.3377738710240124
 51
273.4205523481833779
  0
LINE
  5
229B
  8
0
 10
1.2112276469429231
 20
1.2082553145865971
 30
0.0
 11
1.3021966552429229
 21
1.205303904786597
 31
0.0
  0
ARC
  5
229C
  8
0
 10
1.3026127343130931
 20
1.2131224418939881
 30
0.0
 40
0.0078296005193309
 50
266.9537641690866963
 51
350.0717837652558728
  0
LINE
  5
229D
  8
0
 10
1.3183170862606699
 20
1.2568331312865959
 30
0.0
 11
1.3101753238929199
 21
1.211190580536597
 31
0.0
  0
LINE
  5
229E
  8
0
 10
1.791472741564049
 20
1.2568331312865959
 30
0.0
 11
1.796136493834914
 21
1.2152170552865971
 31
0.0
  0
ARC
  5
229F
  8
0
 10
1.8084386183077319
 20
1.2224532025242381
 30
0.0
 40
0.0142724942946032
 50
210.4641727219697884
 51
266.5334923889503216
  0
LINE
  5
22A0
  8
0
 10
1.8075756309841751
 20
1.208206822413177
 30
0.0
 11
1.8954460386849159
 21
1.205305345986597
 31
0.0
  0
ARC
  5
22A1
  8
0
 10
1.8957994458066869
 20
1.21353401588514
 30
0.0
 40
0.0082362555140626
 50
267.5407568201771937
 51
348.972170786837296
  0
LINE
  5
22A2
  8
0
 10
1.9038836138349211
 20
1.2119585374865971
 30
0.0
 11
1.9116821487522979
 21
1.2568331312865959
 31
0.0
  0
LINE
  5
22A3
  8
0
 10
1.900660222509408
 20
1.2068850494437111
 30
0.0
 11
1.949759229069314
 21
1.206028023086597
 31
0.0
  0
ARC
  5
22A4
  8
0
 10
1.9496599526023171
 20
1.2141659534804381
 30
0.0
 40
0.0081380944204577
 50
270.5906904192261777
 51
352.3584504961468156
  0
LINE
  5
22A5
  8
0
 10
1.9577257756215261
 20
1.213083789066375
 30
0.0
 11
1.96483688048557
 21
1.2568331312865959
 31
0.0
  0
LINE
  5
22A6
  8
0
 10
2.018567716610967
 20
1.2568331312865959
 30
0.0
 11
2.0241356827499919
 21
1.2144871584752011
 31
0.0
  0
ARC
  5
22A7
  8
0
 10
2.0319292369368109
 20
1.215483005711478
 30
0.0
 40
0.0078569204260262
 50
187.2816991979576926
 51
269.9580975207052802
  0
LINE
  5
22A8
  8
0
 10
2.0319234908867752
 20
1.207626087386598
 30
0.0
 11
2.1238169506867659
 21
1.2060541556365969
 31
0.0
  0
ARC
  5
22A9
  8
0
 10
2.1241350946408479
 20
1.213956650313746
 30
0.0
 40
0.0079088961112081
 50
267.6945928787616253
 51
350.6352224988514763
  0
LINE
  5
22AA
  8
0
 10
2.1319385839867659
 20
1.2126697191865969
 30
0.0
 11
2.1390901091029662
 21
1.2568331312865959
 31
0.0
  0
LINE
  5
22AB
  8
0
 10
2.6961872949631061
 20
1.2568331312865959
 30
0.0
 11
2.7016740857214141
 21
1.2143929046865971
 31
0.0
  0
ARC
  5
22AC
  8
0
 10
2.7095533348746978
 20
1.215411555973362
 30
0.0
 40
0.0079448233248813
 50
187.3664980634272013
 51
270.0056124913467102
  0
LINE
  5
22AD
  8
0
 10
2.7095541131214129
 20
1.2074667326865971
 30
0.0
 11
2.752167261009653
 21
1.207048196153754
 31
0.0
  0
LINE
  5
22AE
  8
0
 10
2.7407716482543658
 20
1.2568331312865959
 30
0.0
 11
2.7457055843088289
 21
1.214915935486597
 31
0.0
  0
ARC
  5
22AF
  8
0
 10
2.7559767224773921
 20
1.2167641767134381
 30
0.0
 40
0.0104361043934185
 50
190.2009281788180886
 51
253.6361453836618125
  0
LINE
  5
22B0
  8
0
 10
2.7530364939599892
 20
1.2067508190759739
 30
0.0
 11
2.8460931736597881
 21
1.2067508190759739
 31
0.0
  0
ARC
  5
22B1
  8
0
 10
2.8460931736597881
 20
1.2144445836869779
 30
0.0
 40
0.0076937646110036
 50
270.0
 51
343.465303831945107
  0
LINE
  5
22B2
  8
0
 10
2.8534687824088252
 20
1.2122549696865961
 30
0.0
 11
2.8609623735256369
 21
1.256833131286597
 31
0.0
  0
ARC
  5
22B3
  8
0
 10
2.854421093651232
 20
1.2147071469817441
 30
0.0
 40
0.0078740156922494
 50
238.406460734590496
 51
264.9498725584746808
  0
LINE
  5
22B4
  8
0
 10
2.8537279655540639
 20
1.2068636977046281
 30
0.0
 11
2.9456493855402348
 21
1.206833131186597
 31
0.0
  0
ARC
  5
22B5
  8
0
 10
2.9465473022132249
 20
1.214805826518115
 30
0.0
 40
0.0080230994759411
 50
263.5741986627460278
 51
354.02145376218499
  0
LINE
  5
22B6
  8
0
 10
2.9545267637715962
 20
1.2139701720205069
 30
0.0
 11
2.9608014677596581
 21
1.2568331312865959
 31
0.0
  0
LINE
  5
22B7
  8
0
 10
3.3426381683549091
 20
1.2568331312865959
 30
0.0
 11
3.348264740308827
 21
1.2142428122865969
 31
0.0
  0
ARC
  5
22B8
  8
0
 10
3.3561701371107091
 20
1.215287187745022
 30
0.0
 40
0.0079740841915175
 50
187.5257184428510016
 51
270.2892778983460857
  0
LINE
  5
22B9
  8
0
 10
3.3562103969088279
 20
1.207313205186596
 30
0.0
 11
3.4465057506088281
 21
1.206436579686597
 31
0.0
  0
ARC
  5
22BA
  8
0
 10
3.448238166957438
 20
1.214184314389763
 30
0.0
 40
0.007939059102664
 50
257.3958272208002995
 51
350.7791644780547244
  0
LINE
  5
22BB
  8
0
 10
3.4560746380088281
 20
1.2129121583865969
 30
0.0
 11
3.462983899824557
 21
1.2568331312865959
 31
0.0
  0
LINE
  5
22BC
  8
0
 10
3.451253444408827
 20
1.206833131186597
 30
0.0
 11
3.5103058482088221
 21
1.206833131286597
 31
0.0
  0
ARC
  5
22BD
  8
0
 10
3.510321387385452
 20
1.21468916741191
 30
0.0
 40
0.0078560514934809
 50
269.8866695541616991
 51
351.7849635666343033
  0
LINE
  5
22BE
  8
0
 10
3.5180968260959342
 20
1.213566626576269
 30
0.0
 11
3.524430605112165
 21
1.2568331312865959
 31
0.0
  0
LINE
  5
22BF
  8
0
 10
3.6627683675177769
 20
1.2568331312865959
 30
0.0
 11
3.6680597303454761
 21
1.214524041186597
 31
0.0
  0
ARC
  5
22C0
  8
0
 10
3.6767124503966282
 20
1.215606188808513
 30
0.0
 40
0.008720126590777
 50
187.1286518812088104
 51
269.8936436671015144
  0
LINE
  5
22C1
  8
0
 10
3.6766962635123259
 20
1.2068860772413379
 30
0.0
 11
3.764626131845481
 21
1.2055445281865971
 31
0.0
  0
LINE
  5
22C2
  8
0
 10
3.782940408061545
 20
1.2568331312865959
 30
0.0
 11
3.7758390138454772
 21
1.2126421734865971
 31
0.0
  0
ARC
  5
22C3
  8
0
 10
3.7665795053863032
 20
1.214867735393488
 30
0.0
 40
0.0095108901580212
 50
258.1588686166991238
 51
347.5298251343116931
  0
LINE
  5
22C4
  8
0
 10
3.9421994787818231
 20
1.2568331312865959
 30
0.0
 11
3.9475691150132022
 21
1.2145195173532719
 31
0.0
  0
ARC
  5
22C5
  8
0
 10
3.9553805027807618
 20
1.215510789591093
 30
0.0
 40
0.0078740332425429
 50
187.2322298157401121
 51
268.8879559996004218
  0
LINE
  5
22C6
  8
0
 10
3.9552276866089708
 20
1.2076382393865961
 30
0.0
 11
4.0474769156089669
 21
1.206028023086597
 31
0.0
  0
ARC
  5
22C7
  8
0
 10
4.0473776391419696
 20
1.2141659534804381
 30
0.0
 40
0.0081380944204577
 50
270.5906904192261777
 51
352.3584504961468156
  0
LINE
  5
22C8
  8
0
 10
4.0554434621611861
 20
1.213083789066375
 30
0.0
 11
4.0625545670252299
 21
1.256833131286597
 31
0.0
  0
LINE
  5
22C9
  8
0
 10
4.3962322395118321
 20
1.2568331312865959
 30
0.0
 11
4.4015505133310588
 21
1.2149242615826359
 31
0.0
  0
ARC
  5
22CA
  8
0
 10
4.4093619010986203
 20
1.215915533820457
 30
0.0
 40
0.0078740332425429
 50
187.2322298157401121
 51
268.8879559996004218
  0
LINE
  5
22CB
  8
0
 10
4.4092090849268279
 20
1.208042983615961
 30
0.0
 11
4.5014583139268254
 21
1.2064327673159609
 31
0.0
  0
ARC
  5
22CC
  8
0
 10
4.501359037459828
 20
1.2145706977098021
 30
0.0
 40
0.0081380944204577
 50
270.5906904192261777
 51
352.3584504961468156
  0
LINE
  5
22CD
  8
0
 10
4.5094248604790428
 20
1.2134885332957399
 30
0.0
 11
4.5164701774132112
 21
1.256833131286597
 31
0.0
  0
LINE
  5
22CE
  8
0
 10
4.1221999638115321
 20
1.256833131286597
 30
0.0
 11
4.1158661848081897
 21
1.2135666264865961
 31
0.0
  0
ARC
  5
22CF
  8
0
 10
4.1080752070309137
 20
1.2147071468889099
 30
0.0
 40
0.0078740155901577
 50
281.8867485895931964
 51
351.6716330627270963
  0
LINE
  5
22D0
  8
0
 10
4.1096970799873631
 20
1.2070019765710529
 30
0.0
 11
4.0731738069626431
 21
1.207094097719716
 31
0.0
  0
LINE
  5
22D1
  8
0
 10
4.0902028392014103
 20
1.2568331312865959
 30
0.0
 11
4.08438810721126
 21
1.214048436263707
 31
0.0
  0
ARC
  5
22D2
  8
0
 10
4.0763064967104361
 20
1.2153034791137931
 30
0.0
 40
0.0081832593354283
 50
269.3438464096103075
 51
351.1703109153534115
  0
LINE
  5
22D3
  8
0
 10
4.076212783741112
 20
1.207120756386592
 30
0.0
 11
4.0510428694861744
 21
1.20689995958282
 31
0.0
  0
LINE
  5
22D4
  8
0
 10
3.9698617865257542
 20
1.2568331312865959
 30
0.0
 11
3.9765701204224722
 21
1.213163301186597
 31
0.0
  0
ARC
  5
22D5
  8
0
 10
3.9844851567674189
 20
1.214372136171499
 30
0.0
 40
0.0080068147451089
 50
188.6834778167875868
 51
243.7781915769490126
  0
LINE
  5
22D6
  8
0
 10
4.5427482607745304
 20
1.2568331312865959
 30
0.0
 11
4.5485891819831741
 21
1.216933374139997
 31
0.0
  0
ARC
  5
22D7
  8
0
 10
4.5602756488552103
 20
1.2186441547835021
 30
0.0
 40
0.0118110235949884
 50
188.3283669845899908
 51
264.7611289257113754
  0
LINE
  5
22D8
  8
0
 10
4.5591972056051802
 20
1.2068824695931131
 30
0.0
 11
4.6457247498763499
 21
1.206833131186597
 31
0.0
  0
ARC
  5
22D9
  8
0
 10
4.6456767093503037
 20
1.218770262859157
 30
0.0
 40
0.0119372334524632
 50
270.2366012924651955
 51
357.3786978378686854
  0
LINE
  5
22DA
  8
0
 10
4.6576014521008204
 20
1.2182243207078221
 30
0.0
 11
4.6632533917909909
 21
1.2568331312865959
 31
0.0
  0
LINE
  5
22DB
  8
0
 10
4.9412271809002339
 20
1.256833131286597
 30
0.0
 11
4.9355120184304653
 21
1.214068506086597
 31
0.0
  0
ARC
  5
22DC
  8
0
 10
4.9274660207950802
 20
1.215143791641013
 30
0.0
 40
0.0081175314580366
 50
275.4247436412823049
 51
352.3879645909614737
  0
LINE
  5
22DD
  8
0
 10
4.9282334379804658
 20
1.207062616736597
 30
0.0
 11
4.8381640374120698
 21
1.205891221149749
 31
0.0
  0
ARC
  5
22DE
  8
0
 10
4.8368293739919741
 20
1.2151279951934639
 30
0.0
 40
0.0093327017084865
 50
192.5865142760737001
 51
278.2220208527148202
  0
LINE
  5
22DF
  8
0
 10
4.8277209550304709
 20
1.2130942731865491
 30
0.0
 11
4.8210688203152543
 21
1.2568331312865959
 31
0.0
  0
LINE
  5
22E0
  8
0
 10
4.832552160847043
 20
1.206833131186597
 30
0.0
 11
4.7895660499304631
 21
1.206833131286597
 31
0.0
  0
ARC
  5
22E1
  8
0
 10
4.7895660499487809
 20
1.214707147007791
 30
0.0
 40
0.0078740157211938
 50
188.3283676719451876
 51
269.9999998667134946
  0
LINE
  5
22E2
  8
0
 10
4.7817750720564831
 20
1.213566626486597
 30
0.0
 11
4.7754412924864651
 21
1.256833131286597
 31
0.0
  0
LINE
  5
22E3
  8
0
 10
5.2491415290696004
 20
1.256833131286597
 30
0.0
 11
5.2551671596088241
 21
1.2138199986865981
 31
0.0
  0
ARC
  5
22E4
  8
0
 10
5.2631423341498538
 20
1.214937226202133
 30
0.0
 40
0.0080530495019784
 50
187.9745643482719117
 51
272.215719226176418
  0
LINE
  5
22E5
  8
0
 10
5.2634536808088219
 20
1.206890197586598
 30
0.0
 11
5.3540121866088271
 21
1.2064387734865969
 31
0.0
  0
ARC
  5
22E6
  8
0
 10
5.3548574264352089
 20
1.214623714078273
 30
0.0
 40
0.0082284678314591
 50
264.1040968918244971
 51
352.0407649634753966
  0
LINE
  5
22E7
  8
0
 10
5.363006628097807
 20
1.2134843304222249
 30
0.0
 11
5.3694791566237612
 21
1.2568331312865959
 31
0.0
  0
LINE
  5
22E8
  8
0
 10
6.0682845159759751
 20
1.256833131286597
 30
0.0
 11
6.0746182949764096
 21
1.213566626486597
 31
0.0
  0
ARC
  5
22E9
  8
0
 10
6.0824092727633916
 20
1.2147071468898081
 30
0.0
 40
0.0078740155998914
 50
188.3283669334975912
 51
267.7638800818646132
  0
LINE
  5
22EA
  8
0
 10
6.0821020464050051
 20
1.2068391272131651
 30
0.0
 11
6.1745944052804438
 21
1.206833131186597
 31
0.0
  0
ARC
  5
22EB
  8
0
 10
6.1745062661778141
 20
1.214891973846937
 30
0.0
 40
0.008059324632097
 50
270.6266156895327981
 51
352.8084799364435753
  0
LINE
  5
22EC
  8
0
 10
6.1825021900382353
 20
1.2138830560386069
 30
0.0
 11
6.1887896469002959
 21
1.256833131286597
 31
0.0
  0
LINE
  5
22ED
  8
0
 10
6.2129473674338618
 20
1.2169333741865971
 30
0.0
 11
6.2188787101027456
 21
1.2568331312865959
 31
0.0
  0
LINE
  5
22EE
  8
0
 10
6.2013911009957701
 20
1.206833848849671
 30
0.0
 11
6.1746361839298336
 21
1.206833696431556
 31
0.0
  0
ARC
  5
22EF
  8
0
 10
6.2011209834667929
 20
1.218804253228899
 30
0.0
 40
0.0119734516527902
 50
271.2926855103494859
 51
352.3326623268891922
  0
LINE
  5
22F0
  8
0
 10
6.2155209159320597
 20
1.234245467871844
 30
0.0
 11
6.2185480892764096
 21
1.2135666264865961
 31
0.0
  0
ARC
  5
22F1
  8
0
 10
6.2263390670452869
 20
1.214707146875964
 30
0.0
 40
0.0078740155799725
 50
188.3283668529130921
 51
264.6033112863460133
  0
LINE
  5
22F2
  8
0
 10
6.2255985097634641
 20
1.2068680336438451
 30
0.0
 11
6.3180969217658847
 21
1.206833131186597
 31
0.0
  0
ARC
  5
22F3
  8
0
 10
6.3183842393941703
 20
1.2149478004584251
 30
0.0
 40
0.0081197542333908
 50
267.9721646363148011
 51
353.136918740523015
  0
LINE
  5
22F4
  8
0
 10
6.3327194412537358
 20
1.2568331312865959
 30
0.0
 11
6.3264458119056277
 21
1.2139775131540149
 31
0.0
  0
LINE
  5
22F5
  8
0
 10
2.529041401419839
 20
1.2568331312865959
 30
0.0
 11
2.5346093675588639
 21
1.2144871584752011
 31
0.0
  0
ARC
  5
22F6
  8
0
 10
2.5424029217456829
 20
1.215483005711478
 30
0.0
 40
0.0078569204260262
 50
187.2816991979576926
 51
269.9580975207052802
  0
LINE
  5
22F7
  8
0
 10
2.5423971756956472
 20
1.207626087386598
 30
0.0
 11
2.6342906354956379
 21
1.2060541556365969
 31
0.0
  0
ARC
  5
22F8
  8
0
 10
2.6346087794497199
 20
1.213956650313746
 30
0.0
 40
0.0079088961112081
 50
267.6945928787616253
 51
350.63522249885159
  0
LINE
  5
22F9
  8
0
 10
2.642412268795638
 20
1.2126697191865969
 30
0.0
 11
2.6495637939118382
 21
1.2568331312865959
 31
0.0
  0
LINE
  5
22FA
  8
0
 10
3.2650196118838788
 20
1.2568331312865959
 30
0.0
 11
3.2706461838377971
 21
1.2142428122865969
 31
0.0
  0
ARC
  5
22FB
  8
0
 10
3.2785515806396779
 20
1.215287187745022
 30
0.0
 40
0.0079740841915175
 50
187.5257184428510016
 51
270.2892778983460857
  0
LINE
  5
22FC
  8
0
 10
3.2785918404377981
 20
1.207313205186596
 30
0.0
 11
3.3688871941377978
 21
1.206436579686597
 31
0.0
  0
ARC
  5
22FD
  8
0
 10
3.3706196104864068
 20
1.214184314389763
 30
0.0
 40
0.007939059102664
 50
257.3958272208002995
 51
297.4299821836359001
  0
LINE
  5
22FE
  8
0
 10
3.5470538304484829
 20
1.2568331312865959
 30
0.0
 11
3.5526804024024008
 21
1.2142428122865969
 31
0.0
  0
ARC
  5
22FF
  8
0
 10
3.560585799204282
 20
1.215287187745022
 30
0.0
 40
0.0079740841915175
 50
187.5257184428510016
 51
270.2892778983460857
  0
LINE
  5
2300
  8
0
 10
3.5606260590024021
 20
1.207313205186596
 30
0.0
 11
3.6509214127024019
 21
1.206436579686597
 31
0.0
  0
ARC
  5
2301
  8
0
 10
3.6526538290510109
 20
1.214184314389763
 30
0.0
 40
0.007939059102664
 50
257.3958272208002995
 51
350.7791644780547244
  0
LINE
  5
2302
  8
0
 10
3.6604903001024018
 20
1.2129121583865969
 30
0.0
 11
3.6673995619181312
 21
1.2568331312865959
 31
0.0
  0
LINE
  5
2303
  8
0
 10
5.8474778679723967
 20
1.256833131286597
 30
0.0
 11
5.8535034985116212
 21
1.2138199986865981
 31
0.0
  0
ARC
  5
2304
  8
0
 10
5.8614786730526509
 20
1.214937226202133
 30
0.0
 40
0.0080530495019784
 50
187.9745643482719117
 51
272.215719226176418
  0
LINE
  5
2305
  8
0
 10
5.8617900197116191
 20
1.206890197586598
 30
0.0
 11
5.9523485255116242
 21
1.2064387734865969
 31
0.0
  0
ARC
  5
2306
  8
0
 10
5.953193765338006
 20
1.214623714078273
 30
0.0
 40
0.0082284678314591
 50
264.1040968918244971
 51
352.0407649634753966
  0
LINE
  5
2307
  8
0
 10
5.9613429670006042
 20
1.2134843304222249
 30
0.0
 11
5.9678154955265583
 21
1.2568331312865959
 31
0.0
  0
LINE
  5
2308
  8
0
 10
5.7356621115995061
 20
1.206648566592665
 30
0.0
 11
5.7777479245027124
 21
1.2064387734865969
 31
0.0
  0
ARC
  5
2309
  8
0
 10
5.7785931643290951
 20
1.214623714078273
 30
0.0
 40
0.0082284678314591
 50
264.1040968918244971
 51
352.0407649634753966
  0
LINE
  5
230A
  8
0
 10
5.7867423659916923
 20
1.2134843304222249
 30
0.0
 11
5.7932148945176456
 21
1.2568331312865959
 31
0.0
  0
LINE
  5
230B
  8
0
 10
5.6279202069693097
 20
1.256833131286597
 30
0.0
 11
5.6339458375085343
 21
1.2138199986865981
 31
0.0
  0
ARC
  5
230C
  8
0
 10
5.641921012049564
 20
1.214937226202133
 30
0.0
 40
0.0080530495019784
 50
187.9745643482719117
 51
272.215719226176418
  0
LINE
  5
230D
  8
0
 10
5.642232358708533
 20
1.206890197586598
 30
0.0
 11
5.7327908645085373
 21
1.2064387734865969
 31
0.0
  0
ARC
  5
230E
  8
0
 10
5.7336361043349191
 20
1.214623714078273
 30
0.0
 40
0.0082284678314591
 50
264.1040968918244971
 51
352.0407649634753966
  0
LINE
  5
230F
  8
0
 10
5.7417853059975172
 20
1.2134843304222249
 30
0.0
 11
5.7482578345234714
 21
1.2568331312865959
 31
0.0
  0
LINE
  5
2310
  8
0
 10
5.5144471759521876
 20
1.2067714868785151
 30
0.0
 11
5.5811915691551368
 21
1.2064387734865969
 31
0.0
  0
ARC
  5
2311
  8
0
 10
5.5820368089815204
 20
1.214623714078273
 30
0.0
 40
0.0082284678314591
 50
264.1040968918244971
 51
352.0407649634753966
  0
LINE
  5
2312
  8
0
 10
5.5901860106441168
 20
1.2134843304222249
 30
0.0
 11
5.5966585391700709
 21
1.2568331312865959
 31
0.0
  0
LINE
  5
2313
  8
0
 10
5.4062715609489764
 20
1.256833131286597
 30
0.0
 11
5.4122971914882001
 21
1.2138199986865981
 31
0.0
  0
ARC
  5
2314
  8
0
 10
5.4202723660292298
 20
1.214937226202133
 30
0.0
 40
0.0080530495019784
 50
187.9745643482719117
 51
272.215719226176418
  0
LINE
  5
2315
  8
0
 10
5.4205837126881979
 20
1.206890197586598
 30
0.0
 11
5.5111422184882031
 21
1.2064387734865969
 31
0.0
  0
ARC
  5
2316
  8
0
 10
5.5119874583145849
 20
1.214623714078273
 30
0.0
 40
0.0082284678314591
 50
264.1040968918244971
 51
352.0407649634753966
  0
LINE
  5
2317
  8
0
 10
5.5201366599771831
 20
1.2134843304222249
 30
0.0
 11
5.5266091885031372
 21
1.2568331312865959
 31
0.0
  0
LINE
  5
2318
  8
0
 10
6.5224692094876771
 20
1.2568331477447789
 30
0.0
 11
6.528802988487679
 21
1.2135666431447809
 31
0.0
  0
ARC
  5
2319
  8
0
 10
6.5365939867295166
 20
1.2147071665475699
 30
0.0
 40
0.0078740362735157
 50
188.3283669708941943
 51
269.8793035538780032
  0
LINE
  5
231A
  8
0
 10
6.5365773996876788
 20
1.20683314774478
 30
0.0
 11
6.6288661502876769
 21
1.20683314774478
 31
0.0
  0
ARC
  5
231B
  8
0
 10
6.6288495498056639
 20
1.214707182052269
 30
0.0
 40
0.0078740518065056
 50
270.1207940060969008
 51
351.6715354756553893
  0
LINE
  5
231C
  8
0
 10
6.6366405614747812
 20
1.213566643134385
 30
0.0
 11
6.6429714357039726
 21
1.256813305639005
 31
0.0
  0
ENDBLK
  5
2320
  8
0
  0
ENDSEC
  0
SECTION
  2
ENTITIES
  0
ATTDEF
  5
1B48
  8
DEFPOINTS
 10
5.8338386006321761
 20
8.6557334388992189
 30
0.0
 40
0.001
  1
K-13691W
  3

  2
MODELNUMBER
 70
     0
1001
ACDBATTR
1070
     0
1070
     1
  0
ATTDEF
  5
1B49
  8
DEFPOINTS
 10
5.8338386006321761
 20
8.6540667722325537
 30
0.0
 40
0.001
  1

  3

  2
TRADENAME
 70
     0
1001
ACDBATTR
1070
     0
1070
     1
  0
ATTDEF
  5
1B4A
  8
DEFPOINTS
 10
5.8338386006321761
 20
8.6524001055658886
 30
0.0
 40
0.001
  1
SHOWERHEAD
  3

  2
PRODUCT
 70
     0
1001
ACDBATTR
1070
     0
1070
     1
  0
LINE
  5
2322
  8
0
 10
12.8527993738937099
 20
6.418086889084468
 30
0.0
 11
-1.1629484538970509
 21
6.418086889084468
 31
0.0
  0
LINE
  5
2323
  8
0
 10
5.3699262318641479
 20
8.6569766528844667
 30
0.0
 11
6.3199202268641477
 21
8.6569766528844667
 31
0.0
  0
ARC
  5
2324
  8
0
 10
6.3199189803506846
 20
8.6369676369943313
 30
0.0
 40
0.0200090159289637
 50
0.0258185004795233
 51
89.996430611043607
  0
ARC
  5
2325
  8
0
 10
6.2247895401089357
 20
7.6287367660539482
 30
0.0
 40
0.0699286249674428
 50
112.4431275272081052
 51
230.643373226014802
  0
ARC
  5
2326
  8
0
 10
5.8670487503572062
 20
7.1924940561587354
 30
0.0
 40
0.4942399444568933
 50
32.9925221736781396
 51
50.6469856944056218
  0
ARC
  5
2327
  8
0
 10
5.4649239000252763
 20
7.6287156301866457
 30
0.0
 40
0.0700017113224115
 50
309.4547980100730911
 51
67.4588969687880251
  0
ARC
  5
2328
  8
0
 10
5.8850945129329508
 20
7.1370716022280041
 30
0.0
 40
0.5767398709155586
 50
130.647019860367692
 51
145.7549660922333885
  0
ARC
  5
2329
  8
0
 10
5.369924985767752
 20
8.6369796611775875
 30
0.0
 40
0.0199969917457075
 50
89.9964296597607643
 51
180.0086194214696889
  0
LINE
  5
232A
  8
0
 10
5.1264216248029468
 20
7.4616223221844677
 30
0.0
 11
6.5634292951937061
 21
7.4616223221844677
 31
0.0
  0
LINE
  5
232B
  8
0
 10
6.5634292951937061
 20
7.4616223221844677
 30
0.0
 11
6.5634292951937061
 21
6.418086889084468
 31
0.0
  0
LINE
  5
232C
  8
0
 10
5.1264216248029468
 20
7.4616223221838851
 30
0.0
 11
5.1264216248029468
 21
6.4180868890838854
 31
0.0
  0
LINE
  5
232D
  8
0
 10
6.3399279942481712
 20
8.6369766534135906
 30
0.0
 11
6.339959773298907
 21
8.5311187987901391
 31
0.0
  0
ARC
  5
232E
  8
0
 10
6.3297302242947211
 20
8.5312492305039207
 30
0.0
 40
0.0102303805042082
 50
315.2565347333842283
 51
359.2694905936999135
  0
LINE
  5
232F
  8
0
 10
6.3369965123141441
 20
8.524047720684468
 30
0.0
 11
6.3031313553878121
 21
8.4901825640325725
 31
0.0
  0
ARC
  5
2330
  8
0
 10
6.3099714104100348
 20
8.4828249033648184
 30
0.0
 40
0.0100459704961189
 50
132.9120943761392937
 51
179.9451683533413018
  0
LINE
  5
2331
  8
0
 10
6.2999254445141437
 20
8.4828345172844664
 30
0.0
 11
6.2999254445141437
 21
7.779308753184468
 31
0.0
  0
ARC
  5
2332
  8
0
 10
6.2888041100914904
 20
7.7796633502830632
 30
0.0
 40
0.0111269860448751
 50
326.729421824577912
 51
358.1737770151094082
  0
ARC
  5
2333
  8
0
 10
6.1099156292124439
 20
7.905809639697198
 30
0.0
 40
0.2300137702233346
 50
292.5418156394384823
 51
324.9026112878131016
  0
LINE
  5
2334
  8
0
 10
5.3499279942483247
 20
8.6369766528844671
 30
0.0
 11
5.3499279942483247
 21
8.5311194747271042
 31
0.0
  0
ARC
  5
2335
  8
0
 10
5.3598533858788349
 20
8.5310853616544371
 30
0.0
 40
0.0099254502527925
 50
179.8030780581059958
 51
225.170423911344102
  0
LINE
  5
2336
  8
0
 10
5.3528559395144617
 20
8.5240461637528071
 30
0.0
 11
5.3867169305964993
 21
8.4901851727699444
 31
0.0
  0
ARC
  5
2337
  8
0
 10
5.3798256529172122
 20
8.4828015906476857
 30
0.0
 40
0.0100998511379715
 50
0.1867909375409587
 51
46.9752062134169819
  0
LINE
  5
2338
  8
0
 10
5.3899254503827967
 20
8.4828345172844681
 30
0.0
 11
5.3899254503827967
 21
7.7793087531844671
 31
0.0
  0
ARC
  5
2339
  8
0
 10
5.4011190152043786
 20
7.77968619152408
 30
0.0
 40
0.0111999264781144
 50
181.9312376178332897
 51
213.1655644149739999
  0
ARC
  5
233A
  8
0
 10
5.5798739327232019
 20
7.9057356051789514
 30
0.0
 40
0.2299209066474519
 50
215.0910818725276954
 51
247.465408964176504
  0
LINE
  5
233B
  8
0
 10
6.0487868203327926
 20
7.4616223221844677
 30
0.0
 11
6.0487868203327926
 21
6.9891813772844671
 31
0.0
  0
LINE
  5
233C
  8
0
 10
6.0487868144141501
 20
6.9891813772844671
 30
0.0
 11
5.6410640747141443
 21
6.9891813772844671
 31
0.0
  0
LINE
  5
233D
  8
0
 10
5.6410640806327939
 20
6.9891813772844671
 30
0.0
 11
5.6410640806327939
 21
7.4616223221844677
 31
0.0
  0
LINE
  5
233F
  8
0
 10
12.8236868043820795
 20
5.9456459441844709
 30
0.0
 11
-1.13383588438538
 21
5.94564594418447
 31
0.0
  0
ARC
  5
2340
  8
0
 10
12.8228590883381592
 20
5.9755747871758329
 30
0.0
 40
0.0299402865158465
 50
271.5841758536877251
 51
359.9854884776946164
  0
LINE
  5
2341
  8
0
 10
5.9051779260030228
 20
5.9456459606426506
 30
0.0
 11
5.8988441470030208
 21
5.9023794560426532
 31
0.0
  0
ARC
  5
2342
  8
0
 10
5.8910531487611841
 20
5.9035199794454423
 30
0.0
 40
0.0078740362735157
 50
270.1206964461219968
 51
351.6716330291058057
  0
LINE
  5
2343
  8
0
 10
5.8910697358030211
 20
5.8956459606426517
 30
0.0
 11
5.798780985203023
 21
5.8956459606426517
 31
0.0
  0
ARC
  5
2344
  8
0
 10
5.798797585685036
 20
5.903519994950142
 30
0.0
 40
0.0078740518065056
 50
188.3284645243446107
 51
269.8792059939030992
  0
LINE
  5
2345
  8
0
 10
5.7910065740159196
 20
5.9023794560322571
 30
0.0
 11
5.7846756997867281
 21
5.9456261185368771
 31
0.0
  0
LINE
  5
2346
  8
0
 10
12.8527993738937099
 20
5.9755672040844674
 30
0.0
 11
12.8527993738937099
 21
6.418086889084468
 31
0.0
  0
LINE
  5
2347
  8
0
 10
11.8610928934807998
 20
5.9456459441844682
 30
0.0
 11
11.8566541606552196
 21
5.9042839772844697
 31
0.0
  0
ARC
  5
2348
  8
0
 10
11.8488250970127496
 20
5.905124148204469
 30
0.0
 40
0.0078740157919925
 50
272.0000003431890718
 51
353.874781990490078
  0
LINE
  5
2349
  8
0
 10
11.7569492959462405
 20
5.8940369592222961
 30
0.0
 11
11.8490998961973304
 21
5.8972549290500229
 31
0.0
  0
ARC
  5
234A
  8
0
 10
11.7566744967803505
 20
5.9019061783408189
 30
0.0
 40
0.0078740157554386
 50
190.1252182986549997
 51
271.9999998470818809
  0
LINE
  5
234B
  8
0
 10
11.7489231117381401
 20
5.9005219261801063
 30
0.0
 11
11.7408648074373705
 21
5.9456459441844682
 31
0.0
  0
LINE
  5
234C
  8
0
 10
11.6547054222475204
 20
5.9456459441844682
 30
0.0
 11
11.6502096987802499
 21
5.9042193279844692
 31
0.0
  0
ARC
  5
234D
  8
0
 10
11.6420619266534704
 20
5.9052685419291526
 30
0.0
 40
0.0082150496365975
 50
266.5794476518166221
 51
352.662226128975874
  0
LINE
  5
234E
  8
0
 10
11.6415717802802501
 20
5.8970681274844701
 30
0.0
 11
11.55060277198025
 21
5.8941167176844687
 31
0.0
  0
ARC
  5
234F
  8
0
 10
11.5501866929100796
 20
5.9019352547918604
 30
0.0
 40
0.0078296005193309
 50
189.9282162347440135
 51
273.0462358309133037
  0
LINE
  5
2350
  8
0
 10
11.5344823409624997
 20
5.9456459441844682
 30
0.0
 11
11.5426241033302492
 21
5.9000033934344689
 31
0.0
  0
LINE
  5
2351
  8
0
 10
11.0613266856591199
 20
5.9456459441844682
 30
0.0
 11
11.0566629333882602
 21
5.9040298681844687
 31
0.0
  0
ARC
  5
2352
  8
0
 10
11.0443608089154406
 20
5.9112660154221111
 30
0.0
 40
0.0142724942946032
 50
273.4665076110496784
 51
329.5358272780301263
  0
LINE
  5
2353
  8
0
 10
11.0452237962390001
 20
5.8970196353110493
 30
0.0
 11
10.9573533885382606
 21
5.8941181588844689
 31
0.0
  0
ARC
  5
2354
  8
0
 10
10.9569999814164891
 20
5.9023468287830116
 30
0.0
 40
0.0082362555140626
 50
191.0278292131625903
 51
272.4592431798228063
  0
LINE
  5
2355
  8
0
 10
10.9489158133882505
 20
5.9007713503844688
 30
0.0
 11
10.9411172784708697
 21
5.9456459441844682
 31
0.0
  0
LINE
  5
2356
  8
0
 10
10.9521392047137596
 20
5.8956978623415841
 30
0.0
 11
10.9030401981538603
 21
5.8948408359844686
 31
0.0
  0
ARC
  5
2357
  8
0
 10
10.9031394746208505
 20
5.9029787663783102
 30
0.0
 40
0.0081380944204577
 50
187.6415495038530139
 51
269.4093095807738223
  0
LINE
  5
2358
  8
0
 10
10.8950736516016509
 20
5.901896601964248
 30
0.0
 11
10.8879625467375991
 21
5.9456459441844682
 31
0.0
  0
LINE
  5
2359
  8
0
 10
10.8342317106121993
 20
5.9456459441844682
 30
0.0
 11
10.8286637444731806
 21
5.9032999713730732
 31
0.0
  0
ARC
  5
235A
  8
0
 10
10.8208701902863602
 20
5.9042958186093504
 30
0.0
 40
0.0078569204260262
 50
270.0419024792946061
 51
352.7183008020422221
  0
LINE
  5
235B
  8
0
 10
10.8208759363363995
 20
5.8964389002844699
 30
0.0
 11
10.7289824765364106
 21
5.894866968534469
 31
0.0
  0
ARC
  5
235C
  8
0
 10
10.7286643325823192
 20
5.9027694632116177
 30
0.0
 40
0.0079088961112081
 50
189.36477750114841
 51
272.3054071212383747
  0
LINE
  5
235D
  8
0
 10
10.7208608432364105
 20
5.9014825320844686
 30
0.0
 11
10.7137093181202108
 21
5.9456459441844682
 31
0.0
  0
LINE
  5
235E
  8
0
 10
10.1566121322600704
 20
5.9456459441844682
 30
0.0
 11
10.1511253415017606
 21
5.903205717584469
 31
0.0
  0
ARC
  5
235F
  8
0
 10
10.1432460923484697
 20
5.9042243688712341
 30
0.0
 40
0.0079448233248813
 50
269.9943875086534035
 51
352.6335019365727135
  0
LINE
  5
2360
  8
0
 10
10.14324531410176
 20
5.896279545584469
 30
0.0
 11
10.1006321662135203
 21
5.895861009051627
 31
0.0
  0
LINE
  5
2361
  8
0
 10
10.1120277789688107
 20
5.9456459441844682
 30
0.0
 11
10.10709384291434
 21
5.90372874838447
 31
0.0
  0
ARC
  5
2362
  8
0
 10
10.0968227047457795
 20
5.9055769896113102
 30
0.0
 40
0.0104361043934185
 50
286.3638546163384149
 51
349.7990718211818262
  0
LINE
  5
2363
  8
0
 10
10.0997629332631806
 20
5.8955636319738458
 30
0.0
 11
10.0067062535633795
 21
5.8955636319738458
 31
0.0
  0
ARC
  5
2364
  8
0
 10
10.0067062535633795
 20
5.9032573965848503
 30
0.0
 40
0.0076937646110036
 50
196.534696168054893
 51
270.0
  0
LINE
  5
2365
  8
0
 10
9.9993306448143482
 20
5.9010677825844677
 30
0.0
 11
9.9918370536975374
 21
5.9456459441844691
 31
0.0
  0
ARC
  5
2366
  8
0
 10
9.9983783335719423
 20
5.903519959879616
 30
0.0
 40
0.0078740156922494
 50
275.0501274415252055
 51
301.5935392654092198
  0
LINE
  5
2367
  8
0
 10
9.9990714616691108
 20
5.8956765106024998
 30
0.0
 11
9.9071500416829394
 21
5.8956459440844693
 31
0.0
  0
ARC
  5
2368
  8
0
 10
9.9062521250099493
 20
5.9036186394159866
 30
0.0
 40
0.0080230994759411
 50
185.9785462378148111
 51
276.4258013372539722
  0
LINE
  5
2369
  8
0
 10
9.8982726634515785
 20
5.9027829849183791
 30
0.0
 11
9.8919979594635166
 21
5.9456459441844682
 31
0.0
  0
LINE
  5
236A
  8
0
 10
9.5101612588682656
 20
5.9456459441844682
 30
0.0
 11
9.5045346869143472
 21
5.9030556251844688
 31
0.0
  0
ARC
  5
236B
  8
0
 10
9.496629290112466
 20
5.9041000006428943
 30
0.0
 40
0.0079740841915175
 50
269.7107221016539143
 51
352.4742815571487995
  0
LINE
  5
236C
  8
0
 10
9.4965890303143468
 20
5.8961260180844679
 30
0.0
 11
9.4062936766143466
 21
5.8952493925844687
 31
0.0
  0
ARC
  5
236D
  8
0
 10
9.4045612602657371
 20
5.9029971272876347
 30
0.0
 40
0.007939059102664
 50
189.220835521945304
 51
282.6041727791997005
  0
LINE
  5
236E
  8
0
 10
9.3967247892143462
 20
5.9017249712844686
 30
0.0
 11
9.3898155273986177
 21
5.9456459441844682
 31
0.0
  0
LINE
  5
236F
  8
0
 10
9.4015459828143477
 20
5.8956459440844693
 30
0.0
 11
9.3424935790143522
 21
5.8956459441844693
 31
0.0
  0
ARC
  5
2370
  8
0
 10
9.3424780398377223
 20
5.9035019803097821
 30
0.0
 40
0.0078560514934809
 50
188.2150364333656967
 51
270.1133304458383009
  0
LINE
  5
2371
  8
0
 10
9.3347026011272405
 20
5.9023794394741413
 30
0.0
 11
9.3283688221110097
 21
5.9456459441844682
 31
0.0
  0
LINE
  5
2372
  8
0
 10
9.1900310597053974
 20
5.9456459441844682
 30
0.0
 11
9.1847396968776991
 21
5.9033368540844693
 31
0.0
  0
ARC
  5
2373
  8
0
 10
9.1760869768265465
 20
5.904419001706386
 30
0.0
 40
0.008720126590777
 50
270.1063563328985992
 51
352.8713481187911043
  0
LINE
  5
2374
  8
0
 10
9.1761031637108488
 20
5.8956988901392098
 30
0.0
 11
9.0881732953776933
 21
5.8943573410844694
 31
0.0
  0
LINE
  5
2375
  8
0
 10
9.0698590191616297
 20
5.9456459441844682
 30
0.0
 11
9.0769604133776962
 21
5.9014549863844694
 31
0.0
  0
ARC
  5
2376
  8
0
 10
9.0862199218368715
 20
5.9036805482913604
 30
0.0
 40
0.0095108901580212
 50
192.470174865688108
 51
281.8411313833008762
  0
LINE
  5
2377
  8
0
 10
8.9105999484413516
 20
5.9456459441844682
 30
0.0
 11
8.9052303122099712
 21
5.9033323302511436
 31
0.0
  0
ARC
  5
2378
  8
0
 10
8.8974189244424124
 20
5.9043236024889652
 30
0.0
 40
0.0078740332425429
 50
271.1120440003995782
 51
352.7677701842599163
  0
LINE
  5
2379
  8
0
 10
8.8975717406142039
 20
5.8964510522844691
 30
0.0
 11
8.8053225116142073
 21
5.8948408359844686
 31
0.0
  0
ARC
  5
237A
  8
0
 10
8.8054217880812047
 20
5.9029787663783102
 30
0.0
 40
0.0081380944204577
 50
187.6415495038530992
 51
269.4093095807738223
  0
LINE
  5
237B
  8
0
 10
8.797355965061989
 20
5.901896601964248
 30
0.0
 11
8.7902448601979444
 21
5.9456459441844691
 31
0.0
  0
LINE
  5
237C
  8
0
 10
8.4565671877113431
 20
5.9456459441844682
 30
0.0
 11
8.4512489138921154
 21
5.9037370744805084
 31
0.0
  0
ARC
  5
237D
  8
0
 10
8.4434375261245531
 20
5.90472834671833
 30
0.0
 40
0.0078740332425429
 50
271.1120440003995782
 51
352.7677701842599163
  0
LINE
  5
237E
  8
0
 10
8.4435903422963463
 20
5.8968557965138331
 30
0.0
 11
8.3513411132963498
 21
5.8952455802138326
 31
0.0
  0
ARC
  5
237F
  8
0
 10
8.3514403897633471
 20
5.9033835106076751
 30
0.0
 40
0.0081380944204577
 50
187.6415495038530992
 51
269.4093095807738223
  0
LINE
  5
2380
  8
0
 10
8.3433745667441315
 20
5.902301346193612
 30
0.0
 11
8.3363292498099621
 21
5.9456459441844691
 31
0.0
  0
LINE
  5
2381
  8
0
 10
8.7305994634116431
 20
5.9456459441844691
 30
0.0
 11
8.7369332424149846
 21
5.9023794393844691
 31
0.0
  0
ARC
  5
2382
  8
0
 10
8.7447242201922606
 20
5.9035199597867818
 30
0.0
 40
0.0078740155901577
 50
188.3283669372729037
 51
258.11325141040669
  0
LINE
  5
2383
  8
0
 10
8.743102347235812
 20
5.8958147894689246
 30
0.0
 11
8.7796256202605321
 21
5.8959069106175876
 31
0.0
  0
LINE
  5
2384
  8
0
 10
8.7625965880217649
 20
5.9456459441844682
 30
0.0
 11
8.7684113200119143
 21
5.9028612491615791
 31
0.0
  0
ARC
  5
2385
  8
0
 10
8.7764929305127382
 20
5.9041162920116648
 30
0.0
 40
0.0081832593354283
 50
188.8296890846465033
 51
270.6561535903896925
  0
LINE
  5
2386
  8
0
 10
8.7765866434820623
 20
5.8959335692844643
 30
0.0
 11
8.8017565577370007
 21
5.8957127724806924
 31
0.0
  0
LINE
  5
2387
  8
0
 10
8.8829376406974205
 20
5.9456459441844682
 30
0.0
 11
8.8762293068007025
 21
5.9019761140844693
 31
0.0
  0
ARC
  5
2388
  8
0
 10
8.8683142704557554
 20
5.9031849490693711
 30
0.0
 40
0.0080068147451089
 50
296.2218084230510158
 51
351.3165221832123848
  0
LINE
  5
2389
  8
0
 10
8.3100511664486447
 20
5.9456459441844682
 30
0.0
 11
8.3042102452400002
 21
5.9057461870378694
 31
0.0
  0
ARC
  5
238A
  8
0
 10
8.2925237783679648
 20
5.907456967681374
 30
0.0
 40
0.0118110235949884
 50
275.2388710742886246
 51
351.6716330154100092
  0
LINE
  5
238B
  8
0
 10
8.2936022216179932
 20
5.8956952824909861
 30
0.0
 11
8.2070746773468244
 21
5.8956459440844693
 31
0.0
  0
ARC
  5
238C
  8
0
 10
8.2071227178728705
 20
5.9075830757570289
 30
0.0
 40
0.0119372334524632
 50
182.6213021621312009
 51
269.7633987075349182
  0
LINE
  5
238D
  8
0
 10
8.1951979751223547
 20
5.9070371336056944
 30
0.0
 11
8.1895460354321834
 21
5.9456459441844682
 31
0.0
  0
LINE
  5
238E
  8
0
 10
7.9115722463229403
 20
5.9456459441844691
 30
0.0
 11
7.917287408792709
 21
5.9028813189844689
 31
0.0
  0
ARC
  5
238F
  8
0
 10
7.925333406428094
 20
5.9039566045388847
 30
0.0
 40
0.0081175314580366
 50
187.6120354090384978
 51
264.5752563587176951
  0
LINE
  5
2390
  8
0
 10
7.9245659892427076
 20
5.8958754296344686
 30
0.0
 11
8.0146353898111045
 21
5.8947040340476207
 31
0.0
  0
ARC
  5
2391
  8
0
 10
8.0159700532312002
 20
5.9039408080913356
 30
0.0
 40
0.0093327017084865
 50
261.7779791472851798
 51
347.4134857239262146
  0
LINE
  5
2392
  8
0
 10
8.0250784721927033
 20
5.9019070860844209
 30
0.0
 11
8.0317306069079208
 21
5.9456459441844682
 31
0.0
  0
LINE
  5
2393
  8
0
 10
8.0202472663761313
 20
5.8956459440844693
 30
0.0
 11
8.0632333772927112
 21
5.8956459441844693
 31
0.0
  0
ARC
  5
2394
  8
0
 10
8.0632333772743934
 20
5.9035199599056627
 30
0.0
 40
0.0078740157211938
 50
270.0000001332865054
 51
351.671632328054784
  0
LINE
  5
2395
  8
0
 10
8.071024355166692
 20
5.9023794393844691
 30
0.0
 11
8.0773581347367092
 21
5.9456459441844691
 31
0.0
  0
LINE
  5
2396
  8
0
 10
7.6036578981535738
 20
5.9456459441844691
 30
0.0
 11
7.5976322676143511
 21
5.9026328115844704
 31
0.0
  0
ARC
  5
2397
  8
0
 10
7.5896570930733196
 20
5.9037500391000046
 30
0.0
 40
0.0080530495019784
 50
267.784280773823582
 51
352.0254356517281167
  0
LINE
  5
2398
  8
0
 10
7.5893457464143523
 20
5.8957030104844703
 30
0.0
 11
7.4987872406143481
 21
5.895251586384469
 31
0.0
  0
ARC
  5
2399
  8
0
 10
7.4979420007879654
 20
5.9034365269761446
 30
0.0
 40
0.0082284678314591
 50
187.9592350365246034
 51
275.8959031081753892
  0
LINE
  5
239A
  8
0
 10
7.4897927991253681
 20
5.902297143320097
 30
0.0
 11
7.4833202705994131
 21
5.9456459441844682
 31
0.0
  0
LINE
  5
239B
  8
0
 10
6.7845149112472001
 20
5.9456459441844691
 30
0.0
 11
6.7781811322467638
 21
5.9023794393844691
 31
0.0
  0
ARC
  5
239C
  8
0
 10
6.7703901544597818
 20
5.9035199597876797
 30
0.0
 40
0.0078740155998914
 50
272.2361199181353868
 51
351.6716330665022952
  0
LINE
  5
239D
  8
0
 10
6.7706973808181701
 20
5.895651940111037
 30
0.0
 11
6.6782050219427296
 21
5.8956459440844693
 31
0.0
  0
ARC
  5
239E
  8
0
 10
6.6782931610453602
 20
5.9037047867448091
 30
0.0
 40
0.008059324632097
 50
187.191520063556311
 51
269.3733843104672019
  0
LINE
  5
239F
  8
0
 10
6.6702972371849389
 20
5.9026958689364788
 30
0.0
 11
6.6640097803228784
 21
5.9456459441844691
 31
0.0
  0
LINE
  5
23A0
  8
0
 10
6.6398520597893116
 20
5.9057461870844694
 30
0.0
 11
6.6339207171204277
 21
5.9456459441844682
 31
0.0
  0
LINE
  5
23A1
  8
0
 10
6.6514083262274042
 20
5.895646661747544
 30
0.0
 11
6.6781632432933398
 21
5.8956465093294277
 31
0.0
  0
ARC
  5
23A2
  8
0
 10
6.6516784437563814
 20
5.9076170661267708
 30
0.0
 40
0.0119734516527902
 50
187.6673376731106941
 51
268.7073144896505141
  0
LINE
  5
23A3
  8
0
 10
6.6372785112911137
 20
5.9230582807697161
 30
0.0
 11
6.6342513379467638
 21
5.9023794393844691
 31
0.0
  0
ARC
  5
23A4
  8
0
 10
6.6264603601778873
 20
5.9035199597738357
 30
0.0
 40
0.0078740155799725
 50
275.3966887136539867
 51
351.6716331470869932
  0
LINE
  5
23A5
  8
0
 10
6.6272009174597102
 20
5.8956808465417181
 30
0.0
 11
6.5347025054572887
 21
5.8956459440844693
 31
0.0
  0
ARC
  5
23A6
  8
0
 10
6.534415187829004
 20
5.9037606133562974
 30
0.0
 40
0.0081197542333908
 50
186.8630812594770134
 51
272.0278353636851989
  0
LINE
  5
23A7
  8
0
 10
6.5200799859694376
 20
5.9456459441844682
 30
0.0
 11
6.5263536153175457
 21
5.9027903260518872
 31
0.0
  0
LINE
  5
23A8
  8
0
 10
10.3237580258033308
 20
5.9456459441844682
 30
0.0
 11
10.3181900596643104
 21
5.9032999713730732
 31
0.0
  0
ARC
  5
23A9
  8
0
 10
10.31039650547749
 20
5.9042958186093504
 30
0.0
 40
0.0078569204260262
 50
270.0419024792946061
 51
352.7183008020422221
  0
LINE
  5
23AA
  8
0
 10
10.3104022515275293
 20
5.8964389002844699
 30
0.0
 11
10.2185087917275297
 21
5.894866968534469
 31
0.0
  0
ARC
  5
23AB
  8
0
 10
10.2181906477734508
 20
5.9027694632116177
 30
0.0
 40
0.0079088961112081
 50
189.36477750114841
 51
272.3054071212383747
  0
LINE
  5
23AC
  8
0
 10
10.2103871584275296
 20
5.9014825320844686
 30
0.0
 11
10.2032356333113405
 21
5.9456459441844682
 31
0.0
  0
LINE
  5
23AD
  8
0
 10
9.5877798153392941
 20
5.9456459441844682
 30
0.0
 11
9.5821532433853776
 21
5.9030556251844688
 31
0.0
  0
ARC
  5
23AE
  8
0
 10
9.5742478465834964
 20
5.9041000006428943
 30
0.0
 40
0.0079740841915175
 50
269.7107221016539143
 51
352.4742815571487995
  0
LINE
  5
23AF
  8
0
 10
9.5742075867853771
 20
5.8961260180844679
 30
0.0
 11
9.4839122330853751
 21
5.8952493925844687
 31
0.0
  0
ARC
  5
23B0
  8
0
 10
9.4821798167367675
 20
5.9029971272876347
 30
0.0
 40
0.007939059102664
 50
242.5700178163640999
 51
282.6041727791997005
  0
LINE
  5
23B1
  8
0
 10
9.3057455967746918
 20
5.9456459441844682
 30
0.0
 11
9.3001190248207735
 21
5.9030556251844688
 31
0.0
  0
ARC
  5
23B2
  8
0
 10
9.2922136280188923
 20
5.9041000006428943
 30
0.0
 40
0.0079740841915175
 50
269.7107221016539143
 51
352.4742815571487995
  0
LINE
  5
23B3
  8
0
 10
9.2921733682207712
 20
5.8961260180844679
 30
0.0
 11
9.2018780145207728
 21
5.8952493925844687
 31
0.0
  0
ARC
  5
23B4
  8
0
 10
9.2001455981721634
 20
5.9029971272876347
 30
0.0
 40
0.007939059102664
 50
189.220835521945304
 51
282.6041727791997005
  0
LINE
  5
23B5
  8
0
 10
9.1923091271207724
 20
5.9017249712844686
 30
0.0
 11
9.1853998653050422
 21
5.9456459441844682
 31
0.0
  0
LINE
  5
23B6
  8
0
 10
7.0053215592507767
 20
5.9456459441844691
 30
0.0
 11
6.999295928711553
 21
5.9026328115844704
 31
0.0
  0
ARC
  5
23B7
  8
0
 10
6.9913207541705233
 20
5.9037500391000046
 30
0.0
 40
0.0080530495019784
 50
267.784280773823582
 51
352.0254356517281167
  0
LINE
  5
23B8
  8
0
 10
6.9910094075115552
 20
5.8957030104844703
 30
0.0
 11
6.9004509017115501
 21
5.895251586384469
 31
0.0
  0
ARC
  5
23B9
  8
0
 10
6.8996056618851682
 20
5.9034365269761446
 30
0.0
 40
0.0082284678314591
 50
187.9592350365246034
 51
275.8959031081753892
  0
LINE
  5
23BA
  8
0
 10
6.8914564602225701
 20
5.902297143320097
 30
0.0
 11
6.8849839316966159
 21
5.9456459441844682
 31
0.0
  0
LINE
  5
23BB
  8
0
 10
7.117137315623669
 20
5.8954613794905368
 30
0.0
 11
7.0750515027204619
 21
5.895251586384469
 31
0.0
  0
ARC
  5
23BC
  8
0
 10
7.0742062628940801
 20
5.9034365269761446
 30
0.0
 40
0.0082284678314591
 50
187.9592350365246034
 51
275.8959031081753892
  0
LINE
  5
23BD
  8
0
 10
7.0660570612314819
 20
5.902297143320097
 30
0.0
 11
7.0595845327055278
 21
5.9456459441844682
 31
0.0
  0
LINE
  5
23BE
  8
0
 10
7.2248792202538636
 20
5.9456459441844691
 30
0.0
 11
7.21885358971464
 21
5.9026328115844704
 31
0.0
  0
ARC
  5
23BF
  8
0
 10
7.2108784151736103
 20
5.9037500391000046
 30
0.0
 40
0.0080530495019784
 50
267.784280773823582
 51
352.0254356517281167
  0
LINE
  5
23C0
  8
0
 10
7.2105670685146421
 20
5.8957030104844703
 30
0.0
 11
7.120008562714637
 21
5.895251586384469
 31
0.0
  0
ARC
  5
23C1
  8
0
 10
7.1191633228882552
 20
5.9034365269761446
 30
0.0
 40
0.0082284678314591
 50
187.9592350365246034
 51
275.8959031081753892
  0
LINE
  5
23C2
  8
0
 10
7.111014121225657
 20
5.902297143320097
 30
0.0
 11
7.1045415926997029
 21
5.9456459441844682
 31
0.0
  0
LINE
  5
23C3
  8
0
 10
7.3383522512709858
 20
5.8955842997763872
 30
0.0
 11
7.2716078580680366
 21
5.895251586384469
 31
0.0
  0
ARC
  5
23C4
  8
0
 10
7.2707626182416538
 20
5.9034365269761446
 30
0.0
 40
0.0082284678314591
 50
187.9592350365246034
 51
275.8959031081753892
  0
LINE
  5
23C5
  8
0
 10
7.2626134165790566
 20
5.902297143320097
 30
0.0
 11
7.2561408880531033
 21
5.9456459441844682
 31
0.0
  0
LINE
  5
23C6
  8
0
 10
7.4465278662741978
 20
5.9456459441844691
 30
0.0
 11
7.440502235734975
 21
5.9026328115844704
 31
0.0
  0
ARC
  5
23C7
  8
0
 10
7.4325270611939436
 20
5.9037500391000046
 30
0.0
 40
0.0080530495019784
 50
267.784280773823582
 51
352.0254356517281167
  0
LINE
  5
23C8
  8
0
 10
7.4322157145349763
 20
5.8957030104844703
 30
0.0
 11
7.3416572087349721
 21
5.895251586384469
 31
0.0
  0
ARC
  5
23C9
  8
0
 10
7.3408119689085893
 20
5.9034365269761446
 30
0.0
 40
0.0082284678314591
 50
187.9592350365246034
 51
275.8959031081753892
  0
LINE
  5
23CA
  8
0
 10
7.3326627672459921
 20
5.902297143320097
 30
0.0
 11
7.3261902387200371
 21
5.9456459441844682
 31
0.0
  0
LINE
  5
23CB
  8
0
 10
6.3303302177354972
 20
5.9456459606426506
 30
0.0
 11
6.3239964387354952
 21
5.9023794560426532
 31
0.0
  0
ARC
  5
23CC
  8
0
 10
6.3162054404936567
 20
5.9035199794454423
 30
0.0
 40
0.0078740362735157
 50
270.1206964461219968
 51
351.6716330291058057
  0
LINE
  5
23CD
  8
0
 10
6.3162220275354954
 20
5.8956459606426517
 30
0.0
 11
6.2239332769354974
 21
5.8956459606426517
 31
0.0
  0
ARC
  5
23CE
  8
0
 10
6.2239498774175104
 20
5.903519994950142
 30
0.0
 40
0.0078740518065056
 50
188.3284645243446107
 51
269.8792059939030992
  0
LINE
  5
23CF
  8
0
 10
6.216158865748393
 20
5.9023794560322571
 30
0.0
 11
6.2098279915192007
 21
5.9456261185368771
 31
0.0
  0
ARC
  5
23D0
  8
0
 10
-1.1330081683415041
 20
5.9755747871758329
 30
0.0
 40
0.0299402865158465
 50
180.014511522305213
 51
268.4158241463121044
  0
LINE
  5
23D1
  8
0
 10
-1.1629484538970509
 20
5.9755672040844674
 30
0.0
 11
-1.1629484538970509
 21
6.418086889084468
 31
0.0
  0
LINE
  5
23D2
  8
0
 10
-0.1712419734841397
 20
5.9456459441844682
 30
0.0
 11
-0.1668032406585667
 21
5.9042839772844697
 31
0.0
  0
ARC
  5
23D3
  8
0
 10
-0.1589741770160984
 20
5.905124148204469
 30
0.0
 40
0.0078740157919925
 50
186.1252180095098083
 51
267.9999996568109282
  0
LINE
  5
23D4
  8
0
 10
-0.067098375949584
 20
5.8940369592222961
 30
0.0
 11
-0.1592489762006708
 21
5.8972549290500407
 31
0.0
  0
ARC
  5
23D5
  8
0
 10
-0.0668235767836905
 20
5.9019061783408189
 30
0.0
 40
0.0078740157554386
 50
268.0000001529181191
 51
349.8747817013450003
  0
LINE
  5
23D6
  8
0
 10
-0.0590721917414854
 20
5.9005219261801063
 30
0.0
 11
-0.0510138874407105
 21
5.9456459441844682
 31
0.0
  0
LINE
  5
23D7
  8
0
 10
0.0351454977491379
 20
5.9456459441844682
 30
0.0
 11
0.0396412212164066
 21
5.9042193279844692
 31
0.0
  0
ARC
  5
23D8
  8
0
 10
0.0477889933431897
 20
5.9052685419291526
 30
0.0
 40
0.0082150496365975
 50
187.3377738710240124
 51
273.4205523481833779
  0
LINE
  5
23D9
  8
0
 10
0.0482791397164064
 20
5.8970681274844701
 30
0.0
 11
0.1392481480164065
 21
5.8941167176844687
 31
0.0
  0
ARC
  5
23DA
  8
0
 10
0.1396642270865769
 20
5.9019352547918604
 30
0.0
 40
0.0078296005193309
 50
266.9537641690866963
 51
350.0717837652558728
  0
LINE
  5
23DB
  8
0
 10
0.1553685790341532
 20
5.9456459441844682
 30
0.0
 11
0.1472268166664037
 21
5.9000033934344689
 31
0.0
  0
LINE
  5
23DC
  8
0
 10
0.6285242343375331
 20
5.9456459441844682
 30
0.0
 11
0.6331879866083981
 21
5.9040298681844687
 31
0.0
  0
ARC
  5
23DD
  8
0
 10
0.6454901110812159
 20
5.9112660154221111
 30
0.0
 40
0.0142724942946032
 50
210.4641727219697884
 51
266.5334923889502079
  0
LINE
  5
23DE
  8
0
 10
0.6446271237576582
 20
5.8970196353110493
 30
0.0
 11
0.7324975314583995
 21
5.8941181588844689
 31
0.0
  0
ARC
  5
23DF
  8
0
 10
0.732850938580171
 20
5.9023468287830116
 30
0.0
 40
0.0082362555140626
 50
267.5407568201771937
 51
348.972170786837296
  0
LINE
  5
23E0
  8
0
 10
0.7409351066084043
 20
5.9007713503844688
 30
0.0
 11
0.7487336415257815
 21
5.9456459441844682
 31
0.0
  0
LINE
  5
23E1
  8
0
 10
0.7377117152828916
 20
5.8956978623415841
 30
0.0
 11
0.786810721842798
 21
5.8948408359844686
 31
0.0
  0
ARC
  5
23E2
  8
0
 10
0.7867114453758007
 20
5.9029787663783102
 30
0.0
 40
0.0081380944204577
 50
270.5906904192261777
 51
352.3584504961468156
  0
LINE
  5
23E3
  8
0
 10
0.7947772683950092
 20
5.901896601964248
 30
0.0
 11
0.8018883732590538
 21
5.9456459441844682
 31
0.0
  0
LINE
  5
23E4
  8
0
 10
0.8556192093844501
 20
5.9456459441844682
 30
0.0
 11
0.8611871755234759
 21
5.9032999713730732
 31
0.0
  0
ARC
  5
23E5
  8
0
 10
0.8689807297102944
 20
5.9042958186093504
 30
0.0
 40
0.0078569204260262
 50
187.2816991979576926
 51
269.9580975207052802
  0
LINE
  5
23E6
  8
0
 10
0.8689749836602587
 20
5.8964389002844699
 30
0.0
 11
0.9608684434602494
 21
5.894866968534469
 31
0.0
  0
ARC
  5
23E7
  8
0
 10
0.9611865874143319
 20
5.9027694632116177
 30
0.0
 40
0.0079088961112081
 50
267.6945928787616253
 51
350.6352224988514763
  0
LINE
  5
23E8
  8
0
 10
0.9689900767602495
 20
5.9014825320844686
 30
0.0
 11
0.9761416018764492
 21
5.9456459441844682
 31
0.0
  0
LINE
  5
23E9
  8
0
 10
1.5332387877365889
 20
5.9456459441844682
 30
0.0
 11
1.538725578494897
 21
5.903205717584469
 31
0.0
  0
ARC
  5
23EA
  8
0
 10
1.546604827648181
 20
5.9042243688712341
 30
0.0
 40
0.0079448233248813
 50
187.3664980634272013
 51
270.0056124913467102
  0
LINE
  5
23EB
  8
0
 10
1.546605605894896
 20
5.896279545584469
 30
0.0
 11
1.5892187537831359
 21
5.895861009051627
 31
0.0
  0
LINE
  5
23EC
  8
0
 10
1.5778231410278489
 20
5.9456459441844682
 30
0.0
 11
1.5827570770823121
 21
5.90372874838447
 31
0.0
  0
ARC
  5
23ED
  8
0
 10
1.593028215250875
 20
5.9055769896113102
 30
0.0
 40
0.0104361043934185
 50
190.2009281788180886
 51
253.6361453836618125
  0
LINE
  5
23EE
  8
0
 10
1.5900879867334721
 20
5.8955636319738458
 30
0.0
 11
1.683144666433271
 21
5.8955636319738458
 31
0.0
  0
ARC
  5
23EF
  8
0
 10
1.683144666433271
 20
5.9032573965848503
 30
0.0
 40
0.0076937646110036
 50
270.0
 51
343.465303831945107
  0
LINE
  5
23F0
  8
0
 10
1.6905202751823081
 20
5.9010677825844677
 30
0.0
 11
1.69801386629912
 21
5.9456459441844691
 31
0.0
  0
ARC
  5
23F1
  8
0
 10
1.6914725864247151
 20
5.903519959879616
 30
0.0
 40
0.0078740156922494
 50
238.406460734590496
 51
264.9498725584746239
  0
LINE
  5
23F2
  8
0
 10
1.6907794583275471
 20
5.8956765106024998
 30
0.0
 11
1.7827008783137179
 21
5.8956459440844693
 31
0.0
  0
ARC
  5
23F3
  8
0
 10
1.783598794986708
 20
5.9036186394159866
 30
0.0
 40
0.0080230994759411
 50
263.5741986627460278
 51
354.02145376218499
  0
LINE
  5
23F4
  8
0
 10
1.7915782565450791
 20
5.9027829849183791
 30
0.0
 11
1.797852960533141
 21
5.9456459441844682
 31
0.0
  0
LINE
  5
23F5
  8
0
 10
2.1796896611283918
 20
5.9456459441844682
 30
0.0
 11
2.185316233082311
 21
5.9030556251844688
 31
0.0
  0
ARC
  5
23F6
  8
0
 10
2.1932216298841918
 20
5.9041000006428943
 30
0.0
 40
0.0079740841915175
 50
187.5257184428510016
 51
270.2892778983460857
  0
LINE
  5
23F7
  8
0
 10
2.1932618896823111
 20
5.8961260180844679
 30
0.0
 11
2.2835572433823108
 21
5.8952493925844687
 31
0.0
  0
ARC
  5
23F8
  8
0
 10
2.2852896597309211
 20
5.9029971272876347
 30
0.0
 40
0.007939059102664
 50
257.3958272208002995
 51
350.7791644780547244
  0
LINE
  5
23F9
  8
0
 10
2.2931261307823121
 20
5.9017249712844686
 30
0.0
 11
2.3000353925980401
 21
5.9456459441844682
 31
0.0
  0
LINE
  5
23FA
  8
0
 10
2.2883049371823101
 20
5.8956459440844693
 30
0.0
 11
2.3473573409823061
 21
5.8956459441844693
 31
0.0
  0
ARC
  5
23FB
  8
0
 10
2.3473728801589351
 20
5.9035019803097821
 30
0.0
 40
0.0078560514934809
 50
269.8866695541616991
 51
351.7849635666341896
  0
LINE
  5
23FC
  8
0
 10
2.3551483188694169
 20
5.9023794394741413
 30
0.0
 11
2.3614820978856481
 21
5.9456459441844682
 31
0.0
  0
LINE
  5
23FD
  8
0
 10
2.49981986029126
 20
5.9456459441844682
 30
0.0
 11
2.5051112231189592
 21
5.9033368540844693
 31
0.0
  0
ARC
  5
23FE
  8
0
 10
2.5137639431701109
 20
5.904419001706386
 30
0.0
 40
0.008720126590777
 50
187.1286518812088104
 51
269.8936436671015144
  0
LINE
  5
23FF
  8
0
 10
2.513747756285809
 20
5.8956988901392098
 30
0.0
 11
2.601677624618965
 21
5.8943573410844694
 31
0.0
  0
LINE
  5
2400
  8
0
 10
2.6199919008350281
 20
5.9456459441844682
 30
0.0
 11
2.6128905066189598
 21
5.9014549863844694
 31
0.0
  0
ARC
  5
2401
  8
0
 10
2.6036309981597858
 20
5.9036805482913604
 30
0.0
 40
0.0095108901580212
 50
258.1588686166991238
 51
347.5298251343116931
  0
LINE
  5
2402
  8
0
 10
2.7792509715553062
 20
5.9456459441844682
 30
0.0
 11
2.7846206077866849
 21
5.9033323302511436
 31
0.0
  0
ARC
  5
2403
  8
0
 10
2.7924319955542449
 20
5.9043236024889652
 30
0.0
 40
0.0078740332425429
 50
187.2322298157401121
 51
268.8879559996004218
  0
LINE
  5
2404
  8
0
 10
2.792279179382454
 20
5.8964510522844691
 30
0.0
 11
2.8845284083824501
 21
5.8948408359844686
 31
0.0
  0
ARC
  5
2405
  8
0
 10
2.8844291319154531
 20
5.9029787663783102
 30
0.0
 40
0.0081380944204577
 50
270.5906904192261777
 51
352.3584504961468156
  0
LINE
  5
2406
  8
0
 10
2.8924949549346688
 20
5.901896601964248
 30
0.0
 11
2.899606059798713
 21
5.9456459441844691
 31
0.0
  0
LINE
  5
2407
  8
0
 10
3.2332837322853152
 20
5.9456459441844682
 30
0.0
 11
3.238602006104542
 21
5.9037370744805084
 31
0.0
  0
ARC
  5
2408
  8
0
 10
3.2464133938721029
 20
5.90472834671833
 30
0.0
 40
0.0078740332425429
 50
187.2322298157401121
 51
268.8879559996004218
  0
LINE
  5
2409
  8
0
 10
3.2462605777003111
 20
5.8968557965138331
 30
0.0
 11
3.3385098067003081
 21
5.8952455802138326
 31
0.0
  0
ARC
  5
240A
  8
0
 10
3.3384105302333111
 20
5.9033835106076751
 30
0.0
 40
0.0081380944204577
 50
270.5906904192261777
 51
352.3584504961468156
  0
LINE
  5
240B
  8
0
 10
3.3464763532525259
 20
5.902301346193612
 30
0.0
 11
3.3535216701866939
 21
5.9456459441844691
 31
0.0
  0
LINE
  5
240C
  8
0
 10
2.9592514565850152
 20
5.9456459441844691
 30
0.0
 11
2.9529176775816728
 21
5.9023794393844691
 31
0.0
  0
ARC
  5
240D
  8
0
 10
2.9451266998043968
 20
5.9035199597867818
 30
0.0
 40
0.0078740155901577
 50
281.8867485895931964
 51
351.6716330627270963
  0
LINE
  5
240E
  8
0
 10
2.9467485727608458
 20
5.8958147894689246
 30
0.0
 11
2.9102252997361262
 21
5.8959069106175876
 31
0.0
  0
LINE
  5
240F
  8
0
 10
2.9272543319748929
 20
5.9456459441844682
 30
0.0
 11
2.921439599984744
 21
5.9028612491615791
 31
0.0
  0
ARC
  5
2410
  8
0
 10
2.9133579894839201
 20
5.9041162920116648
 30
0.0
 40
0.0081832593354283
 50
269.3438464096103075
 51
351.1703109153534115
  0
LINE
  5
2411
  8
0
 10
2.9132642765145951
 20
5.8959335692844643
 30
0.0
 11
2.8880943622596571
 21
5.8957127724806924
 31
0.0
  0
LINE
  5
2412
  8
0
 10
2.8069132792992368
 20
5.9456459441844682
 30
0.0
 11
2.8136216131959548
 21
5.9019761140844693
 31
0.0
  0
ARC
  5
2413
  8
0
 10
2.821536649540902
 20
5.9031849490693711
 30
0.0
 40
0.0080068147451089
 50
188.6834778167875868
 51
243.7781915769490126
  0
LINE
  5
2414
  8
0
 10
3.3797997535480131
 20
5.9456459441844682
 30
0.0
 11
3.3856406747566581
 21
5.9057461870378694
 31
0.0
  0
ARC
  5
2415
  8
0
 10
3.397327141628693
 20
5.907456967681374
 30
0.0
 40
0.0118110235949884
 50
188.3283669845899908
 51
264.7611289257113754
  0
LINE
  5
2416
  8
0
 10
3.3962486983786628
 20
5.8956952824909861
 30
0.0
 11
3.482776242649833
 21
5.8956459440844693
 31
0.0
  0
ARC
  5
2417
  8
0
 10
3.4827282021237869
 20
5.9075830757570289
 30
0.0
 40
0.0119372334524632
 50
270.2366012924651955
 51
357.3786978378686854
  0
LINE
  5
2418
  8
0
 10
3.4946529448743031
 20
5.9070371336056944
 30
0.0
 11
3.500304884564474
 21
5.9456459441844682
 31
0.0
  0
LINE
  5
2419
  8
0
 10
3.7782786736737171
 20
5.9456459441844691
 30
0.0
 11
3.772563511203948
 21
5.9028813189844689
 31
0.0
  0
ARC
  5
241A
  8
0
 10
3.7645175135685629
 20
5.9039566045388847
 30
0.0
 40
0.0081175314580366
 50
275.4247436412823049
 51
352.3879645909614737
  0
LINE
  5
241B
  8
0
 10
3.7652849307539489
 20
5.8958754296344686
 30
0.0
 11
3.6752155301855529
 21
5.8947040340476207
 31
0.0
  0
ARC
  5
241C
  8
0
 10
3.6738808667654581
 20
5.9039408080913356
 30
0.0
 40
0.0093327017084865
 50
192.5865142760737001
 51
278.2220208527148202
  0
LINE
  5
241D
  8
0
 10
3.6647724478039541
 20
5.9019070860844209
 30
0.0
 11
3.658120313088737
 21
5.9456459441844682
 31
0.0
  0
LINE
  5
241E
  8
0
 10
3.6696036536205261
 20
5.8956459440844693
 30
0.0
 11
3.6266175427039471
 21
5.8956459441844693
 31
0.0
  0
ARC
  5
241F
  8
0
 10
3.626617542722264
 20
5.9035199599056627
 30
0.0
 40
0.0078740157211938
 50
188.3283676719451876
 51
269.9999998667134946
  0
LINE
  5
2420
  8
0
 10
3.6188265648299658
 20
5.9023794393844691
 30
0.0
 11
3.6124927852599491
 21
5.9456459441844691
 31
0.0
  0
LINE
  5
2421
  8
0
 10
4.0861930218430826
 20
5.9456459441844691
 30
0.0
 11
4.0922186523823072
 21
5.9026328115844704
 31
0.0
  0
ARC
  5
2422
  8
0
 10
4.1001938269233369
 20
5.9037500391000046
 30
0.0
 40
0.0080530495019784
 50
187.9745643482719117
 51
272.215719226176418
  0
LINE
  5
2423
  8
0
 10
4.100505173582305
 20
5.8957030104844703
 30
0.0
 11
4.1910636793823102
 21
5.895251586384469
 31
0.0
  0
ARC
  5
2424
  8
0
 10
4.191908919208692
 20
5.9034365269761446
 30
0.0
 40
0.0082284678314591
 50
264.1040968918244971
 51
352.0407649634753966
  0
LINE
  5
2425
  8
0
 10
4.2000581208712902
 20
5.902297143320097
 30
0.0
 11
4.2065306493972443
 21
5.9456459441844682
 31
0.0
  0
LINE
  5
2426
  8
0
 10
4.9053360087494582
 20
5.9456459441844691
 30
0.0
 11
4.9116697877498927
 21
5.9023794393844691
 31
0.0
  0
ARC
  5
2427
  8
0
 10
4.9194607655368747
 20
5.9035199597876797
 30
0.0
 40
0.0078740155998914
 50
188.3283669334975912
 51
267.7638800818646132
  0
LINE
  5
2428
  8
0
 10
4.9191535391784882
 20
5.895651940111037
 30
0.0
 11
5.0116458980539269
 21
5.8956459440844693
 31
0.0
  0
ARC
  5
2429
  8
0
 10
5.0115577589512981
 20
5.9037047867448091
 30
0.0
 40
0.008059324632097
 50
270.6266156895327981
 51
352.8084799364435753
  0
LINE
  5
242A
  8
0
 10
5.0195536828117184
 20
5.9026958689364788
 30
0.0
 11
5.025841139673779
 21
5.9456459441844691
 31
0.0
  0
LINE
  5
242B
  8
0
 10
5.0499988602073449
 20
5.9057461870844694
 30
0.0
 11
5.0559302028762287
 21
5.9456459441844682
 31
0.0
  0
LINE
  5
242C
  8
0
 10
5.0384425937692541
 20
5.895646661747544
 30
0.0
 11
5.0116876767033167
 21
5.8956465093294277
 31
0.0
  0
ARC
  5
242D
  8
0
 10
5.038172476240276
 20
5.9076170661267708
 30
0.0
 40
0.0119734516527902
 50
271.2926855103494859
 51
352.3326623268891922
  0
LINE
  5
242E
  8
0
 10
5.0525724087055428
 20
5.9230582807697161
 30
0.0
 11
5.0555995820498927
 21
5.9023794393844691
 31
0.0
  0
ARC
  5
242F
  8
0
 10
5.0633905598187701
 20
5.9035199597738357
 30
0.0
 40
0.0078740155799725
 50
188.3283668529130921
 51
264.6033112863460133
  0
LINE
  5
2430
  8
0
 10
5.0626500025369481
 20
5.8956808465417181
 30
0.0
 11
5.1551484145393678
 21
5.8956459440844693
 31
0.0
  0
ARC
  5
2431
  8
0
 10
5.1554357321676534
 20
5.9037606133562974
 30
0.0
 40
0.0081197542333908
 50
267.9721646363146874
 51
353.136918740523015
  0
LINE
  5
2432
  8
0
 10
5.1697709340272189
 20
5.9456459441844682
 30
0.0
 11
5.1634973046791108
 21
5.9027903260518872
 31
0.0
  0
LINE
  5
2433
  8
0
 10
1.3660928941933219
 20
5.9456459441844682
 30
0.0
 11
1.371660860332347
 21
5.9032999713730732
 31
0.0
  0
ARC
  5
2434
  8
0
 10
1.3794544145191661
 20
5.9042958186093504
 30
0.0
 40
0.0078569204260262
 50
187.2816991979576926
 51
269.9580975207052802
  0
LINE
  5
2435
  8
0
 10
1.3794486684691301
 20
5.8964389002844699
 30
0.0
 11
1.471342128269121
 21
5.894866968534469
 31
0.0
  0
ARC
  5
2436
  8
0
 10
1.4716602722232031
 20
5.9027694632116177
 30
0.0
 40
0.0079088961112081
 50
267.6945928787616253
 51
350.63522249885159
  0
LINE
  5
2437
  8
0
 10
1.4794637615691211
 20
5.9014825320844686
 30
0.0
 11
1.4866152866853211
 21
5.9456459441844682
 31
0.0
  0
LINE
  5
2438
  8
0
 10
2.1020711046573619
 20
5.9456459441844682
 30
0.0
 11
2.1076976766112798
 21
5.9030556251844688
 31
0.0
  0
ARC
  5
2439
  8
0
 10
2.115603073413161
 20
5.9041000006428943
 30
0.0
 40
0.0079740841915175
 50
187.5257184428510016
 51
270.2892778983460857
  0
LINE
  5
243A
  8
0
 10
2.1156433332112812
 20
5.8961260180844679
 30
0.0
 11
2.2059386869112809
 21
5.8952493925844687
 31
0.0
  0
ARC
  5
243B
  8
0
 10
2.2076711032598899
 20
5.9029971272876347
 30
0.0
 40
0.007939059102664
 50
257.3958272208002995
 51
297.4299821836359001
  0
LINE
  5
243C
  8
0
 10
2.384105323221966
 20
5.9456459441844682
 30
0.0
 11
2.3897318951758839
 21
5.9030556251844688
 31
0.0
  0
ARC
  5
243D
  8
0
 10
2.3976372919777651
 20
5.9041000006428943
 30
0.0
 40
0.0079740841915175
 50
187.5257184428510016
 51
270.2892778983460857
  0
LINE
  5
243E
  8
0
 10
2.3976775517758848
 20
5.8961260180844679
 30
0.0
 11
2.487972905475885
 21
5.8952493925844687
 31
0.0
  0
ARC
  5
243F
  8
0
 10
2.489705321824494
 20
5.9029971272876347
 30
0.0
 40
0.007939059102664
 50
257.3958272208002995
 51
350.7791644780547244
  0
LINE
  5
2440
  8
0
 10
2.497541792875885
 20
5.9017249712844686
 30
0.0
 11
2.5044510546916139
 21
5.9456459441844682
 31
0.0
  0
LINE
  5
2441
  8
0
 10
4.6845293607458798
 20
5.9456459441844691
 30
0.0
 11
4.6905549912851043
 21
5.9026328115844704
 31
0.0
  0
ARC
  5
2442
  8
0
 10
4.698530165826134
 20
5.9037500391000046
 30
0.0
 40
0.0080530495019784
 50
187.9745643482719117
 51
272.215719226176418
  0
LINE
  5
2443
  8
0
 10
4.6988415124851031
 20
5.8957030104844703
 30
0.0
 11
4.7894000182851073
 21
5.895251586384469
 31
0.0
  0
ARC
  5
2444
  8
0
 10
4.79024525811149
 20
5.9034365269761446
 30
0.0
 40
0.0082284678314591
 50
264.1040968918244971
 51
352.0407649634753966
  0
LINE
  5
2445
  8
0
 10
4.7983944597740873
 20
5.902297143320097
 30
0.0
 11
4.8048669883000414
 21
5.9456459441844682
 31
0.0
  0
LINE
  5
2446
  8
0
 10
4.5727136043729892
 20
5.8954613794905368
 30
0.0
 11
4.6147994172761946
 21
5.895251586384469
 31
0.0
  0
ARC
  5
2447
  8
0
 10
4.6156446571025782
 20
5.9034365269761446
 30
0.0
 40
0.0082284678314591
 50
264.1040968918244971
 51
352.0407649634753966
  0
LINE
  5
2448
  8
0
 10
4.6237938587651746
 20
5.902297143320097
 30
0.0
 11
4.6302663872911287
 21
5.9456459441844682
 31
0.0
  0
LINE
  5
2449
  8
0
 10
4.4649716997427928
 20
5.9456459441844691
 30
0.0
 11
4.4709973302820174
 21
5.9026328115844704
 31
0.0
  0
ARC
  5
244A
  8
0
 10
4.4789725048230471
 20
5.9037500391000046
 30
0.0
 40
0.0080530495019784
 50
187.9745643482719117
 51
272.215719226176418
  0
LINE
  5
244B
  8
0
 10
4.4792838514820161
 20
5.8957030104844703
 30
0.0
 11
4.5698423572820204
 21
5.895251586384469
 31
0.0
  0
ARC
  5
244C
  8
0
 10
4.5706875971084031
 20
5.9034365269761446
 30
0.0
 40
0.0082284678314591
 50
264.1040968918244971
 51
352.0407649634753966
  0
LINE
  5
244D
  8
0
 10
4.5788367987710004
 20
5.902297143320097
 30
0.0
 11
4.5853093272969536
 21
5.9456459441844682
 31
0.0
  0
LINE
  5
244E
  8
0
 10
4.3514986687256707
 20
5.8955842997763872
 30
0.0
 11
4.4182430619286199
 21
5.895251586384469
 31
0.0
  0
ARC
  5
244F
  8
0
 10
4.4190883017550027
 20
5.9034365269761446
 30
0.0
 40
0.0082284678314591
 50
264.1040968918244971
 51
352.0407649634753966
  0
LINE
  5
2450
  8
0
 10
4.4272375034175999
 20
5.902297143320097
 30
0.0
 11
4.4337100319435541
 21
5.9456459441844682
 31
0.0
  0
LINE
  5
2451
  8
0
 10
4.2433230537224587
 20
5.9456459441844691
 30
0.0
 11
4.2493486842616832
 21
5.9026328115844704
 31
0.0
  0
ARC
  5
2452
  8
0
 10
4.2573238588027129
 20
5.9037500391000046
 30
0.0
 40
0.0080530495019784
 50
187.9745643482719117
 51
272.215719226176418
  0
LINE
  5
2453
  8
0
 10
4.2576352054616811
 20
5.8957030104844703
 30
0.0
 11
4.3481937112616862
 21
5.895251586384469
 31
0.0
  0
ARC
  5
2454
  8
0
 10
4.349038951088068
 20
5.9034365269761446
 30
0.0
 40
0.0082284678314591
 50
264.1040968918244971
 51
352.0407649634753966
  0
LINE
  5
2455
  8
0
 10
4.3571881527506662
 20
5.902297143320097
 30
0.0
 11
4.3636606812766203
 21
5.9456459441844682
 31
0.0
  0
LINE
  5
2456
  8
0
 10
5.3595207022611611
 20
5.9456459606426506
 30
0.0
 11
5.365854481261163
 21
5.9023794560426532
 31
0.0
  0
ARC
  5
2457
  8
0
 10
5.3736454795029998
 20
5.9035199794454423
 30
0.0
 40
0.0078740362735157
 50
188.328366970894109
 51
269.8793035538780032
  0
LINE
  5
2458
  8
0
 10
5.3736288924611619
 20
5.8956459606426517
 30
0.0
 11
5.46591764306116
 21
5.8956459606426517
 31
0.0
  0
ARC
  5
2459
  8
0
 10
5.465901042579147
 20
5.903519994950142
 30
0.0
 40
0.0078740518065056
 50
270.1207940060969008
 51
351.6715354756553893
  0
LINE
  5
245A
  8
0
 10
5.4736920542482643
 20
5.9023794560322571
 30
0.0
 11
5.4800229284774558
 21
5.9456261185368771
 31
0.0
  0
ENDSEC
  0
EOF
