  0
SECTION
  2
HEADER
  9
$ACADVER
  1
AC1009
  9
$INSBASE
 10
5.9028196354209541
 20
1.3270170741559051
 30
0.0
  9
$EXTMIN
 10
-0.1011173725290493
 20
-1.466565211345924
 30
0.0
  9
$EXTMAX
 10
11.9067566433709597
 20
1.327017074155906
 30
0.0
  9
$LIMMIN
 10
0.0
 20
0.0
  9
$LIMMAX
 10
11.6929133858000007
 20
8.2677165353999982
  9
$ORTHOMODE
 70
     0
  9
$REGENMODE
 70
     1
  9
$FILLMODE
 70
     1
  9
$QTEXTMODE
 70
     0
  9
$MIRRTEXT
 70
     0
  9
$DRAGMODE
 70
     2
  9
$LTSCALE
 40
0.6431102362
  9
$OSMODE
 70
  3839
  9
$ATTMODE
 70
     1
  9
$TEXTSIZE
 40
0.2
  9
$TRACEWID
 40
0.05
  9
$TEXTSTYLE
  7
STANDARD
  9
$CLAYER
  8
0
  9
$CELTYPE
  6
BYLAYER
  9
$CECOLOR
 62
   256
  9
$DIMSCALE
 40
1.0
  9
$DIMASZ
 40
0.1875
  9
$DIMEXO
 40
0.0625
  9
$DIMDLI
 40
0.4443307087
  9
$DIMRND
 40
0.0
  9
$DIMDLE
 40
0.0
  9
$DIMEXE
 40
0.125
  9
$DIMTP
 40
0.01
  9
$DIMTM
 40
0.01
  9
$DIMTXT
 40
1.0
  9
$DIMCEN
 40
0.1052362205
  9
$DIMTSZ
 40
0.0
  9
$DIMTOL
 70
     1
  9
$DIMLIM
 70
     0
  9
$DIMTIH
 70
     1
  9
$DIMTOH
 70
     1
  9
$DIMSE1
 70
     0
  9
$DIMSE2
 70
     0
  9
$DIMTAD
 70
     0
  9
$DIMZIN
 70
     0
  9
$DIMBLK
  1

  9
$DIMASO
 70
     1
  9
$DIMSHO
 70
     1
  9
$DIMPOST
  1
\X
  9
$DIMAPOST
  1

  9
$DIMALT
 70
     1
  9
$DIMALTD
 70
     2
  9
$DIMALTF
 40
25.3999999999999986
  9
$DIMLFAC
 40
1.0
  9
$DIMTOFL
 70
     0
  9
$DIMTVP
 40
0.0
  9
$DIMTIX
 70
     0
  9
$DIMSOXD
 70
     0
  9
$DIMSAH
 70
     0
  9
$DIMBLK1
  1

  9
$DIMBLK2
  1

  9
$DIMSTYLE
  2
STANDARD
  9
$DIMCLRD
 70
     0
  9
$DIMCLRE
 70
     0
  9
$DIMCLRT
 70
     0
  9
$DIMTFAC
 40
1.0
  9
$DIMGAP
 40
0.09
  9
$LUNITS
 70
     2
  9
$LUPREC
 70
     4
  9
$SKETCHINC
 40
0.1
  9
$FILLETRAD
 40
0.0
  9
$AUNITS
 70
     0
  9
$AUPREC
 70
     0
  9
$MENU
  1
.
  9
$ELEVATION
 40
0.0
  9
$PELEVATION
 40
0.0
  9
$THICKNESS
 40
0.0
  9
$LIMCHECK
 70
     0
  9
$BLIPMODE
 70
     0
  9
$CHAMFERA
 40
0.0
  9
$CHAMFERB
 40
0.0
  9
$SKPOLY
 70
     0
  9
$TDCREATE
 40
2457893.7626041672192514
  9
$TDUPDATE
 40
2459073.7148611121810973
  9
$TDINDWG
 40
0.2954671181
  9
$TDUSRTIMER
 40
0.2954671181
  9
$USRTIMER
 70
     1
  9
$ANGBASE
 50
0.0
  9
$ANGDIR
 70
     0
  9
$PDMODE
 70
     0
  9
$PDSIZE
 40
0.3125
  9
$PLINEWID
 40
0.0
  9
$COORDS
 70
     1
  9
$SPLFRAME
 70
     0
  9
$SPLINETYPE
 70
     6
  9
$SPLINESEGS
 70
     8
  9
$ATTDIA
 70
     1
  9
$ATTREQ
 70
     1
  9
$HANDLING
 70
     1
  9
$HANDSEED
  5
202B
  9
$SURFTAB1
 70
     6
  9
$SURFTAB2
 70
     6
  9
$SURFTYPE
 70
     6
  9
$SURFU
 70
     6
  9
$SURFV
 70
     6
  9
$UCSNAME
  2

  9
$UCSORG
 10
0.0
 20
0.0
 30
0.0
  9
$UCSXDIR
 10
1.0
 20
0.0
 30
0.0
  9
$UCSYDIR
 10
0.0
 20
1.0
 30
0.0
  9
$PUCSNAME
  2

  9
$PUCSORG
 10
0.0
 20
0.0
 30
0.0
  9
$PUCSXDIR
 10
1.0
 20
0.0
 30
0.0
  9
$PUCSYDIR
 10
0.0
 20
1.0
 30
0.0
  9
$USERI1
 70
     0
  9
$USERI2
 70
     0
  9
$USERI3
 70
     0
  9
$USERI4
 70
     0
  9
$USERI5
 70
     0
  9
$USERR1
 40
0.0
  9
$USERR2
 40
0.0
  9
$USERR3
 40
0.0
  9
$USERR4
 40
0.0
  9
$USERR5
 40
0.0
  9
$WORLDVIEW
 70
     1
  9
$SHADEDGE
 70
     3
  9
$SHADEDIF
 70
    70
  9
$TILEMODE
 70
     1
  9
$MAXACTVP
 70
    48
  9
$PLIMCHECK
 70
     0
  9
$PEXTMIN
 10
1.0000000000000000E+20
 20
1.0000000000000000E+20
 30
1.0000000000000000E+20
  9
$PEXTMAX
 10
-1.0000000000000000E+20
 20
-1.0000000000000000E+20
 30
-1.0000000000000000E+20
  9
$PLIMMIN
 10
0.0
 20
0.0
  9
$PLIMMAX
 10
12.0
 20
9.0
  9
$UNITMODE
 70
     0
  9
$VISRETAIN
 70
     1
  9
$PLINEGEN
 70
     0
  9
$PSLTSCALE
 70
     1
  0
ENDSEC
  0
SECTION
  2
TABLES
  0
TABLE
  2
VPORT
 70
     1
  0
VPORT
  2
*ACTIVE
 70
     0
 10
0.0
 20
0.0
 11
1.0
 21
1.0
 12
0.0
 22
0.0
 13
0.0
 23
0.0
 14
1.0
 24
1.0
 15
0.0
 25
0.0
 16
-0.0000000000000115
 26
0.0
 36
51.1825618899900192
 17
5.9028195142745972
 27
-0.0697740912437439
 37
0.0
 40
12.3285495798132896
 41
3.314341846758349
 42
50.0
 43
0.0
 44
0.0
 50
0.0
 51
0.0
 71
     0
 72
   100
 73
     1
 74
     1
 75
     0
 76
     0
 77
     0
 78
     0
  0
ENDTAB
  0
TABLE
  2
LTYPE
 70
     2
  0
LTYPE
  2
CONTINUOUS
 70
     0
  3
Solid line
 72
    65
 73
     0
 40
0.0
  0
LTYPE
  2
PHANTOM2
 70
     0
  3
___ _ _ ___ _ _ ___ _ _ ___ _ _
 72
    65
 73
     6
 40
1.25
 49
0.625
 49
-0.125
 49
0.125
 49
-0.125
 49
0.125
 49
-0.125
  0
ENDTAB
  0
TABLE
  2
LAYER
 70
     2
  0
LAYER
  2
0
 70
     0
 62
     7
  6
CONTINUOUS
  0
LAYER
  2
DEFPOINTS
 70
     0
 62
     7
  6
CONTINUOUS
  0
ENDTAB
  0
TABLE
  2
STYLE
 70
     1
  0
STYLE
  2
STANDARD
 70
     0
 40
0.0
 41
0.8
 50
0.0
 71
     0
 42
0.2
  3
txt
  4

  0
ENDTAB
  0
TABLE
  2
VIEW
 70
     0
  0
ENDTAB
  0
TABLE
  2
UCS
 70
     0
  0
ENDTAB
  0
TABLE
  2
APPID
 70
     9
  0
APPID
  2
ACAD
 70
     0
  0
APPID
  2
ACAD_MLEADERVER
 70
     0
  0
APPID
  2
ACAD_NAV_VCDISPLAY
 70
     0
  0
APPID
  2
ACAD_EXEMPT_FROM_CAD_STANDARDS
 70
     0
  0
APPID
  2
ACAD_DSTYLE_DIMJAG
 70
     0
  0
APPID
  2
ACAD_DSTYLE_DIMTALN
 70
     0
  0
APPID
  2
ACDBATTR
 70
     0
  0
APPID
  2
ACAD_PSEXT
 70
     0
  0
APPID
  2
ACADANNOTATIVE
 70
     0
  0
ENDTAB
  0
TABLE
  2
DIMSTYLE
 70
     3
  0
DIMSTYLE
  2
STANDARD
 70
     0
  3

  4

  5

  6

  7

 40
1.0
 41
0.1875
 42
0.0625
 43
0.38
 44
0.125
 45
0.0
 46
0.0
 47
0.01
 48
0.01
140
0.15625
141
0.09
142
0.0
143
25.3999999999999986
144
1.0
145
0.0
146
1.0
147
0.09
 71
     1
 72
     0
 73
     1
 74
     1
 75
     0
 76
     0
 77
     0
 78
     4
170
     0
171
     2
172
     0
173
     0
174
     0
175
     0
176
     0
177
     0
178
     0
  0
DIMSTYLE
  2
ANNOTATIVE
 70
     0
  3

  4

  5

  6

  7

 40
0.0
 41
2.5
 42
0.625
 43
3.75
 44
1.25
 45
0.0
 46
0.0
 47
0.0
 48
0.0
140
2.5
141
2.5
142
0.0
143
0.03937007874016
144
1.0
145
0.0
146
1.0
147
0.625
 71
     0
 72
     0
 73
     0
 74
     0
 75
     0
 76
     0
 77
     1
 78
     8
170
     0
171
     3
172
     1
173
     0
174
     0
175
     0
176
     0
177
     0
178
     0
  0
DIMSTYLE
  2
ISO-25
 70
     0
  3

  4

  5

  6

  7

 40
1.0
 41
2.5
 42
0.625
 43
3.75
 44
1.25
 45
0.0
 46
0.0
 47
0.0
 48
0.0
140
2.5
141
2.5
142
0.0
143
0.03937007874016
144
1.0
145
0.0
146
1.0
147
0.625
 71
     0
 72
     0
 73
     0
 74
     0
 75
     0
 76
     0
 77
     1
 78
     8
170
     0
171
     3
172
     1
173
     0
174
     0
175
     0
176
     0
177
     0
178
     0
  0
ENDTAB
  0
ENDSEC
  0
SECTION
  2
BLOCKS
  0
BLOCK
  8
0
  2
$MODEL_SPACE
 70
     0
 10
0.0
 20
0.0
 30
0.0
  3
$MODEL_SPACE
  1

  0
ENDBLK
  5
21
  8
0
  0
BLOCK
 67
     1
  8
0
  2
$PAPER_SPACE
 70
     0
 10
0.0
 20
0.0
 30
0.0
  3
$PAPER_SPACE
  1

  0
ENDBLK
  5
1D
 67
     1
  8
0
  0
ENDSEC
  0
SECTION
  2
ENTITIES
  0
ATTDEF
  5
1B48
  8
DEFPOINTS
 10
5.891692701311352
 20
1.3253619361239131
 30
0.0
 40
0.001
  1
K-13690W
  3

  2
MODELNUMBER
 70
     0
1001
ACDBATTR
1070
     0
1070
     1
  0
ATTDEF
  5
1B49
  8
DEFPOINTS
 10
5.891692701311352
 20
1.3236952694572479
 30
0.0
 40
0.001
  1

  3

  2
TRADENAME
 70
     0
1001
ACDBATTR
1070
     0
1070
     1
  0
ATTDEF
  5
1B4A
  8
DEFPOINTS
 10
5.891692701311352
 20
1.322028602790583
 30
0.0
 40
0.001
  1
SHOWERHEAD
  3

  2
PRODUCT
 70
     0
1001
ACDBATTR
1070
     0
1070
     1
  0
LINE
  5
1DB1
  8
0
 10
11.9067566432709508
 20
-0.9425104849440941
 30
0.0
 11
11.9067566433709509
 21
-1.385030169946835
 31
0.0
  0
ARC
  5
1DB2
  8
0
 10
11.8768353834049893
 20
-1.3850301697808729
 30
0.0
 40
0.0299212599659629
 50
270.0000001263052241
 51
359.9999996822028265
  0
LINE
  5
1DB3
  8
0
 10
11.8768353834709508
 20
-1.414951429746836
 30
0.0
 11
-0.0711961125630865
 21
-1.4149514297468351
 31
0.0
  0
LINE
  5
1DB4
  8
0
 10
5.8425670700138443
 20
-1.4149514297468351
 30
0.0
 11
5.8489219474709548
 21
-1.4582038003468349
 31
0.0
  0
ARC
  5
1DB5
  8
0
 10
5.8602433771925462
 20
-1.4548690093204411
 30
0.0
 40
0.0118250517052592
 50
196.3970152552633124
 51
261.5341040983749963
  0
LINE
  5
1DB6
  8
0
 10
5.8585024848709599
 20
-1.466565211343182
 30
0.0
 11
5.9444723827792521
 21
-1.466565211343182
 31
0.0
  0
ARC
  5
1DB7
  8
0
 10
5.9438463429326118
 20
-1.452574220011418
 30
0.0
 40
0.0140049906938594
 50
272.5620436499874017
 51
337.4136884013569215
  0
LINE
  5
1DB8
  8
0
 10
5.9567771788763721
 20
-1.4579531833065731
 30
0.0
 11
5.9630722009280079
 21
-1.4149514297468351
 31
0.0
  0
LINE
  5
1DB9
  8
0
 10
11.0670584261965299
 20
-1.414951429746836
 30
0.0
 11
11.0626196933709497
 21
-1.456313396646834
 31
0.0
  0
ARC
  5
1DBA
  8
0
 10
11.0547906297284904
 20
-1.455473225726835
 30
0.0
 40
0.0078740157919925
 50
272.0000003431889013
 51
353.8747819904901917
  0
LINE
  5
1DBB
  8
0
 10
10.9629148286619706
 20
-1.466560414709007
 30
0.0
 11
11.0550821849709493
 21
-1.4633418597468351
 31
0.0
  0
ARC
  5
1DBC
  8
0
 10
10.9626400294960806
 20
-1.4586911955904851
 30
0.0
 40
0.0078740157554386
 50
190.1252182986551134
 51
271.9999998470818809
  0
LINE
  5
1DBD
  8
0
 10
10.9548886444538702
 20
-1.4600754477511979
 30
0.0
 11
10.9468303401531006
 21
-1.414951429746836
 31
0.0
  0
LINE
  5
1DBE
  8
0
 10
10.8931370905382199
 20
-1.414951429746836
 30
0.0
 11
10.8886413670709494
 21
-1.456378045946835
 31
0.0
  0
ARC
  5
1DBF
  8
0
 10
10.8804935949441699
 20
-1.45532883200215
 30
0.0
 40
0.0082150496365975
 50
266.5794476518166221
 51
352.6622261289761013
  0
LINE
  5
1DC0
  8
0
 10
10.8800034485709496
 20
-1.463529246446835
 30
0.0
 11
10.7890344402709495
 21
-1.4664806562468351
 31
0.0
  0
ARC
  5
1DC1
  8
0
 10
10.7886183612007809
 20
-1.458662119139444
 30
0.0
 40
0.0078296005193309
 50
189.9282162347440988
 51
273.0462358309130764
  0
LINE
  5
1DC2
  8
0
 10
10.7729140092532099
 20
-1.414951429746836
 30
0.0
 11
10.7810557716209505
 21
-1.4605939804968351
 31
0.0
  0
LINE
  5
1DC3
  8
0
 10
10.3832260346418206
 20
-1.4149514297468371
 30
0.0
 11
10.3785622823709591
 21
-1.456567505746835
 31
0.0
  0
ARC
  5
1DC4
  8
0
 10
10.3662601578981395
 20
-1.4493313585091929
 30
0.0
 40
0.0142724942946032
 50
273.4665076110496784
 51
329.5358272780301263
  0
LINE
  5
1DC5
  8
0
 10
10.3671231452217008
 20
-1.4635777386202551
 30
0.0
 11
10.2792527375209506
 21
-1.4664792150468351
 31
0.0
  0
ARC
  5
1DC6
  8
0
 10
10.2788993303991898
 20
-1.4582505451482921
 30
0.0
 40
0.0082362555140626
 50
191.027829213162704
 51
272.4592431798225789
  0
LINE
  5
1DC7
  8
0
 10
10.2708151623709494
 20
-1.459826023546835
 30
0.0
 11
10.2630166274535792
 21
-1.414951429746836
 31
0.0
  0
LINE
  5
1DC8
  8
0
 10
10.2158445258981008
 20
-1.414951429746836
 30
0.0
 11
10.2104748896667203
 21
-1.45726504368016
 31
0.0
  0
ARC
  5
1DC9
  8
0
 10
10.2026635018991598
 20
-1.456273771442339
 30
0.0
 40
0.0078740332425429
 50
271.1120440003995782
 51
352.7677701842599163
  0
LINE
  5
1DCA
  8
0
 10
10.2028163180709495
 20
-1.4641463216468349
 30
0.0
 11
10.11056708907096
 21
-1.4657565379468349
 31
0.0
  0
ARC
  5
1DCB
  8
0
 10
10.1106663655379503
 20
-1.457618607552994
 30
0.0
 40
0.0081380944204577
 50
187.6415495038532981
 51
269.4093095807738223
  0
LINE
  5
1DCC
  8
0
 10
10.10260054251874
 20
-1.4587007719670559
 30
0.0
 11
10.0954894376542601
 21
-1.414951429744093
 31
0.0
  0
LINE
  5
1DCD
  8
0
 10
10.0711001976467607
 20
-1.414951429746836
 30
0.0
 11
10.0655322315077296
 21
-1.457297402558231
 31
0.0
  0
ARC
  5
1DCE
  8
0
 10
10.0577386773209092
 20
-1.456301555321954
 30
0.0
 40
0.0078569204260262
 50
270.0419024792946061
 51
352.7183008020422221
  0
LINE
  5
1DCF
  8
0
 10
10.0577444233709503
 20
-1.4641584736468329
 30
0.0
 11
9.9658509635709578
 21
-1.4657304053968341
 31
0.0
  0
ARC
  5
1DD0
  8
0
 10
9.9655328196168789
 20
-1.4578279107196861
 30
0.0
 40
0.0079088961112081
 50
189.3647775011484953
 51
272.3054071212383178
  0
LINE
  5
1DD1
  8
0
 10
9.9577293302709613
 20
-1.4591148418468349
 30
0.0
 11
9.9505778051547651
 21
-1.414951429746836
 31
0.0
  0
LINE
  5
1DD2
  8
0
 10
9.646068680729261
 20
-1.414951429746836
 30
0.0
 11
9.6405818899709566
 21
-1.457391656346835
 31
0.0
  0
ARC
  5
1DD3
  8
0
 10
9.6327026408176728
 20
-1.4563730050600701
 30
0.0
 40
0.0079448233248813
 50
269.9943875086534035
 51
352.6335019365728272
  0
LINE
  5
1DD4
  8
0
 10
9.6327018625709577
 20
-1.464317828346835
 30
0.0
 11
9.5598113735197998
 21
-1.4650337419574571
 31
0.0
  0
LINE
  5
1DD5
  8
0
 10
9.5720762192254192
 20
-1.414951429746836
 30
0.0
 11
9.5671422831709556
 21
-1.456868625546835
 31
0.0
  0
ARC
  5
1DD6
  8
0
 10
9.5568711450023933
 20
-1.455020384319994
 30
0.0
 40
0.0104361043934185
 50
286.3638546163385854
 51
349.7990718211818262
  0
LINE
  5
1DD7
  8
0
 10
9.5598113735197963
 20
-1.4650337419574579
 30
0.0
 11
9.4667546938199933
 21
-1.4650337419574579
 31
0.0
  0
ARC
  5
1DD8
  8
0
 10
9.4667546938199933
 20
-1.457339977346455
 30
0.0
 40
0.0076937646110036
 50
196.5346961680550066
 51
270.0
  0
LINE
  5
1DD9
  8
0
 10
9.4593790850709567
 20
-1.459529591346836
 30
0.0
 11
9.4518854939541441
 21
-1.414951429746836
 31
0.0
  0
LINE
  5
1DDA
  8
0
 10
9.3646470040594068
 20
-1.414951429746836
 30
0.0
 11
9.3583132250449417
 21
-1.4582179345468349
 31
0.0
  0
ARC
  5
1DDB
  8
0
 10
9.3504885857087174
 20
-1.4570724864305009
 30
0.0
 40
0.0079080359210869
 50
265.0838276196133734
 51
351.6716330483172896
  0
LINE
  5
1DDC
  8
0
 10
9.349810881664613
 20
-1.464951429846836
 30
0.0
 11
9.2582666300770171
 21
-1.4649514297468349
 31
0.0
  0
ARC
  5
1DDD
  8
0
 10
9.2582666300709526
 20
-1.4570774140468461
 30
0.0
 40
0.007874015699989
 50
188.3283668791530943
 51
270.0000000000259774
  0
LINE
  5
1DDE
  8
0
 10
9.2504756521838445
 20
-1.4582179344571631
 30
0.0
 11
9.2464415132709554
 21
-1.4306604385468349
 31
0.0
  0
LINE
  5
1DDF
  8
0
 10
9.2487411533462414
 20
-1.414951429746836
 30
0.0
 11
9.2424073743831041
 21
-1.458217934463842
 31
0.0
  0
ARC
  5
1DE0
  8
0
 10
9.2346163965040944
 20
-1.4570774140516869
 30
0.0
 40
0.0078740156922494
 50
275.0501274415252055
 51
351.6716330990955157
  0
LINE
  5
1DE1
  8
0
 10
9.2353095246012664
 20
-1.464920863328804
 30
0.0
 11
9.1433881046150951
 21
-1.4649514298468349
 31
0.0
  0
ARC
  5
1DE2
  8
0
 10
9.1424901879421032
 20
-1.4569787345153169
 30
0.0
 40
0.0080230994759411
 50
185.9785462378148964
 51
276.4258013372539722
  0
LINE
  5
1DE3
  8
0
 10
9.1345107263837306
 20
-1.4578143890129249
 30
0.0
 11
9.1282360223952672
 21
-1.414951429744093
 31
0.0
  0
LINE
  5
1DE4
  8
0
 10
8.9702096991248759
 20
-1.414951429746836
 30
0.0
 11
8.9645831271709575
 21
-1.457541748746835
 31
0.0
  0
ARC
  5
1DE5
  8
0
 10
8.9566777303690728
 20
-1.4564973732884099
 30
0.0
 40
0.0079740841915175
 50
269.7107221016539143
 51
352.4742815571489132
  0
LINE
  5
1DE6
  8
0
 10
8.956637470570957
 20
-1.4644713558468361
 30
0.0
 11
8.8663421168709569
 21
-1.4653479813468351
 31
0.0
  0
ARC
  5
1DE7
  8
0
 10
8.8646097005223439
 20
-1.4576002466436679
 30
0.0
 40
0.007939059102664
 50
189.2208355219455029
 51
282.6041727791997005
  0
LINE
  5
1DE8
  8
0
 10
8.8567732294709565
 20
-1.4588724026468349
 30
0.0
 11
8.8498639676552244
 21
-1.414951429746836
 31
0.0
  0
LINE
  5
1DE9
  8
0
 10
8.8615944230709545
 20
-1.4649514298468349
 30
0.0
 11
8.8025420192709571
 21
-1.4649514297468349
 31
0.0
  0
ARC
  5
1DEA
  8
0
 10
8.8025264800943326
 20
-1.457095393621523
 30
0.0
 40
0.0078560514934809
 50
188.2150364333658104
 51
270.1133304458383009
  0
LINE
  5
1DEB
  8
0
 10
8.7947510413838472
 20
-1.4582179344571631
 30
0.0
 11
8.7884172623676164
 21
-1.414951429746836
 31
0.0
  0
LINE
  5
1DEC
  8
0
 10
8.5149680295986592
 20
-1.414951429746836
 30
0.0
 11
8.5096766667709574
 21
-1.4572605198468349
 31
0.0
  0
ARC
  5
1DED
  8
0
 10
8.5010239467198083
 20
-1.456178372224918
 30
0.0
 40
0.008720126590777
 50
270.1063563328985992
 51
352.8713481187911043
  0
LINE
  5
1DEE
  8
0
 10
8.5010401336041106
 20
-1.464898483792094
 30
0.0
 11
8.4131102652709551
 21
-1.466240032846835
 31
0.0
  0
LINE
  5
1DEF
  8
0
 10
8.3947959890548862
 20
-1.414951429746836
 30
0.0
 11
8.4018973832709563
 21
-1.459142387546835
 31
0.0
  0
ARC
  5
1DF0
  8
0
 10
8.4111568917301334
 20
-1.4569168256399441
 30
0.0
 40
0.0095108901580212
 50
192.4701748656883069
 51
281.8411313833008762
  0
ARC
  5
1DF1
  8
0
 10
8.4078271482968692
 20
-1.457098159943949
 30
0.0
 40
0.0078257248981802
 50
188.2266283203946102
 51
252.8317759752931977
  0
LINE
  5
1DF2
  8
0
 10
8.4000819513838465
 20
-1.4582179344571631
 30
0.0
 11
8.3937480939537679
 21
-1.414951429746836
 31
0.0
  0
LINE
  5
1DF3
  8
0
 10
8.3683488109296622
 20
-1.414951429746836
 30
0.0
 11
8.3629791746982853
 21
-1.45726504368016
 31
0.0
  0
ARC
  5
1DF4
  8
0
 10
8.3551677869307248
 20
-1.456273771442339
 30
0.0
 40
0.0078740332425429
 50
271.1120440003995782
 51
352.7677701842599163
  0
LINE
  5
1DF5
  8
0
 10
8.3553206031025162
 20
-1.4641463216468349
 30
0.0
 11
8.2630713741025161
 21
-1.4657565379468349
 31
0.0
  0
ARC
  5
1DF6
  8
0
 10
8.2631706505695135
 20
-1.457618607552994
 30
0.0
 40
0.0081380944204577
 50
187.6415495038532981
 51
269.4093095807738223
  0
LINE
  5
1DF7
  8
0
 10
8.2551048275503014
 20
-1.4587007719670559
 30
0.0
 11
8.2479937226862567
 21
-1.414951429746836
 31
0.0
  0
LINE
  5
1DF8
  8
0
 10
7.6638674905625299
 20
-1.414951429746836
 30
0.0
 11
7.6585492167433058
 21
-1.456860299450796
 31
0.0
  0
ARC
  5
1DF9
  8
0
 10
7.6507378289757462
 20
-1.455869027212974
 30
0.0
 40
0.0078740332425429
 50
271.1120440003995782
 51
352.7677701842599163
  0
LINE
  5
1DFA
  8
0
 10
7.6508906451475367
 20
-1.46374157741747
 30
0.0
 11
7.5586414161475366
 21
-1.46535179371747
 31
0.0
  0
ARC
  5
1DFB
  8
0
 10
7.558740692614534
 20
-1.45721386332363
 30
0.0
 40
0.0081380944204577
 50
187.6415495038532981
 51
269.4093095807738223
  0
LINE
  5
1DFC
  8
0
 10
7.5506748695953219
 20
-1.4582960277376911
 30
0.0
 11
7.5436295526611552
 21
-1.414951429746836
 31
0.0
  0
LINE
  5
1DFD
  8
0
 10
8.1724598452743002
 20
-1.414951429746836
 30
0.0
 11
8.1661260662709552
 21
-1.4582179345468349
 31
0.0
  0
ARC
  5
1DFE
  8
0
 10
8.1583350884936827
 20
-1.457077414144522
 30
0.0
 40
0.0078740155901577
 50
275.9293637326056228
 51
351.6716330627270963
  0
LINE
  5
1DFF
  8
0
 10
8.1591484924325464
 20
-1.46490930379813
 30
0.0
 11
8.0723848026924827
 21
-1.4646904633137161
 31
0.0
  0
LINE
  5
1E00
  8
0
 10
8.0894138349312463
 20
-1.414951429746836
 30
0.0
 11
8.0835991029411005
 21
-1.4577361247697249
 31
0.0
  0
ARC
  5
1E01
  8
0
 10
8.0755174924402766
 20
-1.456481081919639
 30
0.0
 40
0.0081832593354283
 50
269.3438464096103075
 51
351.1703109153534115
  0
LINE
  5
1E02
  8
0
 10
8.075423779470956
 20
-1.4646638046468401
 30
0.0
 11
7.983942037070956
 21
-1.4654663054468351
 31
0.0
  0
LINE
  5
1E03
  8
0
 10
7.9690727822555969
 20
-1.4149514297468351
 30
0.0
 11
7.9757811161523149
 21
-1.4586212598468351
 31
0.0
  0
ARC
  5
1E04
  8
0
 10
7.9836961524972594
 20
-1.457412424861932
 30
0.0
 40
0.0080068147451089
 50
188.6834778167877005
 51
271.8460740675963052
  0
LINE
  5
1E05
  8
0
 10
7.4359972971727748
 20
-1.414951429746836
 30
0.0
 11
7.4301563759641338
 21
-1.4548511868934351
 31
0.0
  0
ARC
  5
1E06
  8
0
 10
7.4184699090920994
 20
-1.45314040624993
 30
0.0
 40
0.0118110235949884
 50
275.2388710742886246
 51
351.6716330154100092
  0
LINE
  5
1E07
  8
0
 10
7.4195483523421286
 20
-1.4649020914403179
 30
0.0
 11
7.3330208080709554
 21
-1.4649514298468349
 31
0.0
  0
ARC
  5
1E08
  8
0
 10
7.3330688485970006
 20
-1.4530142981742751
 30
0.0
 40
0.0119372334524632
 50
182.6213021621312862
 51
269.7633987075349182
  0
LINE
  5
1E09
  8
0
 10
7.3211441058464848
 20
-1.45356024032561
 30
0.0
 11
7.315492166156317
 21
-1.414951429746836
 31
0.0
  0
LINE
  5
1E0A
  8
0
 10
7.2839435090407241
 20
-1.414951429746836
 30
0.0
 11
7.2782283465709581
 21
-1.4577160549468351
 31
0.0
  0
ARC
  5
1E0B
  8
0
 10
7.2701823489355704
 20
-1.456640769392419
 30
0.0
 40
0.0081175314580366
 50
275.4247436412823049
 51
352.3879645909614169
  0
LINE
  5
1E0C
  8
0
 10
7.2709497661209559
 20
-1.4647219442968351
 30
0.0
 11
7.1808803655525599
 21
-1.4658933398836831
 31
0.0
  0
ARC
  5
1E0D
  8
0
 10
7.1795457021324651
 20
-1.4566565658399679
 30
0.0
 40
0.0093327017084865
 50
192.5865142760738138
 51
278.2220208527148202
  0
LINE
  5
1E0E
  8
0
 10
7.1704372831709646
 20
-1.458690287846883
 30
0.0
 11
7.1637851484557471
 21
-1.4149514297468351
 31
0.0
  0
LINE
  5
1E0F
  8
0
 10
7.1752684889875331
 20
-1.4649514298468349
 30
0.0
 11
7.1322823780709568
 21
-1.4649514297468349
 31
0.0
  0
ARC
  5
1E10
  8
0
 10
7.1322823780892746
 20
-1.4570774140256411
 30
0.0
 40
0.0078740157211938
 50
188.3283676719453013
 51
269.9999998667134946
  0
LINE
  5
1E11
  8
0
 10
7.1244914001969732
 20
-1.4582179345468349
 30
0.0
 11
7.1181576206269517
 21
-1.4149514297468351
 31
0.0
  0
LINE
  5
1E12
  8
0
 10
7.0637063384101877
 20
-1.414951429746836
 30
0.0
 11
7.0576807078709569
 21
-1.457964562346834
 31
0.0
  0
ARC
  5
1E13
  8
0
 10
7.0497055333299299
 20
-1.4568473348312989
 30
0.0
 40
0.0080530495019784
 50
267.784280773823582
 51
352.0254356517281167
  0
LINE
  5
1E14
  8
0
 10
7.0493941866709591
 20
-1.4648943634468341
 30
0.0
 11
6.9588356808709539
 21
-1.465345787546835
 31
0.0
  0
ARC
  5
1E15
  8
0
 10
6.9579904410445748
 20
-1.4571608469551589
 30
0.0
 40
0.0082284678314591
 50
187.9592350365248024
 51
275.8959031081753892
  0
LINE
  5
1E16
  8
0
 10
6.9498412393819784
 20
-1.4583002306112069
 30
0.0
 11
6.9433687108560198
 21
-1.414951429746836
 31
0.0
  0
LINE
  5
1E17
  8
0
 10
6.8434645433453758
 20
-1.414951429746836
 30
0.0
 11
6.8371307643449413
 21
-1.4582179345468349
 31
0.0
  0
ARC
  5
1E18
  8
0
 10
6.8293397865579619
 20
-1.457077414143624
 30
0.0
 40
0.0078740155998914
 50
272.2361199181352731
 51
351.6716330665022952
  0
LINE
  5
1E19
  8
0
 10
6.8296470129163458
 20
-1.4649454338202661
 30
0.0
 11
6.7371546540409097
 21
-1.4649514298468349
 31
0.0
  0
ARC
  5
1E1A
  8
0
 10
6.7372427931435404
 20
-1.4568925871864951
 30
0.0
 40
0.008059324632097
 50
187.191520063556311
 51
269.3733843104672019
  0
LINE
  5
1E1B
  8
0
 10
6.7292468692831191
 20
-1.457901504994825
 30
0.0
 11
6.7229594124210532
 21
-1.414951429746836
 31
0.0
  0
LINE
  5
1E1C
  8
0
 10
6.6988016918874891
 20
-1.454851186846835
 30
0.0
 11
6.6928703492186052
 21
-1.4149514297468351
 31
0.0
  0
LINE
  5
1E1D
  8
0
 10
6.7103579583255843
 20
-1.4649507121837599
 30
0.0
 11
6.7371128753915173
 21
-1.4649508646018761
 31
0.0
  0
ARC
  5
1E1E
  8
0
 10
6.710628075854558
 20
-1.452980307804532
 30
0.0
 40
0.0119734516527902
 50
187.6673376731108078
 51
268.7073144896505141
  0
LINE
  5
1E1F
  8
0
 10
6.6962281433892938
 20
-1.437539093161587
 30
0.0
 11
6.6932009700449413
 21
-1.4582179345468349
 31
0.0
  0
ARC
  5
1E20
  8
0
 10
6.6854099922760666
 20
-1.4570774141574669
 30
0.0
 40
0.0078740155799725
 50
275.3966887136539867
 51
351.6716331470869932
  0
LINE
  5
1E21
  8
0
 10
6.6861505495578903
 20
-1.4649165273895861
 30
0.0
 11
6.5936521375554689
 21
-1.4649514298468349
 31
0.0
  0
ARC
  5
1E22
  8
0
 10
6.593364819927185
 20
-1.456836760575007
 30
0.0
 40
0.0081197542333908
 50
186.8630812594772124
 51
272.0278353636851989
  0
LINE
  5
1E23
  8
0
 10
6.5790296180676107
 20
-1.414951429746836
 30
0.0
 11
6.5853032474157231
 21
-1.4578070478794181
 31
0.0
  0
LINE
  5
1E24
  8
0
 10
6.267763920356316
 20
-1.414951429746836
 30
0.0
 11
6.274097699396969
 21
-1.4582179345468349
 31
0.0
  0
ARC
  5
1E25
  8
0
 10
6.2818886771874993
 20
-1.457077414135862
 30
0.0
 40
0.00787401560453
 50
188.3283669856398035
 51
265.3720500828728177
  0
LINE
  5
1E26
  8
0
 10
6.2812533609665939
 20
-1.464925757594187
 30
0.0
 11
6.3742616769882998
 21
-1.4649514298468349
 31
0.0
  0
ARC
  5
1E27
  8
0
 10
6.3741442938608737
 20
-1.4570774134566471
 30
0.0
 40
0.0078740162901876
 50
270.0000037116292901
 51
351.6716416978272264
  0
LINE
  5
1E28
  8
0
 10
6.381935272502683
 20
-1.4582179327861731
 30
0.0
 11
6.3882690445878154
 21
-1.414951429746836
 31
0.0
  0
LINE
  5
1E29
  8
0
 10
5.1843156983709529
 20
-0.9425104849440941
 30
0.0
 11
5.1843187898709528
 21
-0.3519593038468356
 31
0.0
  0
LINE
  5
1E2A
  8
0
 10
5.1843187898709528
 20
-0.3519593038468356
 30
0.0
 11
5.2138432574709546
 21
-0.3519593038468356
 31
0.0
  0
LINE
  5
1E2B
  8
0
 10
5.2138432574709546
 20
-0.3519593038468356
 30
0.0
 11
5.2138432574709546
 21
0.120481641055906
 31
0.0
  0
LINE
  5
1E2C
  8
0
 10
6.5917960133709537
 20
0.1204816410559062
 30
0.0
 11
6.5917960133709537
 21
-0.3519593038468356
 31
0.0
  0
LINE
  5
1E2D
  8
0
 10
6.5917960133709537
 20
-0.3519593038468356
 30
0.0
 11
6.6213235723709536
 21
-0.3519593038468356
 31
0.0
  0
LINE
  5
1E2E
  8
0
 10
6.6213235723709536
 20
-0.3519593038468356
 30
0.0
 11
6.6213235723709536
 21
-0.9425104849440941
 31
0.0
  0
ARC
  5
1E2F
  8
0
 10
5.9028196213197432
 20
-0.1629829240145417
 30
0.0
 40
0.5279999970034109
 50
129.4534797255408876
 51
147.5202772774009929
  0
ARC
  5
1E30
  8
0
 10
5.5228176824148214
 20
0.2987569721289995
 30
0.0
 40
0.0700010107578599
 50
309.4548567469079217
 51
67.4583125751854453
  0
ARC
  5
1E31
  8
0
 10
5.6378196233191487
 20
0.5758402728065386
 30
0.0
 40
0.229999987948196
 50
179.9999945803932917
 51
247.4596915594343045
  0
LINE
  5
1E32
  8
0
 10
5.4078196353709549
 20
0.5758402945622328
 30
0.0
 11
5.4078197045329519
 21
1.307017074153161
 31
0.0
  0
ARC
  5
1E33
  8
0
 10
5.427820103666277
 20
1.307016675018599
 30
0.0
 40
0.0200003991373068
 50
90.0000000000152482
 51
179.9988565865160126
  0
ARC
  5
1E34
  8
0
 10
5.9028205860221661
 20
-0.1629829240145426
 30
0.0
 40
0.5279999970034109
 50
32.4797227225989715
 51
50.5465202744591267
  0
ARC
  5
1E35
  8
0
 10
6.282822524927087
 20
0.2987569721289986
 30
0.0
 40
0.0700010107578599
 50
112.5416874248144978
 51
230.5451432530921068
  0
ARC
  5
1E36
  8
0
 10
6.1678205840227589
 20
0.5758402728065369
 30
0.0
 40
0.229999987948196
 50
292.5403084405656955
 51
0.0000054196067059
  0
LINE
  5
1E37
  8
0
 10
6.3978205719709553
 20
0.5758402945622318
 30
0.0
 11
6.3978205028089583
 21
1.307017074153161
 31
0.0
  0
ARC
  5
1E38
  8
0
 10
6.3778201036756332
 20
1.3070166750185981
 30
0.0
 40
0.0200003991373077
 50
0.0011434134817801
 51
90.000000013398747
  0
ARC
  5
1E39
  8
0
 10
5.897766221907971
 20
0.7034643190492096
 30
0.0
 40
0.2599139376766473
 50
240.2293821093344945
 51
271.1140513093312165
  0
ARC
  5
1E3A
  8
0
 10
5.8240804776007939
 20
0.5823872678849514
 30
0.0
 40
0.1182919346085414
 50
183.1727168498167941
 51
242.0908401442864033
  0
LINE
  5
1E3B
  8
0
 10
5.7059698569655906
 20
0.5758402811492163
 30
0.0
 11
5.7059698570709543
 21
1.1528749370531639
 31
0.0
  0
ARC
  5
1E3C
  8
0
 10
5.9026859313971807
 20
0.6975116925601652
 30
0.0
 40
0.5036475349310697
 50
89.9847895342138457
 51
111.1616057408014058
  0
ARC
  5
1E3D
  8
0
 10
5.7155330023648823
 20
1.1527250924547841
 30
0.0
 40
0.0095643191768378
 50
148.0576554432923047
 51
179.1023078406331024
  0
ARC
  5
1E3E
  8
0
 10
5.722315349387272
 20
1.1481797234536131
 30
0.0
 40
0.0177265261131581
 50
123.3668922366914984
 51
147.1887835455605966
  0
ARC
  5
1E3F
  8
0
 10
5.7319574297082561
 20
1.134652314230735
 30
0.0
 40
0.0343327503097618
 50
113.3524221674213948
 51
124.3894174991847024
  0
ARC
  5
1E40
  8
0
 10
5.7353007277240087
 20
1.12803716923634
 30
0.0
 40
0.0417305735110475
 50
110.1606070054746027
 51
113.9666570350186987
  0
ARC
  5
1E41
  8
0
 10
5.9078730488339337
 20
0.7034643190492096
 30
0.0
 40
0.2599139376766473
 50
268.8859486906687266
 51
299.7706178906656191
  0
ARC
  5
1E42
  8
0
 10
5.9815587931411152
 20
0.5823872678849514
 30
0.0
 40
0.1182919346085414
 50
297.9091598557135967
 51
356.8272831501831206
  0
LINE
  5
1E43
  8
0
 10
6.0996694137763141
 20
0.5758402811492163
 30
0.0
 11
6.0996694136709531
 21
1.1528749370531639
 31
0.0
  0
ARC
  5
1E44
  8
0
 10
5.9029533393447258
 20
0.6975116925601652
 30
0.0
 40
0.5036475349310697
 50
68.8383942591985658
 51
90.0152104657861543
  0
ARC
  5
1E45
  8
0
 10
6.0901062683770268
 20
1.1527250924547841
 30
0.0
 40
0.0095643191768378
 50
0.8976921593669164
 51
31.9423445567074999
  0
ARC
  5
1E46
  8
0
 10
6.0833239213546326
 20
1.1481797234536131
 30
0.0
 40
0.0177265261131581
 50
32.8112164544393607
 51
56.63310776330853
  0
ARC
  5
1E47
  8
0
 10
6.0736818410336504
 20
1.134652314230735
 30
0.0
 40
0.0343327503097618
 50
55.6105825008153332
 51
66.6475778325786052
  0
ARC
  5
1E48
  8
0
 10
6.0703385430178978
 20
1.12803716923634
 30
0.0
 40
0.0417305735110475
 50
66.0333429649814008
 51
69.8393929945253262
  0
LINE
  5
1E49
  8
0
 10
11.9067566432709508
 20
-0.9425104849440941
 30
0.0
 11
-0.1011173724290479
 21
-0.9425104849440941
 31
0.0
  0
LINE
  5
1E4A
  8
0
 10
6.5917960133709537
 20
0.120481641055906
 30
0.0
 11
5.2138432574709546
 21
0.120481641055906
 31
0.0
  0
LINE
  5
1E4B
  8
0
 10
6.3778201036709561
 20
1.3270170741559051
 30
0.0
 11
5.4278201036662717
 21
1.3270170741559051
 31
0.0
  0
LINE
  5
1E4C
  8
0
 10
-0.1011173724290479
 20
-0.9425104849440941
 30
0.0
 11
-0.1011173725290462
 21
-1.385030169946835
 31
0.0
  0
ARC
  5
1E4D
  8
0
 10
-0.0711961125630865
 20
-1.3850301697808729
 30
0.0
 40
0.0299212599659629
 50
180.0000003177970882
 51
269.9999998736947759
  0
LINE
  5
1E4E
  8
0
 10
0.7385808446453767
 20
-1.414951429746836
 30
0.0
 11
0.7430195774709532
 21
-1.456313396646834
 31
0.0
  0
ARC
  5
1E4F
  8
0
 10
0.7508486411134179
 20
-1.455473225726835
 30
0.0
 40
0.0078740157919925
 50
186.1252180095098083
 51
267.9999996568112124
  0
LINE
  5
1E50
  8
0
 10
0.8427244421799358
 20
-1.466560414709007
 30
0.0
 11
0.7505570858709519
 21
-1.4633418597468351
 31
0.0
  0
ARC
  5
1E51
  8
0
 10
0.8429992413458258
 20
-1.4586911955904851
 30
0.0
 40
0.0078740157554386
 50
268.0000001529180054
 51
349.8747817013448866
  0
LINE
  5
1E52
  8
0
 10
0.8507506263880308
 20
-1.4600754477511979
 30
0.0
 11
0.8588089306888093
 21
-1.414951429746836
 31
0.0
  0
LINE
  5
1E53
  8
0
 10
0.912502180303683
 20
-1.414951429746836
 30
0.0
 11
0.9169979037709516
 21
-1.456378045946835
 31
0.0
  0
ARC
  5
1E54
  8
0
 10
0.9251456758977383
 20
-1.45532883200215
 30
0.0
 40
0.0082150496365975
 50
187.3377738710238987
 51
273.4205523481833779
  0
LINE
  5
1E55
  8
0
 10
0.9256358222709515
 20
-1.463529246446835
 30
0.0
 11
1.016604830570951
 21
-1.4664806562468351
 31
0.0
  0
ARC
  5
1E56
  8
0
 10
1.017020909641122
 20
-1.458662119139444
 30
0.0
 40
0.0078296005193309
 50
266.9537641690869236
 51
350.071783765255816
  0
LINE
  5
1E57
  8
0
 10
1.0327252615886979
 20
-1.414951429746836
 30
0.0
 11
1.0245834992209519
 21
-1.4605939804968351
 31
0.0
  0
LINE
  5
1E58
  8
0
 10
1.4224132362000821
 20
-1.4149514297468371
 30
0.0
 11
1.42707698847095
 21
-1.456567505746835
 31
0.0
  0
ARC
  5
1E59
  8
0
 10
1.439379112943765
 20
-1.4493313585091929
 30
0.0
 40
0.0142724942946032
 50
210.4641727219699021
 51
266.5334923889502079
  0
LINE
  5
1E5A
  8
0
 10
1.438516125620207
 20
-1.4635777386202551
 30
0.0
 11
1.5263865333209521
 21
-1.4664792150468351
 31
0.0
  0
ARC
  5
1E5B
  8
0
 10
1.52673994044272
 20
-1.4582505451482921
 30
0.0
 40
0.0082362555140626
 50
267.5407568201774211
 51
348.972170786837296
  0
LINE
  5
1E5C
  8
0
 10
1.5348241084709531
 20
-1.459826023546835
 30
0.0
 11
1.5426226433883301
 21
-1.414951429746836
 31
0.0
  0
LINE
  5
1E5D
  8
0
 10
1.589794744943805
 20
-1.414951429746836
 30
0.0
 11
1.5951643811751799
 21
-1.45726504368016
 31
0.0
  0
ARC
  5
1E5E
  8
0
 10
1.6029757689427411
 20
-1.456273771442339
 30
0.0
 40
0.0078740332425429
 50
187.2322298157401121
 51
268.8879559996004218
  0
LINE
  5
1E5F
  8
0
 10
1.602822952770953
 20
-1.4641463216468349
 30
0.0
 11
1.6950721817709491
 21
-1.4657565379468349
 31
0.0
  0
ARC
  5
1E60
  8
0
 10
1.6949729053039519
 20
-1.457618607552994
 30
0.0
 40
0.0081380944204577
 50
270.5906904192261777
 51
352.3584504961467019
  0
LINE
  5
1E61
  8
0
 10
1.7030387283231609
 20
-1.4587007719670559
 30
0.0
 11
1.710149833187649
 21
-1.414951429744093
 31
0.0
  0
LINE
  5
1E62
  8
0
 10
1.7345390731951471
 20
-1.414951429746836
 30
0.0
 11
1.7401070393341731
 21
-1.457297402558231
 31
0.0
  0
ARC
  5
1E63
  8
0
 10
1.747900593520995
 20
-1.456301555321954
 30
0.0
 40
0.0078569204260262
 50
187.2816991979576926
 51
269.9580975207052234
  0
LINE
  5
1E64
  8
0
 10
1.7478948474709559
 20
-1.4641584736468329
 30
0.0
 11
1.83978830727095
 21
-1.4657304053968341
 31
0.0
  0
ARC
  5
1E65
  8
0
 10
1.8401064512250289
 20
-1.4578279107196861
 30
0.0
 40
0.0079088961112081
 50
267.6945928787617959
 51
350.6352224988514763
  0
LINE
  5
1E66
  8
0
 10
1.847909940570946
 20
-1.4591148418468349
 30
0.0
 11
1.8550614656871429
 21
-1.414951429746836
 31
0.0
  0
LINE
  5
1E67
  8
0
 10
2.1595705901126472
 20
-1.414951429746836
 30
0.0
 11
2.1650573808709508
 21
-1.457391656346835
 31
0.0
  0
ARC
  5
1E68
  8
0
 10
2.172936630024235
 20
-1.4563730050600701
 30
0.0
 40
0.0079448233248813
 50
187.3664980634270876
 51
270.0056124913465965
  0
LINE
  5
1E69
  8
0
 10
2.1729374082709501
 20
-1.464317828346835
 30
0.0
 11
2.245827897322108
 21
-1.4650337419574571
 31
0.0
  0
LINE
  5
1E6A
  8
0
 10
2.233563051616489
 20
-1.414951429746836
 30
0.0
 11
2.2384969876709522
 21
-1.456868625546835
 31
0.0
  0
ARC
  5
1E6B
  8
0
 10
2.248768125839514
 20
-1.455020384319994
 30
0.0
 40
0.0104361043934185
 50
190.2009281788180886
 51
253.6361453836613009
  0
LINE
  5
1E6C
  8
0
 10
2.2458278973221111
 20
-1.4650337419574579
 30
0.0
 11
2.338884577021914
 21
-1.4650337419574579
 31
0.0
  0
ARC
  5
1E6D
  8
0
 10
2.338884577021914
 20
-1.457339977346455
 30
0.0
 40
0.0076937646110036
 50
270.0
 51
343.4653038319448797
  0
LINE
  5
1E6E
  8
0
 10
2.3462601857709511
 20
-1.459529591346836
 30
0.0
 11
2.3537537768877641
 21
-1.414951429746836
 31
0.0
  0
LINE
  5
1E6F
  8
0
 10
2.440992266782501
 20
-1.414951429746836
 30
0.0
 11
2.4473260457969661
 21
-1.4582179345468349
 31
0.0
  0
ARC
  5
1E70
  8
0
 10
2.4551506851331899
 20
-1.4570724864305009
 30
0.0
 40
0.0079080359210869
 50
188.3283669516827104
 51
274.9161723803866266
  0
LINE
  5
1E71
  8
0
 10
2.4558283891772952
 20
-1.464951429846836
 30
0.0
 11
2.5473726407648911
 21
-1.4649514297468349
 31
0.0
  0
ARC
  5
1E72
  8
0
 10
2.5473726407709552
 20
-1.4570774140468461
 30
0.0
 40
0.007874015699989
 50
269.9999999999739089
 51
351.6716331208468205
  0
LINE
  5
1E73
  8
0
 10
2.5551636186580629
 20
-1.4582179344571631
 30
0.0
 11
2.5591977575709519
 21
-1.4306604385468349
 31
0.0
  0
LINE
  5
1E74
  8
0
 10
2.556898117495666
 20
-1.414951429746836
 30
0.0
 11
2.5632318964588019
 21
-1.458217934463842
 31
0.0
  0
ARC
  5
1E75
  8
0
 10
2.571022874337813
 20
-1.4570774140516869
 30
0.0
 40
0.0078740156922494
 50
188.328366900904399
 51
264.9498725584746239
  0
LINE
  5
1E76
  8
0
 10
2.5703297462406409
 20
-1.464920863328804
 30
0.0
 11
2.6622511662268131
 21
-1.4649514298468349
 31
0.0
  0
ARC
  5
1E77
  8
0
 10
2.6631490828998028
 20
-1.4569787345153169
 30
0.0
 40
0.0080230994759411
 50
263.5741986627460278
 51
354.02145376218499
  0
LINE
  5
1E78
  8
0
 10
2.6711285444581772
 20
-1.4578143890129249
 30
0.0
 11
2.677403248446641
 21
-1.414951429744093
 31
0.0
  0
LINE
  5
1E79
  8
0
 10
2.8354295717170319
 20
-1.414951429746836
 30
0.0
 11
2.8410561436709498
 21
-1.457541748746835
 31
0.0
  0
ARC
  5
1E7A
  8
0
 10
2.848961540472835
 20
-1.4564973732884099
 30
0.0
 40
0.0079740841915175
 50
187.5257184428510868
 51
270.2892778983460857
  0
LINE
  5
1E7B
  8
0
 10
2.8490018002709512
 20
-1.4644713558468361
 30
0.0
 11
2.9392971539709509
 21
-1.4653479813468351
 31
0.0
  0
ARC
  5
1E7C
  8
0
 10
2.9410295703195639
 20
-1.4576002466436679
 30
0.0
 40
0.007939059102664
 50
257.3958272208002995
 51
350.7791644780544971
  0
LINE
  5
1E7D
  8
0
 10
2.9488660413709509
 20
-1.4588724026468349
 30
0.0
 11
2.9557753031866829
 21
-1.414951429746836
 31
0.0
  0
LINE
  5
1E7E
  8
0
 10
2.9440448477709529
 20
-1.4649514298468349
 30
0.0
 11
3.0030972515709489
 21
-1.4649514297468349
 31
0.0
  0
ARC
  5
1E7F
  8
0
 10
3.0031127907475752
 20
-1.457095393621523
 30
0.0
 40
0.0078560514934809
 50
269.8866695541615854
 51
351.7849635666341896
  0
LINE
  5
1E80
  8
0
 10
3.010888229458061
 20
-1.4582179344571631
 30
0.0
 11
3.0172220084742909
 21
-1.414951429746836
 31
0.0
  0
LINE
  5
1E81
  8
0
 10
3.2906712412432491
 20
-1.414951429746836
 30
0.0
 11
3.29596260407095
 21
-1.4572605198468349
 31
0.0
  0
ARC
  5
1E82
  8
0
 10
3.304615324122099
 20
-1.456178372224918
 30
0.0
 40
0.008720126590777
 50
187.1286518812088104
 51
269.8936436671015144
  0
LINE
  5
1E83
  8
0
 10
3.3045991372377972
 20
-1.464898483792094
 30
0.0
 11
3.3925290055709532
 21
-1.466240032846835
 31
0.0
  0
LINE
  5
1E84
  8
0
 10
3.4108432817870198
 20
-1.414951429746836
 30
0.0
 11
3.4037418875709511
 21
-1.459142387546835
 31
0.0
  0
ARC
  5
1E85
  8
0
 10
3.394482379111774
 20
-1.4569168256399441
 30
0.0
 40
0.0095108901580212
 50
258.1588686166991238
 51
347.5298251343116931
  0
ARC
  5
1E86
  8
0
 10
3.3978121225450368
 20
-1.457098159943949
 30
0.0
 40
0.0078257248981802
 50
287.1682240247066034
 51
351.7733716796051908
  0
LINE
  5
1E87
  8
0
 10
3.4055573194580608
 20
-1.4582179344571631
 30
0.0
 11
3.4118911768881399
 21
-1.414951429746836
 31
0.0
  0
LINE
  5
1E88
  8
0
 10
3.4372904599122438
 20
-1.414951429746836
 30
0.0
 11
3.442660096143622
 21
-1.45726504368016
 31
0.0
  0
ARC
  5
1E89
  8
0
 10
3.450471483911183
 20
-1.456273771442339
 30
0.0
 40
0.0078740332425429
 50
187.2322298157401121
 51
268.8879559996004218
  0
LINE
  5
1E8A
  8
0
 10
3.4503186677393911
 20
-1.4641463216468349
 30
0.0
 11
3.5425678967393921
 21
-1.4657565379468349
 31
0.0
  0
ARC
  5
1E8B
  8
0
 10
3.5424686202723938
 20
-1.457618607552994
 30
0.0
 40
0.0081380944204577
 50
270.5906904192261777
 51
352.3584504961467019
  0
LINE
  5
1E8C
  8
0
 10
3.5505344432916059
 20
-1.4587007719670559
 30
0.0
 11
3.557645548155651
 21
-1.414951429746836
 31
0.0
  0
LINE
  5
1E8D
  8
0
 10
4.1417717802793774
 20
-1.414951429746836
 30
0.0
 11
4.1470900540986007
 21
-1.456860299450796
 31
0.0
  0
ARC
  5
1E8E
  8
0
 10
4.1549014418661621
 20
-1.455869027212974
 30
0.0
 40
0.0078740332425429
 50
187.2322298157401121
 51
268.8879559996004218
  0
LINE
  5
1E8F
  8
0
 10
4.1547486256943698
 20
-1.46374157741747
 30
0.0
 11
4.2469978546943699
 21
-1.46535179371747
 31
0.0
  0
ARC
  5
1E90
  8
0
 10
4.2468985782273734
 20
-1.45721386332363
 30
0.0
 40
0.0081380944204577
 50
270.5906904192261777
 51
352.3584504961467019
  0
LINE
  5
1E91
  8
0
 10
4.2549644012465846
 20
-1.4582960277376911
 30
0.0
 11
4.262009718180753
 21
-1.414951429746836
 31
0.0
  0
LINE
  5
1E92
  8
0
 10
3.6331794255676071
 20
-1.414951429746836
 30
0.0
 11
3.6395132045709531
 21
-1.4582179345468349
 31
0.0
  0
ARC
  5
1E93
  8
0
 10
3.6473041823482251
 20
-1.457077414144522
 30
0.0
 40
0.0078740155901577
 50
188.3283669372729037
 51
264.0706362673943772
  0
LINE
  5
1E94
  8
0
 10
3.646490778409361
 20
-1.46490930379813
 30
0.0
 11
3.7332544681494251
 21
-1.4646904633137161
 31
0.0
  0
LINE
  5
1E95
  8
0
 10
3.716225435910661
 20
-1.414951429746836
 30
0.0
 11
3.7220401679008068
 21
-1.4577361247697249
 31
0.0
  0
ARC
  5
1E96
  8
0
 10
3.7301217784016312
 20
-1.456481081919639
 30
0.0
 40
0.0081832593354283
 50
188.8296890846465885
 51
270.6561535903896925
  0
LINE
  5
1E97
  8
0
 10
3.7302154913709522
 20
-1.4646638046468401
 30
0.0
 11
3.8216972337709509
 21
-1.4654663054468351
 31
0.0
  0
LINE
  5
1E98
  8
0
 10
3.83656648858631
 20
-1.4149514297468351
 30
0.0
 11
3.829858154689592
 21
-1.4586212598468351
 31
0.0
  0
ARC
  5
1E99
  8
0
 10
3.8219431183446479
 20
-1.457412424861932
 30
0.0
 40
0.0080068147451089
 50
268.1539259324036948
 51
351.3165221832122143
  0
LINE
  5
1E9A
  8
0
 10
4.3696419736691317
 20
-1.414951429746836
 30
0.0
 11
4.3754828948777726
 21
-1.4548511868934351
 31
0.0
  0
ARC
  5
1E9B
  8
0
 10
4.387169361749808
 20
-1.45314040624993
 30
0.0
 40
0.0118110235949884
 50
188.3283669845899908
 51
264.7611289257113754
  0
LINE
  5
1E9C
  8
0
 10
4.3860909184997778
 20
-1.4649020914403179
 30
0.0
 11
4.472618462770952
 21
-1.4649514298468349
 31
0.0
  0
ARC
  5
1E9D
  8
0
 10
4.4725704222449059
 20
-1.4530142981742751
 30
0.0
 40
0.0119372334524632
 50
270.2366012924651955
 51
357.3786978378685717
  0
LINE
  5
1E9E
  8
0
 10
4.4844951649954217
 20
-1.45356024032561
 30
0.0
 11
4.4901471046855903
 21
-1.414951429746836
 31
0.0
  0
LINE
  5
1E9F
  8
0
 10
4.5216957618011833
 20
-1.414951429746836
 30
0.0
 11
4.5274109242709493
 21
-1.4577160549468351
 31
0.0
  0
ARC
  5
1EA0
  8
0
 10
4.535456921906337
 20
-1.456640769392419
 30
0.0
 40
0.0081175314580366
 50
187.6120354090386115
 51
264.5752563587176951
  0
LINE
  5
1EA1
  8
0
 10
4.5346895047209506
 20
-1.4647219442968351
 30
0.0
 11
4.6247589052893474
 21
-1.4658933398836831
 31
0.0
  0
ARC
  5
1EA2
  8
0
 10
4.6260935687094431
 20
-1.4566565658399679
 30
0.0
 40
0.0093327017084865
 50
261.7779791472851798
 51
347.4134857239262146
  0
LINE
  5
1EA3
  8
0
 10
4.6352019876709418
 20
-1.458690287846883
 30
0.0
 11
4.6418541223861602
 21
-1.4149514297468351
 31
0.0
  0
LINE
  5
1EA4
  8
0
 10
4.6303707818543742
 20
-1.4649514298468349
 30
0.0
 11
4.6733568927709497
 21
-1.4649514297468349
 31
0.0
  0
ARC
  5
1EA5
  8
0
 10
4.6733568927526319
 20
-1.4570774140256411
 30
0.0
 40
0.0078740157211938
 50
270.0000001332865054
 51
351.6716323280547272
  0
LINE
  5
1EA6
  8
0
 10
4.6811478706449341
 20
-1.4582179345468349
 30
0.0
 11
4.6874816502149548
 21
-1.4149514297468351
 31
0.0
  0
LINE
  5
1EA7
  8
0
 10
4.7419329324317188
 20
-1.414951429746836
 30
0.0
 11
4.7479585629709504
 21
-1.457964562346834
 31
0.0
  0
ARC
  5
1EA8
  8
0
 10
4.7559337375119766
 20
-1.4568473348312989
 30
0.0
 40
0.0080530495019784
 50
187.9745643482719117
 51
272.215719226176418
  0
LINE
  5
1EA9
  8
0
 10
4.7562450841709492
 20
-1.4648943634468341
 30
0.0
 11
4.8468035899709534
 21
-1.465345787546835
 31
0.0
  0
ARC
  5
1EAA
  8
0
 10
4.8476488297973317
 20
-1.4571608469551589
 30
0.0
 40
0.0082284678314591
 50
264.1040968918244971
 51
352.0407649634752261
  0
LINE
  5
1EAB
  8
0
 10
4.8557980314599289
 20
-1.4583002306112069
 30
0.0
 11
4.8622705599858866
 21
-1.414951429746836
 31
0.0
  0
LINE
  5
1EAC
  8
0
 10
4.9621747274965307
 20
-1.414951429746836
 30
0.0
 11
4.9685085064969661
 21
-1.4582179345468349
 31
0.0
  0
ARC
  5
1EAD
  8
0
 10
4.9762994842839454
 20
-1.457077414143624
 30
0.0
 40
0.0078740155998914
 50
188.3283669334975059
 51
267.7638800818647269
  0
LINE
  5
1EAE
  8
0
 10
4.9759922579255607
 20
-1.4649454338202661
 30
0.0
 11
5.0684846168009967
 21
-1.4649514298468349
 31
0.0
  0
ARC
  5
1EAF
  8
0
 10
5.068396477698367
 20
-1.4568925871864951
 30
0.0
 40
0.008059324632097
 50
270.6266156895327981
 51
352.8084799364435753
  0
LINE
  5
1EB0
  8
0
 10
5.0763924015587882
 20
-1.457901504994825
 30
0.0
 11
5.082679858420855
 21
-1.414951429746836
 31
0.0
  0
LINE
  5
1EB1
  8
0
 10
5.1068375789544191
 20
-1.454851186846835
 30
0.0
 11
5.1127689216233021
 21
-1.4149514297468351
 31
0.0
  0
LINE
  5
1EB2
  8
0
 10
5.095281312516323
 20
-1.4649507121837599
 30
0.0
 11
5.0685263954503901
 21
-1.4649508646018761
 31
0.0
  0
ARC
  5
1EB3
  8
0
 10
5.0950111949873502
 20
-1.452980307804532
 30
0.0
 40
0.0119734516527902
 50
271.2926855103494859
 51
352.3326623268891922
  0
LINE
  5
1EB4
  8
0
 10
5.1094111274526126
 20
-1.437539093161587
 30
0.0
 11
5.112438300796966
 21
-1.4582179345468349
 31
0.0
  0
ARC
  5
1EB5
  8
0
 10
5.1202292785658399
 20
-1.4570774141574669
 30
0.0
 40
0.0078740155799725
 50
188.3283668529130921
 51
264.6033112863460133
  0
LINE
  5
1EB6
  8
0
 10
5.119488721284017
 20
-1.4649165273895861
 30
0.0
 11
5.2119871332864376
 21
-1.4649514298468349
 31
0.0
  0
ARC
  5
1EB7
  8
0
 10
5.2122744509147232
 20
-1.456836760575007
 30
0.0
 40
0.0081197542333908
 50
267.9721646363146874
 51
353.1369187405227876
  0
LINE
  5
1EB8
  8
0
 10
5.2266096527742958
 20
-1.414951429746836
 30
0.0
 11
5.2203360234261851
 21
-1.4578070478794181
 31
0.0
  0
LINE
  5
1EB9
  8
0
 10
5.5378753504855922
 20
-1.414951429746836
 30
0.0
 11
5.5315415714449383
 21
-1.4582179345468349
 31
0.0
  0
ARC
  5
1EBA
  8
0
 10
5.523750593654408
 20
-1.457077414135862
 30
0.0
 40
0.00787401560453
 50
274.627949917127296
 51
351.6716330143601112
  0
LINE
  5
1EBB
  8
0
 10
5.5243859098753134
 20
-1.464925757594187
 30
0.0
 11
5.4313775938536066
 21
-1.4649514298468349
 31
0.0
  0
ARC
  5
1EBC
  8
0
 10
5.4314949769810328
 20
-1.4570774134566471
 30
0.0
 40
0.0078740162901876
 50
188.328358302172802
 51
269.9999962883707099
  0
LINE
  5
1EBD
  8
0
 10
5.4237039983392243
 20
-1.4582179327861731
 30
0.0
 11
5.4173702262540919
 21
-1.414951429746836
 31
0.0
  0
ENDSEC
  0
EOF
