  0
SECTION
  2
HEADER
  9
$ACADVER
  1
AC1009
  9
$INSBASE
 10
3550.2451500491501974
 20
159.758476647640407
 30
0.0
  9
$EXTMIN
 10
3528.9749005076660069
 20
140.8989973612823121
 30
-0.0015258207003583
  9
$EXTMAX
 10
3571.4808479839712163
 20
160.9790017127768067
 30
0.0000000349246037
  9
$LIMMIN
 10
0.0
 20
0.0
  9
$LIMMAX
 10
11.6929133858000007
 20
8.2677165353999982
  9
$ORTHOMODE
 70
     0
  9
$REGENMODE
 70
     1
  9
$FILLMODE
 70
     1
  9
$QTEXTMODE
 70
     0
  9
$MIRRTEXT
 70
     0
  9
$DRAGMODE
 70
     2
  9
$LTSCALE
 40
0.6431102362
  9
$OSMODE
 70
  3839
  9
$ATTMODE
 70
     1
  9
$TEXTSIZE
 40
0.2
  9
$TRACEWID
 40
0.05
  9
$TEXTSTYLE
  7
STANDARD
  9
$CLAYER
  8
0
  9
$CELTYPE
  6
BYLAYER
  9
$CECOLOR
 62
   256
  9
$DIMSCALE
 40
1.0
  9
$DIMASZ
 40
0.1875
  9
$DIMEXO
 40
0.0625
  9
$DIMDLI
 40
0.4443307087
  9
$DIMRND
 40
0.0
  9
$DIMDLE
 40
0.0
  9
$DIMEXE
 40
0.125
  9
$DIMTP
 40
0.01
  9
$DIMTM
 40
0.01
  9
$DIMTXT
 40
2.0
  9
$DIMCEN
 40
0.1052362205
  9
$DIMTSZ
 40
0.0
  9
$DIMTOL
 70
     1
  9
$DIMLIM
 70
     0
  9
$DIMTIH
 70
     1
  9
$DIMTOH
 70
     1
  9
$DIMSE1
 70
     0
  9
$DIMSE2
 70
     0
  9
$DIMTAD
 70
     0
  9
$DIMZIN
 70
     0
  9
$DIMBLK
  1

  9
$DIMASO
 70
     1
  9
$DIMSHO
 70
     1
  9
$DIMPOST
  1
\X
  9
$DIMAPOST
  1

  9
$DIMALT
 70
     1
  9
$DIMALTD
 70
     2
  9
$DIMALTF
 40
25.3999999999999986
  9
$DIMLFAC
 40
1.0
  9
$DIMTOFL
 70
     0
  9
$DIMTVP
 40
0.0
  9
$DIMTIX
 70
     0
  9
$DIMSOXD
 70
     0
  9
$DIMSAH
 70
     0
  9
$DIMBLK1
  1

  9
$DIMBLK2
  1

  9
$DIMSTYLE
  2
STANDARD
  9
$DIMCLRD
 70
     0
  9
$DIMCLRE
 70
     0
  9
$DIMCLRT
 70
     0
  9
$DIMTFAC
 40
1.0
  9
$DIMGAP
 40
0.09
  9
$LUNITS
 70
     2
  9
$LUPREC
 70
     4
  9
$SKETCHINC
 40
0.1
  9
$FILLETRAD
 40
0.0
  9
$AUNITS
 70
     0
  9
$AUPREC
 70
     0
  9
$MENU
  1
.
  9
$ELEVATION
 40
0.0
  9
$PELEVATION
 40
0.0
  9
$THICKNESS
 40
0.0
  9
$LIMCHECK
 70
     0
  9
$BLIPMODE
 70
     0
  9
$CHAMFERA
 40
0.0
  9
$CHAMFERB
 40
0.0
  9
$SKPOLY
 70
     0
  9
$TDCREATE
 40
2458060.468368056230247
  9
$TDUPDATE
 40
2459212.983564815018326
  9
$TDINDWG
 40
0.5852616898
  9
$TDUSRTIMER
 40
0.5852616898
  9
$USRTIMER
 70
     1
  9
$ANGBASE
 50
0.0
  9
$ANGDIR
 70
     0
  9
$PDMODE
 70
     0
  9
$PDSIZE
 40
0.3125
  9
$PLINEWID
 40
0.0
  9
$COORDS
 70
     1
  9
$SPLFRAME
 70
     0
  9
$SPLINETYPE
 70
     6
  9
$SPLINESEGS
 70
     8
  9
$ATTDIA
 70
     1
  9
$ATTREQ
 70
     1
  9
$HANDLING
 70
     1
  9
$HANDSEED
  5
13E53
  9
$SURFTAB1
 70
     6
  9
$SURFTAB2
 70
     6
  9
$SURFTYPE
 70
     6
  9
$SURFU
 70
     6
  9
$SURFV
 70
     6
  9
$UCSNAME
  2

  9
$UCSORG
 10
0.0
 20
0.0
 30
0.0
  9
$UCSXDIR
 10
1.0
 20
0.0
 30
0.0
  9
$UCSYDIR
 10
0.0
 20
1.0
 30
0.0
  9
$PUCSNAME
  2

  9
$PUCSORG
 10
0.0
 20
0.0
 30
0.0
  9
$PUCSXDIR
 10
1.0
 20
0.0
 30
0.0
  9
$PUCSYDIR
 10
0.0
 20
1.0
 30
0.0
  9
$USERI1
 70
     0
  9
$USERI2
 70
     0
  9
$USERI3
 70
     0
  9
$USERI4
 70
     0
  9
$USERI5
 70
     0
  9
$USERR1
 40
0.0
  9
$USERR2
 40
0.0
  9
$USERR3
 40
0.0
  9
$USERR4
 40
0.0
  9
$USERR5
 40
0.0
  9
$WORLDVIEW
 70
     1
  9
$SHADEDGE
 70
     3
  9
$SHADEDIF
 70
    70
  9
$TILEMODE
 70
     1
  9
$MAXACTVP
 70
    64
  9
$PLIMCHECK
 70
     0
  9
$PEXTMIN
 10
1.0000000000000000E+20
 20
1.0000000000000000E+20
 30
1.0000000000000000E+20
  9
$PEXTMAX
 10
-1.0000000000000000E+20
 20
-1.0000000000000000E+20
 30
-1.0000000000000000E+20
  9
$PLIMMIN
 10
0.0
 20
0.0
  9
$PLIMMAX
 10
12.0
 20
9.0
  9
$UNITMODE
 70
     0
  9
$VISRETAIN
 70
     1
  9
$PLINEGEN
 70
     0
  9
$PSLTSCALE
 70
     1
  0
ENDSEC
  0
SECTION
  2
TABLES
  0
TABLE
  2
VPORT
 70
     1
  0
VPORT
  2
*ACTIVE
 70
     0
 10
0.0
 20
0.0
 11
1.0
 21
1.0
 12
-0.0113922815876322
 22
-8.8163242598317861
 13
0.0
 23
0.0
 14
1.0
 24
1.0
 15
0.0
 25
0.0
 16
0.0
 26
0.0
 36
0.0358426669211835
 17
3550.2392665274060164
 27
159.7553237968612905
 37
0.0
 40
20.2788162757667187
 41
2.9735537190082639
 42
50.0
 43
0.0
 44
0.0
 50
0.0
 51
0.0
 71
     0
 72
   100
 73
     1
 74
     1
 75
     0
 76
     0
 77
     0
 78
     0
  0
ENDTAB
  0
TABLE
  2
LTYPE
 70
     2
  0
LTYPE
  2
CONTINUOUS
 70
     0
  3
Solid line
 72
    65
 73
     0
 40
0.0
  0
LTYPE
  2
PHANTOM2
 70
     0
  3
___ _ _ ___ _ _ ___ _ _ ___ _ _
 72
    65
 73
     6
 40
1.25
 49
0.625
 49
-0.125
 49
0.125
 49
-0.125
 49
0.125
 49
-0.125
  0
ENDTAB
  0
TABLE
  2
LAYER
 70
     2
  0
LAYER
  2
0
 70
     0
 62
   255
  6
CONTINUOUS
  0
LAYER
  2
DEFPOINTS
 70
     0
 62
     7
  6
CONTINUOUS
  0
ENDTAB
  0
TABLE
  2
STYLE
 70
     1
  0
STYLE
  2
STANDARD
 70
     0
 40
0.0
 41
0.8
 50
0.0
 71
     0
 42
0.2
  3
txt
  4

  0
ENDTAB
  0
TABLE
  2
VIEW
 70
     0
  0
ENDTAB
  0
TABLE
  2
UCS
 70
     0
  0
ENDTAB
  0
TABLE
  2
APPID
 70
     9
  0
APPID
  2
ACAD
 70
     0
  0
APPID
  2
ACAD_MLEADERVER
 70
     0
  0
APPID
  2
ACAD_EXEMPT_FROM_CAD_STANDARDS
 70
     0
  0
APPID
  2
ACAD_NAV_VCDISPLAY
 70
     0
  0
APPID
  2
ACAECLAYERSTANDARD
 70
     0
  0
APPID
  2
ACCMTRANSPARENCY
 70
     0
  0
APPID
  2
ACAD_DSTYLE_DIMJAG
 70
     0
  0
APPID
  2
ACAD_DSTYLE_DIMTALN
 70
     0
  0
APPID
  2
ACDBATTR
 70
     0
  0
ENDTAB
  0
TABLE
  2
DIMSTYLE
 70
     1
  0
DIMSTYLE
  2
STANDARD
 70
     0
  3

  4

  5

  6

  7

 40
1.0
 41
0.1875
 42
0.0625
 43
0.38
 44
0.125
 45
0.0
 46
0.0
 47
0.01
 48
0.01
140
0.15625
141
0.09
142
0.0
143
25.3999999999999986
144
1.0
145
0.0
146
1.0
147
0.09
 71
     1
 72
     0
 73
     1
 74
     1
 75
     0
 76
     0
 77
     0
 78
     4
170
     0
171
     2
172
     0
173
     0
174
     0
175
     0
176
     0
177
     0
178
     0
  0
ENDTAB
  0
ENDSEC
  0
SECTION
  2
BLOCKS
  0
BLOCK
  8
0
  2
$MODEL_SPACE
 70
     0
 10
0.0
 20
0.0
 30
0.0
  3
$MODEL_SPACE
  1

  0
ENDBLK
  5
21
  8
0
  0
BLOCK
 67
     1
  8
0
  2
$PAPER_SPACE
 70
     0
 10
0.0
 20
0.0
 30
0.0
  3
$PAPER_SPACE
  1

  0
ENDBLK
  5
1D
 67
     1
  8
0
  0
BLOCK
  8
0
  2
_FILLED
 70
     0
 10
0.0
 20
0.0
 30
0.0
  3
_FILLED
  1

  0
SOLID
  5
13356
  8
0
  6
BYBLOCK
 62
     0
 10
0.0
 20
0.0
 30
0.0
 11
-1.0
 21
0.1666666667
 31
0.0
 12
-1.0
 22
-0.1666666667
 32
0.0
 13
-1.0
 23
-0.1666666667
 33
0.0
  0
ENDBLK
  5
13357
  8
0
  6
BYBLOCK
 62
     0
  0
ENDSEC
  0
SECTION
  2
ENTITIES
  0
ATTDEF
  5
12BEB
  8
DEFPOINTS
 10
3550.2339331939137992
 20
159.7564904635279959
 30
0.0
 40
0.001
  1
K-1337T-NW2
  3

  2
MODELNUMBER
 70
     0
1001
ACDBATTR
1070
     0
1070
     1
  0
ATTDEF
  5
12BEC
  8
DEFPOINTS
 10
3550.2339331939137992
 20
159.7548237968613876
 30
0.0
 40
0.001
  1
SERIF
  3

  2
TRADENAME
 70
     0
1001
ACDBATTR
1070
     0
1070
     1
  0
ATTDEF
  5
12BED
  8
DEFPOINTS
 10
3550.2339331939137992
 20
159.753157130194694
 30
0.0
 40
0.001
  1
BATH
  3

  2
PRODUCT
 70
     0
1001
ACDBATTR
1070
     0
1070
     1
  0
LINE
  5
13B76
  8
0
 10
3529.1184500491499421
 20
159.758476647640407
 30
0.0
 11
3571.3718500491490886
 21
159.758476647640407
 31
0.0
  0
LINE
  5
13B78
  8
0
 10
3533.0896937205689028
 20
154.6955321599947126
 30
0.0
 11
3567.4006063777301279
 21
154.6955321599947126
 31
0.0
  0
ARC
  5
13B79
  8
0
 10
3532.1099831362980694
 20
159.5189398634429949
 30
0.0
 40
3.0011078092080492
 50
163.3300145947285955
 51
175.4220035498071013
  0
ARC
  5
13B7A
  8
0
 10
3530.6946986355951594
 20
159.9482755863731995
 30
0.0
 40
1.522154163048919
 50
144.4873480992388011
 51
163.5297124994789897
  0
ARC
  5
13B7B
  8
0
 10
3529.7368930085772263
 20
160.6240875158628967
 30
0.0
 40
0.3500012827801596
 50
89.5637727220976956
 51
143.4608146450042909
  0
ARC
  5
13B7C
  8
0
 10
3550.2451500491388288
 20
-171013.3337130970030557
 30
0.0
 40
171174.3090199712023605
 50
89.9931363304218763
 51
90.0068636695781237
  0
ARC
  5
13B7D
  8
0
 10
3536.9027517223639734
 20
149.8503051998254989
 30
0.0
 40
0.0601878482893266
 50
45.0211336369881892
 51
156.3163975599703974
  0
ARC
  5
13B7E
  8
0
 10
3536.5556731788128673
 20
149.5416115988734873
 30
0.0
 40
0.5245902642047146
 50
19.9398960482348109
 51
42.0366252279824195
  0
ARC
  5
13B7F
  8
0
 10
3533.3724851160009166
 20
148.3735021342615141
 30
0.0
 40
3.9153342840884391
 50
2.8980182717850269
 51
20.1229099802392994
  0
ARC
  5
13B80
  8
0
 10
3536.0623997355378378
 20
148.4409456058972978
 30
0.0
 40
1.2273708051673831
 50
343.2988681433291163
 51
6.1039498684822551
  0
ARC
  5
13B81
  8
0
 10
3537.1831253757750346
 20
148.1161144416275022
 30
0.0
 40
0.0615520162616386
 50
215.814458545510405
 51
333.0564620184389923
  0
ARC
  5
13B82
  8
0
 10
3537.971614370838779
 20
148.6775526561578999
 30
0.0
 40
1.0295011515894521
 50
195.0811697784301089
 51
215.4741481711492099
  0
ARC
  5
13B83
  8
0
 10
3540.6351469685309894
 20
149.5369903652116079
 30
0.0
 40
3.827357856770226
 50
189.5823839300178122
 51
197.1298107633105019
  0
ARC
  5
13B84
  8
0
 10
3540.1144445433201327
 20
149.5191644183013011
 30
0.0
 40
3.3116742698154451
 50
176.6190780035765044
 51
190.7780115807821062
  0
ARC
  5
13B85
  8
0
 10
3537.3063748265758477
 20
149.677606179668004
 30
0.0
 40
0.499203401580898
 50
156.772715498837897
 51
175.7654624942204009
  0
ARC
  5
13B86
  8
0
 10
3537.4182132992268635
 20
149.6993990917744952
 30
0.0
 40
0.5128894973047383
 50
157.6637990415520107
 51
171.9268214464700009
  0
ARC
  5
13B87
  8
0
 10
3538.4634645643191107
 20
149.5608176392501036
 30
0.0
 40
1.567273185798397
 50
172.277217770839286
 51
181.6221555813002908
  0
ARC
  5
13B88
  8
0
 10
3541.1604937622892066
 20
149.6444772738639131
 30
0.0
 40
4.2655959919782296
 50
181.7199160592552118
 51
194.5015151223163912
  0
ARC
  5
13B89
  8
0
 10
3539.2749260411519572
 20
149.1397073003815876
 30
0.0
 40
2.3137623665518241
 50
194.0921343495450913
 51
202.6200257369133908
  0
ARC
  5
13B8A
  8
0
 10
3537.7242723329300134
 20
148.4881609197844909
 30
0.0
 40
0.6318148597661107
 50
202.1650175808271115
 51
219.5181874361084056
  0
ARC
  5
13B8B
  8
0
 10
3546.1217738824311709
 20
148.7583198653055092
 30
0.0
 40
0.8732056940957575
 50
55.869814807987332
 51
133.2126223723560088
  0
ARC
  5
13B8C
  8
0
 10
3546.0272734597961062
 20
148.6189015951061947
 30
0.0
 40
1.0416330788751651
 50
14.9780189513070905
 51
55.869814807987332
  0
ARC
  5
13B8D
  8
0
 10
3546.1505700838238226
 20
148.6518881333186926
 30
0.0
 40
0.9140001317172529
 50
331.0945411932722209
 51
14.9780189513070905
  0
ARC
  5
13B8E
  8
0
 10
3546.1835639042287767
 20
148.6336704643300948
 30
0.0
 40
0.8763109336854956
 50
299.0246437897225746
 51
331.0945411932722209
  0
ARC
  5
13B8F
  8
0
 10
3546.1936355613138403
 20
148.6505671337806973
 30
0.0
 40
0.8863620772852181
 50
236.3001560198013919
 51
297.9253609704715018
  0
ARC
  5
13B90
  8
0
 10
3546.2432911725632039
 20
148.7448128197414974
 30
0.0
 40
0.9923820804758683
 50
196.4407753479262055
 51
236.9341182891083974
  0
ARC
  5
13B91
  8
0
 10
3546.2007114583971088
 20
148.7384526869579986
 30
0.0
 40
0.9497619048198842
 50
156.3257275346298911
 51
196.7997805153601121
  0
ARC
  5
13B92
  8
0
 10
3546.1279786342302032
 20
148.7654090955759045
 30
0.0
 40
0.8723377687599784
 50
133.8284688194628984
 51
156.0290429872553943
  0
ARC
  5
13B93
  8
0
 10
3546.1451663995071613
 20
148.7898087092841024
 30
0.0
 40
0.8575931115217418
 50
121.1351762431342962
 51
146.5558671785983904
  0
ARC
  5
13B94
  8
0
 10
3546.1784466807889658
 20
148.7678276083358071
 30
0.0
 40
0.8974772677883821
 50
146.5558671785983904
 51
169.2343461729182081
  0
ARC
  5
13B95
  8
0
 10
3546.2508485859329994
 20
148.7540611820896004
 30
0.0
 40
0.9711763204292244
 50
169.2343461729182081
 51
209.0295335355276904
  0
ARC
  5
13B96
  8
0
 10
3546.2880177162492146
 20
148.7746894205212129
 30
0.0
 40
1.013685948387993
 50
209.0295335355276904
 51
237.195875021298292
  0
ARC
  5
13B97
  8
0
 10
3546.2260751193111901
 20
148.6785885198605115
 30
0.0
 40
0.8993519271029811
 50
237.195875021298292
 51
261.6930794674200911
  0
ARC
  5
13B98
  8
0
 10
3546.2270977133998713
 20
148.6855922252559878
 30
0.0
 40
0.9064298920604571
 50
261.6930794674200911
 51
290.4320777988338023
  0
ARC
  5
13B99
  8
0
 10
3511.8678259274238371
 20
148.675761536029114
 30
0.0
 40
21.7106982235460393
 50
16.8654040503213487
 51
30.6953100428580683
  0
ARC
  5
13B9A
  8
0
 10
3532.9543251126160612
 20
155.0440989819987863
 30
0.0
 40
0.3173134697224402
 50
192.6581542978167079
 51
259.385651169636219
  0
ARC
  5
13B9B
  8
0
 10
3533.2071138537689876
 20
156.4640265341307952
 30
0.0
 40
1.7595566979865109
 50
259.8116971759267813
 51
264.7869826551146843
  0
ARC
  5
13B9C
  8
0
 10
3533.036816735092998
 20
154.6207790172811087
 30
0.0
 40
0.0915642284881049
 50
34.2654235226287369
 51
83.4619111105682094
  0
ARC
  5
13B9D
  8
0
 10
3532.7978841608191942
 20
154.4893136847948085
 30
0.0
 40
0.3639669252275923
 50
17.597550222377869
 51
30.1883218415039885
  0
ARC
  5
13B9E
  8
0
 10
3170.2912031564392237
 20
24.137674642017231
 30
0.0
 40
385.5943405575408178
 50
19.7543821913325495
 51
19.7757208141854406
  0
ARC
  5
13B9F
  8
0
 10
3533.6740405359319084
 20
154.5868262528504999
 30
0.0
 40
0.4960536435773407
 50
194.3114834533348869
 51
259.4142427562371154
  0
ARC
  5
13BA0
  8
0
 10
3533.5208538359352133
 20
153.6044624929112956
 30
0.0
 40
0.4986293053379319
 50
14.7986614247551493
 51
82.8505701317832433
  0
ARC
  5
13BA1
  8
0
 10
3488.9363468281471796
 20
141.6955529283405042
 30
0.0
 40
46.646221035834472
 50
2.7196077904388658
 51
14.9533877800091606
  0
ARC
  5
13BA2
  8
0
 10
3537.7640461781520571
 20
144.1214614053500895
 30
0.0
 40
2.244111766713909
 50
185.4368163750937128
 51
266.9627912458387868
  0
LINE
  5
13BA3
  8
0
 10
3537.6451431045998106
 20
141.4051093391404095
 30
0.0
 11
3537.6451431045998106
 21
142.0863078864404088
 31
0.0
  0
LINE
  5
13BA4
  8
0
 10
3537.6451431045998106
 20
142.0863078864404088
 30
0.0
 11
3542.6451431045998106
 21
142.0080111532404032
 31
0.0
  0
LINE
  5
13BA5
  8
0
 10
3542.6451431045998106
 20
142.0080111532404032
 30
0.0
 11
3542.6451431045998106
 21
141.2692838040404126
 31
0.0
  0
LINE
  5
13BA6
  8
0
 10
3542.6451431045998106
 20
141.2692838040404126
 30
0.0
 11
3537.6451431045998106
 21
141.4051093391404095
 31
0.0
  0
LINE
  5
13BA7
  8
0
 10
3542.695143104599083
 20
141.1477178897403917
 30
0.0
 11
3542.7051708564968067
 21
142.5522758667997039
 31
0.0
  0
LINE
  5
13BA8
  8
0
 10
3542.7051708564968067
 20
142.5522758667997039
 30
0.0
 11
3547.6951430907311078
 21
142.5282915022856116
 31
0.0
  0
LINE
  5
13BA9
  8
0
 10
3547.6951430907311078
 20
142.5282915022856116
 30
0.0
 11
3547.695143104599083
 21
140.973114042240411
 31
0.0
  0
LINE
  5
13BAA
  8
0
 10
3547.695143104599083
 20
140.973114042240411
 30
0.0
 11
3542.695143104599083
 21
141.1477178897403917
 31
0.0
  0
LINE
  5
13BAB
  8
0
 10
3547.7451431045988102
 20
141.0075296446404138
 30
0.0
 11
3547.7451431038111878
 21
142.5961217397421024
 31
0.0
  0
LINE
  5
13BAC
  8
0
 10
3547.7451431038111878
 20
142.5961217397421024
 30
0.0
 11
3552.7451431046001744
 21
142.5961217397421024
 31
0.0
  0
LINE
  5
13BAD
  8
0
 10
3552.7451431046001744
 20
142.5961217397421024
 30
0.0
 11
3552.7451431046001744
 21
141.0075296446404138
 31
0.0
  0
ARC
  5
13BAE
  8
0
 10
3548.8251431046001017
 20
141.1984766476404047
 30
0.0
 40
0.2899999999999943
 50
226.9630864341997096
 51
270.0
  0
LINE
  5
13BAF
  8
0
 10
3542.6451431045998106
 20
141.589354812962199
 30
0.0
 11
3542.698293434028983
 21
141.5889753495827108
 31
0.0
  0
LINE
  5
13BB0
  8
0
 10
3547.695143104599083
 20
141.4199957626404114
 30
0.0
 11
3547.7451431045988102
 21
141.4199957626404114
 31
0.0
  0
LINE
  5
13BB1
  8
0
 10
3537.6451431045998106
 20
141.7099122419774062
 30
0.0
 11
3542.6451431045998106
 21
141.6303297562382966
 31
0.0
  0
LINE
  5
13BB2
  8
0
 10
3537.6451431045998106
 20
141.5421402305956065
 30
0.0
 11
3542.6451431045998106
 21
141.4372304680804007
 31
0.0
  0
LINE
  5
13BB3
  8
0
 10
3542.7024861518921171
 20
142.1762371186559903
 30
0.0
 11
3547.6951430940871433
 21
142.1520813280519917
 31
0.0
  0
LINE
  5
13BB4
  8
0
 10
3542.7010245036922242
 20
141.9715083161744076
 30
0.0
 11
3547.6951430959520621
 21
141.9428761140910922
 31
0.0
  0
LINE
  5
13BB5
  8
0
 10
3542.6995701913610901
 20
141.7678070271996091
 30
0.0
 11
3547.6951430978479038
 21
141.730212093074698
 31
0.0
  0
LINE
  5
13BB6
  8
0
 10
3542.6981441592079136
 20
141.5680668605153869
 30
0.0
 11
3547.6951430997219177
 21
141.5201230259021088
 31
0.0
  0
LINE
  5
13BB7
  8
0
 10
3542.6967802368972116
 20
141.3770262383081047
 30
0.0
 11
3547.6951431015831986
 21
141.3113182795435137
 31
0.0
  0
LINE
  5
13BB8
  8
0
 10
3542.6956350358950658
 20
141.2166212723539047
 30
0.0
 11
3547.6951431033999143
 21
141.1076446505273054
 31
0.0
  0
LINE
  5
13BB9
  8
0
 10
3547.7451431039980889
 20
142.2190236076893086
 30
0.0
 11
3552.7451431046001744
 21
142.2198072968186864
 31
0.0
  0
LINE
  5
13BBA
  8
0
 10
3547.7451431041022261
 20
142.0104111596164955
 30
0.0
 11
3552.7451431046001744
 21
142.0072647010034075
 31
0.0
  0
LINE
  5
13BBB
  8
0
 10
3547.745143104206818
 20
141.7996163504294884
 30
0.0
 11
3552.7451431046001744
 21
141.7972269742481046
 31
0.0
  0
LINE
  5
13BBC
  8
0
 10
3547.7451431043118646
 20
141.5862934875563042
 30
0.0
 11
3552.7451431046001744
 21
141.5895710702444887
 31
0.0
  0
LINE
  5
13BBD
  8
0
 10
3547.7451431044169112
 20
141.3760978091150093
 30
0.0
 11
3552.7451431046001744
 21
141.3797170807295061
 31
0.0
  0
LINE
  5
13BBE
  8
0
 10
3547.7451431045101344
 20
141.1870603447331973
 30
0.0
 11
3552.7451431046001744
 21
141.1886502711805065
 31
0.0
  0
ARC
  5
13BBF
  8
0
 10
3568.3803169619991422
 20
159.5189398634427107
 30
0.0
 40
3.0011078092099068
 50
4.5779964501977757
 51
16.6699854052683101
  0
ARC
  5
13BC0
  8
0
 10
3569.7956014627038712
 20
159.9482755863731995
 30
0.0
 40
1.522154163048919
 50
16.4702875005209393
 51
35.5126519007611279
  0
ARC
  5
13BC1
  8
0
 10
3570.7534070897218044
 20
160.6240875158628967
 30
0.0
 40
0.3500012827801596
 50
36.5391853549957233
 51
90.4362272779023471
  0
ARC
  5
13BC2
  8
0
 10
3563.5875483759350573
 20
149.8503051998254989
 30
0.0
 40
0.0601878482893266
 50
23.683602440029631
 51
134.9788663630122869
  0
ARC
  5
13BC3
  8
0
 10
3563.9346269194861634
 20
149.5416115988734873
 30
0.0
 40
0.5245902642047146
 50
137.9633747720176018
 51
160.0601039517651998
  0
ARC
  5
13BC4
  8
0
 10
3567.1178149822972046
 20
148.3735021342615141
 30
0.0
 40
3.9153342840884391
 50
159.8770900197606863
 51
177.1019817282150086
  0
ARC
  5
13BC5
  8
0
 10
3564.4279003627611928
 20
148.4409456058972978
 30
0.0
 40
1.2273708051673831
 50
173.8960501315177112
 51
196.7011318566709122
  0
ARC
  5
13BC6
  8
0
 10
3563.307174722523996
 20
148.1161144416275022
 30
0.0
 40
0.0615520162616386
 50
206.943537981560894
 51
324.1855414544895098
  0
ARC
  5
13BC7
  8
0
 10
3562.5186857274588874
 20
148.6775526561578999
 30
0.0
 40
1.0295011515894521
 50
324.5258518288508185
 51
344.9188302215699196
  0
ARC
  5
13BC8
  8
0
 10
3559.8551531297671318
 20
149.5369903652116079
 30
0.0
 40
3.827357856770226
 50
342.8701892366894981
 51
350.4176160699822162
  0
ARC
  5
13BC9
  8
0
 10
3560.375855554978898
 20
149.5191644183013011
 30
0.0
 40
3.3116742698154451
 50
349.2219884192177801
 51
3.3809219964234329
  0
ARC
  5
13BCA
  8
0
 10
3563.1839252717240925
 20
149.677606179668004
 30
0.0
 40
0.499203401580898
 50
4.2345375057795573
 51
23.2272845011620603
  0
ARC
  5
13BCB
  8
0
 10
3563.0720867990730767
 20
149.6993990917744952
 30
0.0
 40
0.5128894973047383
 50
8.0731785535300116
 51
22.3362009584480212
  0
ARC
  5
13BCC
  8
0
 10
3562.0268355339808295
 20
149.5608176392501036
 30
0.0
 40
1.567273185798397
 50
358.3778444186996808
 51
7.7227822291606314
  0
ARC
  5
13BCD
  8
0
 10
3559.329806336009824
 20
149.6444772738639131
 30
0.0
 40
4.2655959919782296
 50
345.4984848776834951
 51
358.2800839407447029
  0
ARC
  5
13BCE
  8
0
 10
3561.2153740571470735
 20
149.1397073003815876
 30
0.0
 40
2.3137623665518241
 50
337.3799742630865808
 51
345.9078656504548803
  0
ARC
  5
13BCF
  8
0
 10
3562.7660277653690173
 20
148.4881609197844909
 30
0.0
 40
0.6318148597661107
 50
320.4818125638915944
 51
337.8349824191730022
  0
ARC
  5
13BD0
  8
0
 10
3554.3685262158678597
 20
148.7583198653055092
 30
0.0
 40
0.8732056940957575
 50
46.7873776276439415
 51
124.1301851920127035
  0
ARC
  5
13BD1
  8
0
 10
3554.4630266385029245
 20
148.6189015951061947
 30
0.0
 40
1.0416330788751651
 50
124.1301851920127035
 51
165.0219810486929077
  0
ARC
  5
13BD2
  8
0
 10
3554.339730014475208
 20
148.6518881333186926
 30
0.0
 40
0.9140001317172529
 50
165.0219810486929077
 51
208.9054588067276939
  0
ARC
  5
13BD3
  8
0
 10
3554.3067361940697992
 20
148.6336704643300948
 30
0.0
 40
0.8763109336854956
 50
208.9054588067276939
 51
240.9753562102773117
  0
ARC
  5
13BD4
  8
0
 10
3554.2966645369851904
 20
148.6505671337806973
 30
0.0
 40
0.8863620772852181
 50
242.0746390295284982
 51
303.6998439801985796
  0
ARC
  5
13BD5
  8
0
 10
3554.2470089257358268
 20
148.7448128197414974
 30
0.0
 40
0.9923820804758683
 50
303.0658817108915741
 51
343.5592246520736808
  0
ARC
  5
13BD6
  8
0
 10
3554.2895886399019219
 20
148.7384526869579986
 30
0.0
 40
0.9497619048198842
 50
343.2002194846397742
 51
23.6742724653701018
  0
ARC
  5
13BD7
  8
0
 10
3554.3623214640701917
 20
148.7654090955759045
 30
0.0
 40
0.8723377687599784
 50
23.9709570127453517
 51
46.17153118053713
  0
ARC
  5
13BD8
  8
0
 10
3554.3451336987918694
 20
148.7898087092841024
 30
0.0
 40
0.8575931115217418
 50
33.4441328214008422
 51
58.8648237568656896
  0
ARC
  5
13BD9
  8
0
 10
3554.3118534175100649
 20
148.7678276083358071
 30
0.0
 40
0.8974772677883821
 50
10.7656538270817599
 51
33.4441328214008422
  0
ARC
  5
13BDA
  8
0
 10
3554.2394515123660312
 20
148.7540611820896004
 30
0.0
 40
0.9711763204292244
 50
330.9704664644722811
 51
10.7656538270817599
  0
ARC
  5
13BDB
  8
0
 10
3554.2022823820498161
 20
148.7746894205212129
 30
0.0
 40
1.013685948387993
 50
302.8041249787016795
 51
330.9704664644722811
  0
ARC
  5
13BDC
  8
0
 10
3554.2642249789878406
 20
148.6785885198605115
 30
0.0
 40
0.8993519271029811
 50
278.3069205325799089
 51
302.8041249787016795
  0
ARC
  5
13BDD
  8
0
 10
3554.2632023848977951
 20
148.6855922252559878
 30
0.0
 40
0.9064298920604571
 50
249.5679222011661977
 51
278.3069205325799089
  0
ARC
  5
13BDE
  8
0
 10
3588.6224741708751935
 20
148.675761536029114
 30
0.0
 40
21.7106982235460393
 50
149.3046899571419033
 51
163.1345959496786122
  0
ARC
  5
13BDF
  8
0
 10
3567.5359749856829694
 20
155.0440989819987863
 30
0.0
 40
0.3173134697224402
 50
280.614348830363781
 51
347.3418457021832069
  0
ARC
  5
13BE0
  8
0
 10
3567.2831862445291335
 20
156.4640265341307952
 30
0.0
 40
1.7595566979865109
 50
275.213017344885202
 51
280.1883028240732187
  0
ARC
  5
13BE1
  8
0
 10
3567.4534833632060327
 20
154.6207790172811087
 30
0.0
 40
0.0915642284881049
 50
96.5380888894318048
 51
145.7345764773712915
  0
ARC
  5
13BE2
  8
0
 10
3567.6924159374812007
 20
154.4893136847948085
 30
0.0
 40
0.3639669252275923
 50
149.8116781584959938
 51
162.4024497776221097
  0
ARC
  5
13BE3
  8
0
 10
3930.199096941859807
 20
24.137674642017231
 30
0.0
 40
385.5943405575408178
 50
160.2242791858145097
 51
160.2456178086673901
  0
ARC
  5
13BE4
  8
0
 10
3566.8162595623671223
 20
154.5868262528504999
 30
0.0
 40
0.4960536435773407
 50
280.5857572437628846
 51
345.6885165466650278
  0
ARC
  5
13BE5
  8
0
 10
3566.9694462623629079
 20
153.6044624929112956
 30
0.0
 40
0.4986293053379319
 50
97.149429868216771
 51
165.2013385752447903
  0
ARC
  5
13BE6
  8
0
 10
3611.5539532701532153
 20
141.6955529283405042
 30
0.0
 40
46.646221035834472
 50
165.0466122199908057
 51
177.2803922095610858
  0
ARC
  5
13BE7
  8
0
 10
3562.726253920146064
 20
144.1214614053500895
 30
0.0
 40
2.244111766713909
 50
273.0372087541612132
 51
354.5631836249061735
  0
LINE
  5
13BE8
  8
0
 10
3562.84515699369922
 20
141.4051093391404095
 30
0.0
 11
3562.84515699369922
 21
142.0863078864404088
 31
0.0
  0
LINE
  5
13BE9
  8
0
 10
3562.84515699369922
 20
142.0863078864404088
 30
0.0
 11
3557.8451569937001295
 21
142.0080111532404032
 31
0.0
  0
LINE
  5
13BEA
  8
0
 10
3557.8451569937001295
 20
142.0080111532404032
 30
0.0
 11
3557.8451569937001295
 21
141.2692838040404126
 31
0.0
  0
LINE
  5
13BEB
  8
0
 10
3557.8451569937001295
 20
141.2692838040404126
 30
0.0
 11
3562.84515699369922
 21
141.4051093391404095
 31
0.0
  0
LINE
  5
13BEC
  8
0
 10
3557.7951569936990381
 20
141.1477178897403917
 30
0.0
 11
3557.785129241802224
 21
142.5522758667997039
 31
0.0
  0
LINE
  5
13BED
  8
0
 10
3557.785129241802224
 20
142.5522758667997039
 30
0.0
 11
3552.7951570075679228
 21
142.5282915022856116
 31
0.0
  0
LINE
  5
13BEE
  8
0
 10
3552.7951570075679228
 20
142.5282915022856116
 30
0.0
 11
3552.7951569936990381
 21
140.973114042240411
 31
0.0
  0
LINE
  5
13BEF
  8
0
 10
3552.7951569936990381
 20
140.973114042240411
 30
0.0
 11
3557.7951569936990381
 21
141.1477178897403917
 31
0.0
  0
ARC
  5
13BF0
  8
0
 10
3551.6651569936998385
 20
141.1984766476404047
 30
0.0
 40
0.2899999999999943
 50
270.0
 51
313.0369903819971
  0
LINE
  5
13BF1
  8
0
 10
3557.8451569937001295
 20
141.589354812962199
 30
0.0
 11
3557.7920066642700476
 21
141.5889753495827108
 31
0.0
  0
LINE
  5
13BF2
  8
0
 10
3552.7951569936990381
 20
141.4199957626404114
 30
0.0
 11
3552.7451431046001744
 21
141.4199957626404114
 31
0.0
  0
LINE
  5
13BF3
  8
0
 10
3562.84515699369922
 20
141.7099122419774062
 30
0.0
 11
3557.8451569937001295
 21
141.6303297562382966
 31
0.0
  0
LINE
  5
13BF4
  8
0
 10
3562.84515699369922
 20
141.5421402305956065
 30
0.0
 11
3557.8451569937001295
 21
141.4372304680804007
 31
0.0
  0
LINE
  5
13BF5
  8
0
 10
3557.7878139464078231
 20
142.1762371186559903
 30
0.0
 11
3552.7951570042127969
 21
142.1520813280519917
 31
0.0
  0
LINE
  5
13BF6
  8
0
 10
3557.7892755946068064
 20
141.9715083161744076
 30
0.0
 11
3552.7951570023469685
 21
141.9428761140910922
 31
0.0
  0
LINE
  5
13BF7
  8
0
 10
3557.79072990693885
 20
141.7678070271996091
 30
0.0
 11
3552.7951570004511268
 21
141.730212093074698
 31
0.0
  0
LINE
  5
13BF8
  8
0
 10
3557.792155939091117
 20
141.5680668605153869
 30
0.0
 11
3552.795156998577113
 21
141.5201230259021088
 31
0.0
  0
LINE
  5
13BF9
  8
0
 10
3557.7935198614018191
 20
141.3770262383081047
 30
0.0
 11
3552.7951569967158321
 21
141.3113182795435137
 31
0.0
  0
LINE
  5
13BFA
  8
0
 10
3557.7946650624039648
 20
141.2166212723539047
 30
0.0
 11
3552.7951569948991164
 21
141.1076446505273054
 31
0.0
  0
LINE
  5
13BFB
  8
0
 10
3548.8251431046001017
 20
140.9084766476404127
 30
0.0
 11
3551.6651569936998385
 21
140.9084766476404127
 31
0.0
  0
ARC
  5
13BFC
  8
0
 10
3550.2451431045988102
 20
227.406987470542191
 30
0.0
 40
86.4356194668017679
 50
268.3425880618611927
 51
271.6574119381386936
  0
ENDSEC
  0
EOF
