  0
SECTION
  2
HEADER
  9
$ACADVER
  1
AC1009
  9
$INSBASE
 10
3549.8322571592689201
 20
212.0656004488284907
 30
0.0
  9
$EXTMIN
 10
3519.5821020554358256
 20
190.927583381704892
 30
-0.0015258207003583
  9
$EXTMAX
 10
3579.9415133049251381
 20
233.1993726686309003
 30
0.0000000349246037
  9
$LIMMIN
 10
0.0
 20
0.0
  9
$LIMMAX
 10
11.6929133858000007
 20
8.2677165353999982
  9
$ORTHOMODE
 70
     1
  9
$REGENMODE
 70
     1
  9
$FILLMODE
 70
     1
  9
$QTEXTMODE
 70
     0
  9
$MIRRTEXT
 70
     0
  9
$DRAGMODE
 70
     2
  9
$LTSCALE
 40
0.6431102362
  9
$OSMODE
 70
  3839
  9
$ATTMODE
 70
     1
  9
$TEXTSIZE
 40
0.2
  9
$TRACEWID
 40
0.05
  9
$TEXTSTYLE
  7
STANDARD
  9
$CLAYER
  8
0
  9
$CELTYPE
  6
BYLAYER
  9
$CECOLOR
 62
   256
  9
$DIMSCALE
 40
1.0
  9
$DIMASZ
 40
0.1875
  9
$DIMEXO
 40
0.0625
  9
$DIMDLI
 40
0.4443307087
  9
$DIMRND
 40
0.0
  9
$DIMDLE
 40
0.0
  9
$DIMEXE
 40
0.125
  9
$DIMTP
 40
0.01
  9
$DIMTM
 40
0.01
  9
$DIMTXT
 40
2.0
  9
$DIMCEN
 40
0.1052362205
  9
$DIMTSZ
 40
0.0
  9
$DIMTOL
 70
     1
  9
$DIMLIM
 70
     0
  9
$DIMTIH
 70
     1
  9
$DIMTOH
 70
     1
  9
$DIMSE1
 70
     0
  9
$DIMSE2
 70
     0
  9
$DIMTAD
 70
     0
  9
$DIMZIN
 70
     0
  9
$DIMBLK
  1

  9
$DIMASO
 70
     1
  9
$DIMSHO
 70
     1
  9
$DIMPOST
  1
\X
  9
$DIMAPOST
  1

  9
$DIMALT
 70
     1
  9
$DIMALTD
 70
     2
  9
$DIMALTF
 40
25.3999999999999986
  9
$DIMLFAC
 40
1.0
  9
$DIMTOFL
 70
     0
  9
$DIMTVP
 40
0.0
  9
$DIMTIX
 70
     0
  9
$DIMSOXD
 70
     0
  9
$DIMSAH
 70
     0
  9
$DIMBLK1
  1

  9
$DIMBLK2
  1

  9
$DIMSTYLE
  2
STANDARD
  9
$DIMCLRD
 70
     0
  9
$DIMCLRE
 70
     0
  9
$DIMCLRT
 70
     0
  9
$DIMTFAC
 40
1.0
  9
$DIMGAP
 40
0.09
  9
$LUNITS
 70
     2
  9
$LUPREC
 70
     4
  9
$SKETCHINC
 40
0.1
  9
$FILLETRAD
 40
0.0
  9
$AUNITS
 70
     0
  9
$AUPREC
 70
     0
  9
$MENU
  1
.
  9
$ELEVATION
 40
0.0
  9
$PELEVATION
 40
0.0
  9
$THICKNESS
 40
0.0
  9
$LIMCHECK
 70
     0
  9
$BLIPMODE
 70
     0
  9
$CHAMFERA
 40
0.0
  9
$CHAMFERB
 40
0.0
  9
$SKPOLY
 70
     0
  9
$TDCREATE
 40
2458060.468368056230247
  9
$TDUPDATE
 40
2459212.982719908002764
  9
$TDINDWG
 40
0.5845788194
  9
$TDUSRTIMER
 40
0.5845788194
  9
$USRTIMER
 70
     1
  9
$ANGBASE
 50
0.0
  9
$ANGDIR
 70
     0
  9
$PDMODE
 70
     0
  9
$PDSIZE
 40
0.3125
  9
$PLINEWID
 40
0.0
  9
$COORDS
 70
     1
  9
$SPLFRAME
 70
     0
  9
$SPLINETYPE
 70
     6
  9
$SPLINESEGS
 70
     8
  9
$ATTDIA
 70
     1
  9
$ATTREQ
 70
     1
  9
$HANDLING
 70
     1
  9
$HANDSEED
  5
13F2C
  9
$SURFTAB1
 70
     6
  9
$SURFTAB2
 70
     6
  9
$SURFTYPE
 70
     6
  9
$SURFU
 70
     6
  9
$SURFV
 70
     6
  9
$UCSNAME
  2

  9
$UCSORG
 10
0.0
 20
0.0
 30
0.0
  9
$UCSXDIR
 10
1.0
 20
0.0
 30
0.0
  9
$UCSYDIR
 10
0.0
 20
1.0
 30
0.0
  9
$PUCSNAME
  2

  9
$PUCSORG
 10
0.0
 20
0.0
 30
0.0
  9
$PUCSXDIR
 10
1.0
 20
0.0
 30
0.0
  9
$PUCSYDIR
 10
0.0
 20
1.0
 30
0.0
  9
$USERI1
 70
     0
  9
$USERI2
 70
     0
  9
$USERI3
 70
     0
  9
$USERI4
 70
     0
  9
$USERI5
 70
     0
  9
$USERR1
 40
0.0
  9
$USERR2
 40
0.0
  9
$USERR3
 40
0.0
  9
$USERR4
 40
0.0
  9
$USERR5
 40
0.0
  9
$WORLDVIEW
 70
     1
  9
$SHADEDGE
 70
     3
  9
$SHADEDIF
 70
    70
  9
$TILEMODE
 70
     1
  9
$MAXACTVP
 70
    64
  9
$PLIMCHECK
 70
     0
  9
$PEXTMIN
 10
1.0000000000000000E+20
 20
1.0000000000000000E+20
 30
1.0000000000000000E+20
  9
$PEXTMAX
 10
-1.0000000000000000E+20
 20
-1.0000000000000000E+20
 30
-1.0000000000000000E+20
  9
$PLIMMIN
 10
0.0
 20
0.0
  9
$PLIMMAX
 10
12.0
 20
9.0
  9
$UNITMODE
 70
     0
  9
$VISRETAIN
 70
     1
  9
$PLINEGEN
 70
     0
  9
$PSLTSCALE
 70
     1
  0
ENDSEC
  0
SECTION
  2
TABLES
  0
TABLE
  2
VPORT
 70
     1
  0
VPORT
  2
*ACTIVE
 70
     0
 10
0.0
 20
0.0
 11
1.0
 21
1.0
 12
-0.0763841483253529
 22
-0.0047763828637244
 13
0.0
 23
0.0
 14
1.0
 24
1.0
 15
0.0
 25
0.0
 16
0.0
 26
0.0
 36
0.0358426669211835
 17
3549.8381918285058418
 27
212.0682544080316063
 37
0.0
 40
42.6903218541232121
 41
2.9735537190082639
 42
50.0
 43
0.0
 44
0.0
 50
0.0
 51
0.0
 71
     0
 72
   100
 73
     1
 74
     1
 75
     0
 76
     0
 77
     0
 78
     0
  0
ENDTAB
  0
TABLE
  2
LTYPE
 70
     2
  0
LTYPE
  2
CONTINUOUS
 70
     0
  3
Solid line
 72
    65
 73
     0
 40
0.0
  0
LTYPE
  2
PHANTOM2
 70
     0
  3
___ _ _ ___ _ _ ___ _ _ ___ _ _
 72
    65
 73
     6
 40
1.25
 49
0.625
 49
-0.125
 49
0.125
 49
-0.125
 49
0.125
 49
-0.125
  0
ENDTAB
  0
TABLE
  2
LAYER
 70
     2
  0
LAYER
  2
0
 70
     0
 62
   255
  6
CONTINUOUS
  0
LAYER
  2
DEFPOINTS
 70
     0
 62
     7
  6
CONTINUOUS
  0
ENDTAB
  0
TABLE
  2
STYLE
 70
     1
  0
STYLE
  2
STANDARD
 70
     0
 40
0.0
 41
0.8
 50
0.0
 71
     0
 42
0.2
  3
txt
  4

  0
ENDTAB
  0
TABLE
  2
VIEW
 70
     0
  0
ENDTAB
  0
TABLE
  2
UCS
 70
     0
  0
ENDTAB
  0
TABLE
  2
APPID
 70
     9
  0
APPID
  2
ACAD
 70
     0
  0
APPID
  2
ACAD_MLEADERVER
 70
     0
  0
APPID
  2
ACAD_EXEMPT_FROM_CAD_STANDARDS
 70
     0
  0
APPID
  2
ACAD_NAV_VCDISPLAY
 70
     0
  0
APPID
  2
ACAECLAYERSTANDARD
 70
     0
  0
APPID
  2
ACCMTRANSPARENCY
 70
     0
  0
APPID
  2
ACAD_DSTYLE_DIMJAG
 70
     0
  0
APPID
  2
ACAD_DSTYLE_DIMTALN
 70
     0
  0
APPID
  2
ACDBATTR
 70
     0
  0
ENDTAB
  0
TABLE
  2
DIMSTYLE
 70
     1
  0
DIMSTYLE
  2
STANDARD
 70
     0
  3

  4

  5

  6

  7

 40
1.0
 41
0.1875
 42
0.0625
 43
0.38
 44
0.125
 45
0.0
 46
0.0
 47
0.01
 48
0.01
140
0.15625
141
0.09
142
0.0
143
25.3999999999999986
144
1.0
145
0.0
146
1.0
147
0.09
 71
     1
 72
     0
 73
     1
 74
     1
 75
     0
 76
     0
 77
     0
 78
     4
170
     0
171
     2
172
     0
173
     0
174
     0
175
     0
176
     0
177
     0
178
     0
  0
ENDTAB
  0
ENDSEC
  0
SECTION
  2
BLOCKS
  0
BLOCK
  8
0
  2
$MODEL_SPACE
 70
     0
 10
0.0
 20
0.0
 30
0.0
  3
$MODEL_SPACE
  1

  0
ENDBLK
  5
21
  8
0
  0
BLOCK
 67
     1
  8
0
  2
$PAPER_SPACE
 70
     0
 10
0.0
 20
0.0
 30
0.0
  3
$PAPER_SPACE
  1

  0
ENDBLK
  5
1D
 67
     1
  8
0
  0
BLOCK
  8
0
  2
_FILLED
 70
     0
 10
0.0
 20
0.0
 30
0.0
  3
_FILLED
  1

  0
SOLID
  5
13356
  8
0
  6
BYBLOCK
 62
     0
 10
0.0
 20
0.0
 30
0.0
 11
-1.0
 21
0.1666666667
 31
0.0
 12
-1.0
 22
-0.1666666667
 32
0.0
 13
-1.0
 23
-0.1666666667
 33
0.0
  0
ENDBLK
  5
13357
  8
0
  6
BYBLOCK
 62
     0
  0
ENDSEC
  0
SECTION
  2
ENTITIES
  0
ATTDEF
  5
12BEB
  8
DEFPOINTS
 10
3549.8328584950131699
 20
212.0694210746983117
 30
0.0
 40
0.001
  1
K-1337T-NW2
  3

  2
MODELNUMBER
 70
     0
1001
ACDBATTR
1070
     0
1070
     1
  0
ATTDEF
  5
12BEC
  8
DEFPOINTS
 10
3549.8328584950131699
 20
212.0677544080315897
 30
0.0
 40
0.001
  1
SERIF
  3

  2
TRADENAME
 70
     0
1001
ACDBATTR
1070
     0
1070
     1
  0
ATTDEF
  5
12BED
  8
DEFPOINTS
 10
3549.8328584950131699
 20
212.0660877413650098
 30
0.0
 40
0.001
  1
BATH
  3

  2
PRODUCT
 70
     0
1001
ACDBATTR
1070
     0
1070
     1
  0
CIRCLE
  5
13BBC
  8
0
 10
3530.8322571592689201
 20
212.0656004488284907
 30
0.0
 40
1.0236220471999991
  0
CIRCLE
  5
13BBD
  8
0
 10
3530.8322571592689201
 20
212.0656004488284907
 30
0.0
 40
1.4199999999999979
  0
ARC
  5
13BBE
  8
0
 10
3524.6178312687188736
 20
212.0653408733058995
 30
0.0
 40
1.1323536040022311
 50
169.9756930723121116
 51
189.9979002283523926
  0
ARC
  5
13BBF
  8
0
 10
3522.3764004157092131
 20
212.0658573929513011
 30
0.0
 40
1.1433905921305101
 50
350.0733097822413242
 51
9.9002835186239526
  0
ARC
  5
13BC0
  8
0
 10
3538.5638837016717844
 20
211.3395980541212964
 30
0.0
 40
18.9389768454251488
 50
127.1940061436111051
 51
160.5968828359310976
  0
ARC
  5
13BC1
  8
0
 10
3545.9621074902288456
 20
201.1738399836274027
 30
0.0
 40
31.5103008523235317
 50
103.4499465195441985
 51
126.7358089904989953
  0
ARC
  5
13BC3
  8
0
 10
3552.1388894280639761
 20
197.4431457686056888
 30
0.0
 40
35.5123088638955835
 50
58.8386942113048903
 51
80.8115351252843936
  0
ARC
  5
13BC4
  8
0
 10
3560.0519092876920695
 20
210.4166432522177956
 30
0.0
 40
20.3162038172084394
 50
27.6459973956299692
 51
59.0027029534381029
  0
ARC
  5
13BC5
  8
0
 10
3563.010298385724127
 20
212.353734261733706
 30
0.0
 40
16.8002518506496088
 50
10.1170290566885992
 51
26.4753885215208804
  0
ARC
  5
13BC6
  8
0
 10
3523.5186205679360683
 20
214.4278560492647898
 30
0.0
 40
0.0250068579293245
 50
23.5475906873562302
 51
164.6457603159657026
  0
ARC
  5
13BC7
  8
0
 10
3521.7970452342779026
 20
213.862830133395704
 30
0.0
 40
1.836824313183949
 50
3.51757516516192
 51
18.2430871986969514
  0
ARC
  5
13BC8
  8
0
 10
3525.3711415036568724
 20
213.8276936747822106
 30
0.0
 40
1.9722947070021259
 50
162.0821093314721963
 51
176.4740191976293886
  0
ARC
  5
13BC9
  8
0
 10
3539.5180136227618277
 20
211.3847951591515084
 30
0.0
 40
14.7797597280312303
 50
123.0625839001227035
 51
159.8462241509623993
  0
ARC
  5
13BCA
  8
0
 10
3547.8881353940391818
 20
199.8189461850361965
 30
0.0
 40
29.0477267192204707
 50
106.9557680842565048
 51
124.453286192407603
  0
ARC
  5
13BCB
  8
0
 10
3549.1285815800551973
 20
196.1390436451137873
 30
0.0
 40
32.929615102023341
 50
94.6039957462501775
 51
107.1529773192519031
  0
ARC
  5
13BCC
  8
0
 10
3549.1703995013490385
 20
196.1488498781766907
 30
0.0
 40
32.9232245628336315
 50
83.8207861169123731
 51
94.6779058570361656
  0
ARC
  5
13BCD
  8
0
 10
3549.3525630120998358
 20
197.6819633636009996
 30
0.0
 40
31.3794146261173701
 50
65.3289825937361996
 51
83.8501518240557431
  0
ARC
  5
13BCE
  8
0
 10
3551.5914755210478688
 20
201.8640982257975054
 30
0.0
 40
26.6460546847904496
 50
47.434249523473639
 51
65.9501794803437207
  0
ARC
  5
13BCF
  8
0
 10
3560.6721710446640827
 20
211.7408192182892037
 30
0.0
 40
13.2293281590202998
 50
13.8786901374168306
 51
47.4644731865544287
  0
ARC
  5
13BD0
  8
0
 10
3545.9245476840519586
 20
198.2383836632664043
 30
0.0
 40
30.008659631113229
 50
94.3002348560251988
 51
104.1069593991581002
  0
ARC
  5
13BD1
  8
0
 10
3544.960450268844852
 20
208.412357881778604
 30
0.0
 40
19.7920317142135396
 50
80.1459975524380894
 51
93.7255600859817406
  0
ARC
  5
13BD2
  8
0
 10
3536.2490172736638669
 20
157.6762003468057003
 30
0.0
 40
71.2706094945827857
 50
76.0576163040666557
 51
80.226373914192223
  0
ARC
  5
13BD3
  8
0
 10
3586.381281541286171
 20
367.2071052963046895
 30
0.0
 40
144.1779927096816039
 50
256.7850101778525982
 51
259.6929032821745977
  0
ARC
  5
13BD4
  8
0
 10
3556.6853100029670713
 20
203.4791463361900981
 30
0.0
 40
22.2213307777192703
 50
64.9908733711493198
 51
79.8943036809540246
  0
ARC
  5
13BD5
  8
0
 10
3557.5786432428790249
 20
205.8745211834938971
 30
0.0
 40
19.6739256414155186
 50
51.2873039997549611
 51
64.3993802058275691
  0
ARC
  5
13BD6
  8
0
 10
3527.0903743713120093
 20
216.9367823755254108
 30
0.0
 40
0.0183236751777616
 50
35.5273301404223574
 51
114.111238498281395
  0
ARC
  5
13BD7
  8
0
 10
3526.9338433409470781
 20
216.8866347390276985
 30
0.0
 40
0.181903722034465
 50
348.8140839229902213
 51
19.5249468872198513
  0
ARC
  5
13BD8
  8
0
 10
3524.1028734990300109
 20
217.3675194138747031
 30
0.0
 40
3.0533638025507108
 50
341.2202409744364218
 51
350.2673806555367264
  0
ARC
  5
13BD9
  8
0
 10
3518.4112419942489396
 20
219.1283034305403987
 30
0.0
 40
9.0103574124329064
 50
336.3187177875478824
 51
342.2712243799185217
  0
ARC
  5
13BDA
  8
0
 10
3525.4021013629790104
 20
216.0202501615642916
 30
0.0
 40
1.3603700242006089
 50
322.4041942825513161
 51
337.9390816640454887
  0
ARC
  5
13BDB
  8
0
 10
3526.459918902085974
 20
215.2132273655427923
 30
0.0
 40
0.0304533971803293
 50
177.0094487602708
 51
311.1774207739563849
  0
ARC
  5
13BDC
  8
0
 10
3528.0905839173028653
 20
215.193581099600209
 30
0.0
 40
1.6612126674912311
 50
168.538661602598296
 51
179.2675758009974061
  0
ARC
  5
13BDD
  8
0
 10
3531.6748780870698283
 20
214.2783550079257111
 30
0.0
 40
5.3590795693822164
 50
157.4853626148725994
 51
166.5630176435390126
  0
ARC
  5
13BDE
  8
0
 10
3529.7595630102528048
 20
215.1250884630379119
 30
0.0
 40
3.265880172997456
 50
148.0711036896294104
 51
158.3412753058244107
  0
ARC
  5
13BDF
  8
0
 10
3527.2553449654501492
 20
216.6961827530504081
 30
0.0
 40
0.3097693243740147
 50
123.8295357230644953
 51
149.7357842441911089
  0
ARC
  5
13BE0
  8
0
 10
3524.0214618494001115
 20
216.6811455362255003
 30
0.0
 40
2.7907553703499408
 50
329.712839113052496
 51
336.2924867319342184
  0
ARC
  5
13BE1
  8
0
 10
3519.1252764389319054
 20
218.8311864717096
 30
0.0
 40
8.1382134204838632
 50
336.2924867319342184
 51
339.5021928211780846
  0
ARC
  5
13BE2
  8
0
 10
3517.5747111786049572
 20
219.4108514293347127
 30
0.0
 40
9.7935877254773285
 50
339.5021928211780846
 51
342.827465738116814
  0
ARC
  5
13BE3
  8
0
 10
3524.0437761267348833
 20
217.4117390223067048
 30
0.0
 40
3.0226755477073008
 50
342.827465738116814
 51
350.2731541185376045
  0
ARC
  5
13BE4
  8
0
 10
3535.2235711951630037
 20
224.3158428793717007
 30
0.0
 40
0.0205137081169042
 50
342.8461169302408962
 51
103.4954667695459989
  0
ARC
  5
13BE5
  8
0
 10
3532.7429030947719184
 20
227.2250625034189113
 30
0.0
 40
3.8405917716488331
 50
300.462145541772486
 51
310.6179055227996741
  0
ARC
  5
13BE6
  8
0
 10
3503.2332167576528263
 20
274.2760713612101995
 30
0.0
 40
59.3784791519334121
 50
300.338250194530076
 51
301.9897002159996759
  0
ARC
  5
13BE7
  8
0
 10
3548.629739829250866
 20
193.0252650228634934
 30
0.0
 40
33.7270250084264234
 50
117.1764480993862065
 51
118.7059748596274034
  0
ARC
  5
13BE8
  8
0
 10
3532.4177150204318423
 20
222.6298046945090903
 30
0.0
 40
0.0258788306772086
 50
148.0266189963085139
 51
298.7059748596282134
  0
ARC
  5
13BE9
  8
0
 10
3535.204751919643968
 20
219.752989403474686
 30
0.0
 40
4.0305734481674129
 50
123.6799145568803056
 51
134.1804643634999081
  0
ARC
  5
13BEA
  8
0
 10
3540.9557996106468636
 20
211.6206695393441919
 30
0.0
 40
13.9898524754418805
 50
117.0107256449184945
 51
124.8100487672549974
  0
ARC
  5
13BEB
  8
0
 10
3536.469633574522959
 20
220.3841222848944881
 30
0.0
 40
4.1449130125255698
 50
107.5645133060939997
 51
116.7779989284045001
  0
ARC
  5
13BEC
  8
0
 10
3510.8343416628267732
 20
261.7164504721412754
 30
0.0
 40
44.5985293856209495
 50
299.0345948535351113
 51
302.957899570997597
  0
ARC
  5
13BED
  8
0
 10
3540.6950540263028415
 20
226.7451376083049013
 30
0.0
 40
0.0323064439339847
 50
331.9414389594284103
 51
87.8904778073709565
  0
ARC
  5
13BEE
  8
0
 10
3540.2574360248399898
 20
227.1715364148087986
 30
0.0
 40
0.642090959675053
 50
292.111580372187575
 51
316.5481221605622864
  0
ARC
  5
13BEF
  8
0
 10
3538.3389302179471088
 20
231.371630616125401
 30
0.0
 40
5.2590967859675768
 50
280.5410998939377123
 51
294.2522230529473859
  0
ARC
  5
13BF0
  8
0
 10
3539.0681646650200491
 20
227.2559384504243951
 30
0.0
 40
1.0800547336501281
 50
263.855643450401999
 51
282.4512247764591848
  0
ARC
  5
13BF1
  8
0
 10
3538.9570629547579301
 20
226.2190003675069079
 30
0.0
 40
0.0371855169583888
 50
143.4480281400593924
 51
263.0482713605453
  0
ARC
  5
13BF2
  8
0
 10
3539.5375161336501151
 20
225.5603427407077959
 30
0.0
 40
0.9143248694506878
 50
111.3301935789266963
 51
131.8755068654826914
  0
ARC
  5
13BF3
  8
0
 10
3541.1681919594170722
 20
221.9289631064308992
 30
0.0
 40
4.8941097909663771
 50
106.4830285228111961
 51
113.649862568142197
  0
ARC
  5
13BF4
  8
0
 10
3541.1477868828301325
 20
222.2041160763139942
 30
0.0
 40
4.6248450358252571
 50
98.7596223503572475
 51
107.2078236105083988
  0
ARC
  5
13BF5
  8
0
 10
3540.5788348536780177
 20
225.8328842061918067
 30
0.0
 40
0.95180705320001
 50
82.9143397462630531
 51
98.1761286665643951
  0
ARC
  5
13BF6
  8
0
 10
3538.5054328985797838
 20
230.8334868817123038
 30
0.0
 40
4.596807054398047
 50
275.5046222771491102
 51
298.1388441325390204
  0
ARC
  5
13BF7
  8
0
 10
3548.8785979355911877
 20
194.4620805610695129
 30
0.0
 40
1.39710636740381
 50
274.7412462955351202
 51
289.4095574523948926
  0
ARC
  5
13BF8
  8
0
 10
3549.1048864660101572
 20
193.8198414128858929
 30
0.0
 40
0.7161675871459784
 50
289.4095574523948926
 51
311.9247363806222779
  0
ARC
  5
13BF9
  8
0
 10
3549.4643037947021185
 20
193.419612005097207
 30
0.0
 40
0.1782415745543499
 50
311.9247363806222779
 51
18.7725308022540496
  0
ARC
  5
13BFA
  8
0
 10
3549.2652333401788383
 20
193.2379301560457918
 30
0.0
 40
0.4386800646234758
 50
33.0186597370352288
 51
75.5004381463715504
  0
ARC
  5
13BFB
  8
0
 10
3548.8534621371568392
 20
192.090824710508997
 30
0.0
 40
1.656100436593992
 50
71.6416272669139005
 51
85.3460044695399773
  0
ARC
  5
13BFC
  8
0
 10
3548.7749500802710827
 20
191.4829493426884142
 30
0.0
 40
2.268526375390735
 50
84.6152731656054584
 51
97.5830279955187336
  0
ARC
  5
13BFD
  8
0
 10
3548.6109157356108881
 20
192.5715623957703997
 30
0.0
 40
1.1679408091295971
 50
96.6536782652744932
 51
113.3653812978832036
  0
ARC
  5
13BFE
  8
0
 10
3548.2793050236400632
 20
193.3192482055875985
 30
0.0
 40
0.3501437188466005
 50
112.074257193641202
 51
144.3203172735487954
  0
ARC
  5
13BFF
  8
0
 10
3548.1276886022351391
 20
193.4433571320211911
 30
0.0
 40
0.1550952510619029
 50
148.8992863061284027
 51
219.0710797258437879
  0
ARC
  5
13C00
  8
0
 10
3548.5038584493481721
 20
193.778818699852394
 30
0.0
 40
0.658989976244322
 50
221.1013762121349089
 51
252.0894555561617949
  0
ARC
  5
13C01
  8
0
 10
3548.7954717985398929
 20
194.528161912399213
 30
0.0
 40
1.4624552816590579
 50
250.246436991230496
 51
263.2061482547621267
  0
ARC
  5
13C02
  8
0
 10
3548.6606861338059389
 20
193.0663598460326114
 30
0.0
 40
0.0394101193718078
 50
165.877596687271506
 51
191.8936484930733002
  0
ARC
  5
13C03
  8
0
 10
3548.7160363482130379
 20
193.0958099904115102
 30
0.0
 40
0.1011512511162782
 50
201.804929283410587
 51
253.4414228273556091
  0
ARC
  5
13C04
  8
0
 10
3548.8121557219910756
 20
193.3253406678107069
 30
0.0
 40
0.3495791268369237
 50
249.058087427527397
 51
292.8727538752946202
  0
ARC
  5
13C05
  8
0
 10
3548.9156387919269946
 20
193.0810220687019978
 30
0.0
 40
0.0842496810256484
 50
292.6122522915608215
 51
337.864259910797216
  0
ARC
  5
13C06
  8
0
 10
3548.9555328535848275
 20
193.0602616388011938
 30
0.0
 40
0.039696095981453
 50
343.9349681109100061
 51
13.8362778867296008
  0
ARC
  5
13C07
  8
0
 10
3548.3065555070138544
 20
193.1905579716199952
 30
0.0
 40
0.3969504471435458
 50
109.5851723662285053
 51
146.3516703784640072
  0
ARC
  5
13C08
  8
0
 10
3548.7158663096479359
 20
192.0401376789413916
 30
0.0
 40
1.6180164498472001
 50
97.2373973688463735
 51
109.5851723662290027
  0
ARC
  5
13C09
  8
0
 10
3548.7759620488300243
 20
191.5669151486638953
 30
0.0
 40
2.095039574056242
 50
77.2550962136842116
 51
97.2373973688463735
  0
ARC
  5
13C0A
  8
0
 10
3549.0008264870311905
 20
192.5610837653933913
 30
0.0
 40
1.0757578396680429
 50
61.8307703500477075
 51
77.2550962136842116
  0
ARC
  5
13C0B
  8
0
 10
3549.3653848157041466
 20
193.2418598125109952
 30
0.0
 40
0.3035151308429399
 50
26.3762385766411498
 51
61.8307703500477075
  0
ARC
  5
13C0C
  8
0
 10
3571.1308307133708695
 20
217.0168310732647114
 30
0.0
 40
0.0183236751777616
 50
65.8887615017185766
 51
144.4726698595775929
  0
ARC
  5
13C0D
  8
0
 10
3571.2873617437348912
 20
216.9666834367671129
 30
0.0
 40
0.181903722034465
 50
160.4750531127816089
 51
191.1859160770098072
  0
ARC
  5
13C0E
  8
0
 10
3574.1183315856528679
 20
217.4475681116140038
 30
0.0
 40
3.0533638025507108
 50
189.732619344463302
 51
198.779759025563493
  0
ARC
  5
13C0F
  8
0
 10
3579.8099630904339392
 20
219.2083521282796994
 30
0.0
 40
9.0103574124329064
 50
197.7287756200815068
 51
203.6812822124520892
  0
ARC
  5
13C10
  8
0
 10
3572.8191037217038684
 20
216.1002988593035923
 30
0.0
 40
1.3603700242006089
 50
202.0609183359545113
 51
217.5958057174487124
  0
ARC
  5
13C11
  8
0
 10
3571.7612861825959953
 20
215.293276063282093
 30
0.0
 40
0.0304533971803293
 50
228.8225792260435867
 51
2.9905512397291609
  0
ARC
  5
13C12
  8
0
 10
3570.130621167380923
 20
215.2736297973395949
 30
0.0
 40
1.6612126674912311
 50
0.7324241990025886
 51
11.4613383974016507
  0
ARC
  5
13C13
  8
0
 10
3566.5463269976130505
 20
214.3584037056650118
 30
0.0
 40
5.3590795693822164
 50
13.4369823564609501
 51
22.5146373851274113
  0
ARC
  5
13C14
  8
0
 10
3568.461642074430074
 20
215.2051371607772978
 30
0.0
 40
3.265880172997456
 50
21.6587246941756213
 51
31.9288963103706003
  0
ARC
  5
13C15
  8
0
 10
3570.9658601192340939
 20
216.7762314507897088
 30
0.0
 40
0.3097693243740147
 50
30.2642157558088307
 51
56.1704642769355118
  0
ARC
  5
13C16
  8
0
 10
3574.199743235283222
 20
216.761194233964801
 30
0.0
 40
2.7907553703499408
 50
203.7075132680658101
 51
210.287160886947504
  0
ARC
  5
13C17
  8
0
 10
3579.0959286457509734
 20
218.911235169448986
 30
0.0
 40
8.1382134204838632
 50
200.497807178821887
 51
203.7075132680658101
  0
ARC
  5
13C18
  8
0
 10
3580.6464939060788311
 20
219.4909001270740987
 30
0.0
 40
9.7935877254773285
 50
197.172534261883186
 51
200.497807178821887
  0
ARC
  5
13C19
  8
0
 10
3574.177428957947086
 20
217.4917877200460055
 30
0.0
 40
3.0226755477073008
 50
189.7268458814608039
 51
197.172534261883186
  0
ARC
  5
13C1A
  8
0
 10
3554.9572240318880176
 20
225.358588798136509
 30
0.0
 40
0.0379350079428946
 50
90.1080710086423835
 51
247.0611912875025951
  0
ARC
  5
13C1B
  8
0
 10
3555.5865257115419809
 20
226.2719960443778007
 30
0.0
 40
1.146386103895628
 50
235.8167858964089021
 51
254.818663624354997
  0
ARC
  5
13C1C
  8
0
 10
3556.974961046010776
 20
230.4849395854350007
 30
0.0
 40
5.5809244664552509
 50
252.3877053949298102
 51
262.0915962543359115
  0
ARC
  5
13C1D
  8
0
 10
3556.5080551274031677
 20
226.6325903034409066
 30
0.0
 40
1.7023141503842341
 50
259.8164609466836055
 51
277.5417685318386134
  0
ARC
  5
13C1E
  8
0
 10
3556.7326626560197838
 20
224.9817434923843109
 30
0.0
 40
0.03676034058642
 50
268.159508099678078
 51
59.4258729781604913
  0
ARC
  5
13C1F
  8
0
 10
3556.2187750014381891
 20
224.2790058552047014
 30
0.0
 40
0.9071782515542965
 50
54.0499552070898304
 51
70.8581460346961336
  0
ARC
  5
13C20
  8
0
 10
3554.7539437350060325
 20
220.0739734798470977
 30
0.0
 40
5.3600451624440488
 50
70.8049545755342251
 51
83.1827985883099217
  0
ARC
  5
13C21
  8
0
 10
3555.1724859757191552
 20
224.1153783813329881
 30
0.0
 40
1.2991158305570569
 50
80.352837396848372
 51
99.5410319991783297
  0
ARC
  5
13C22
  8
0
 10
3556.8098293024918348
 20
229.8090744875555913
 30
0.0
 40
4.78677254679409
 50
247.1966298534059945
 51
269.1412266158567945
  0
ARC
  5
13C23
  8
0
 10
3539.1011950208499002
 20
211.2908330732441016
 30
0.0
 40
10.8166413268536505
 50
130.3527535370803037
 51
162.001710631262597
  0
ARC
  5
13C24
  8
0
 10
3545.2643288759418283
 20
204.4713560039982099
 30
0.0
 40
20.0061316276222101
 50
110.9593780245512988
 51
131.1581115267622977
  0
ARC
  5
13C25
  8
0
 10
3547.314875179226874
 20
200.093826956318992
 30
0.0
 40
24.8299637643660382
 50
101.177960391979596
 51
111.7647360142519943
  0
ARC
  5
13C26
  8
0
 10
3544.7741855424260393
 20
212.7122554943181001
 30
0.0
 40
11.9584686147190293
 50
75.6312381939730329
 51
100.9560226046124995
  0
ARC
  5
13C27
  8
0
 10
3517.1076870486072039
 20
108.9539313531121962
 30
0.0
 40
119.3414934683926987
 50
72.2451272812899532
 51
75.1260698602237085
  0
ARC
  5
13C28
  8
0
 10
3580.0877976684628266
 20
324.864052181026409
 30
0.0
 40
105.6529479869232944
 50
255.4248729771543935
 51
259.1527762582704213
  0
ARC
  5
13C29
  8
0
 10
3558.4984680646339257
 20
211.0539285798309947
 30
0.0
 40
10.1888419271417199
 50
39.7095686643603329
 51
80.3587635810490468
  0
ARC
  5
13C2A
  8
0
 10
3538.5638837016717844
 20
212.7916028435357134
 30
0.0
 40
18.9389768454251488
 50
199.4031171640689024
 51
232.8059938563887954
  0
ARC
  5
13C2B
  8
0
 10
3545.9621074902288456
 20
222.9573609140296071
 30
0.0
 40
31.5103008523235317
 50
233.2641910095009905
 51
256.5500534804556878
  0
ARC
  5
13C2C
  8
0
 10
3549.8276161463700191
 20
237.2818290845461888
 30
0.0
 40
46.3429734219939533
 50
256.0212872235168788
 51
279.9178972022938865
  0
ARC
  5
13C2D
  8
0
 10
3552.1388894280639761
 20
226.6880551290512074
 30
0.0
 40
35.5123088638955835
 50
279.1884648747155779
 51
301.1613057886950742
  0
ARC
  5
13C2E
  8
0
 10
3560.0519092876920695
 20
213.7145576454392142
 30
0.0
 40
20.3162038172084394
 50
300.9972970465619255
 51
332.3540026043685884
  0
ARC
  5
13C2F
  8
0
 10
3563.010298385724127
 20
211.7774666359231901
 30
0.0
 40
16.8002518506496088
 50
333.5246114784790734
 51
349.8829709433114203
  0
ARC
  5
13C30
  8
0
 10
3523.5186205679360683
 20
209.7033448483921916
 30
0.0
 40
0.0250068579293245
 50
195.3542396840342121
 51
336.452409312643681
  0
ARC
  5
13C31
  8
0
 10
3521.7970452342779026
 20
210.2683707642613058
 30
0.0
 40
1.836824313183949
 50
341.7569128013030877
 51
356.482424834836479
  0
ARC
  5
13C32
  8
0
 10
3525.3711415036568724
 20
210.3035072228747993
 30
0.0
 40
1.9722947070021259
 50
183.5259808023689061
 51
197.9178906685278037
  0
ARC
  5
13C33
  8
0
 10
3539.5180136227618277
 20
212.7464057385055014
 30
0.0
 40
14.7797597280312303
 50
200.1537758490376007
 51
236.9374160998773107
  0
ARC
  5
13C34
  8
0
 10
3547.8881353940391818
 20
224.3122547126206996
 30
0.0
 40
29.0477267192204707
 50
235.546713807592397
 51
253.0442319157434952
  0
ARC
  5
13C35
  8
0
 10
3549.1285815800551973
 20
227.9921572525431088
 30
0.0
 40
32.929615102023341
 50
252.8470226807480117
 51
265.3960042537498225
  0
ARC
  5
13C36
  8
0
 10
3549.1703995013490385
 20
227.9823510194802054
 30
0.0
 40
32.9232245628336315
 50
265.3220941429639197
 51
276.1792138830875842
  0
ARC
  5
13C37
  8
0
 10
3549.3525630120998358
 20
226.4492375340560102
 30
0.0
 40
31.3794146261173701
 50
276.149848175944328
 51
294.6710174062637861
  0
ARC
  5
13C38
  8
0
 10
3551.5914755210478688
 20
222.2671026718595044
 30
0.0
 40
26.6460546847904496
 50
294.0498205196562935
 51
312.5657504765263752
  0
ARC
  5
13C39
  8
0
 10
3560.6721710446640827
 20
212.3903816793676924
 30
0.0
 40
13.2293281590202998
 50
312.5355268134445055
 51
346.121309862583189
  0
ARC
  5
13C3A
  8
0
 10
3545.9245476840519586
 20
225.8928172343904919
 30
0.0
 40
30.008659631113229
 50
255.8930406008419141
 51
265.699765143974787
  0
ARC
  5
13C3B
  8
0
 10
3544.960450268844852
 20
215.7188430158784058
 30
0.0
 40
19.7920317142135396
 50
266.2744399140182736
 51
279.8540024475619248
  0
ARC
  5
13C3C
  8
0
 10
3536.2490172736638669
 20
266.4550005508513095
 30
0.0
 40
71.2706094945827857
 50
279.7736260858077912
 51
283.9423836959333016
  0
ARC
  5
13C3D
  8
0
 10
3586.381281541286171
 20
56.9240956013523203
 30
0.0
 40
144.1779927096816039
 50
100.3070967178254023
 51
103.2149898221474018
  0
ARC
  5
13C3E
  8
0
 10
3556.6853100029670713
 20
220.6520545614669118
 30
0.0
 40
22.2213307777192703
 50
280.1056963190459896
 51
295.0091266288507086
  0
ARC
  5
13C3F
  8
0
 10
3557.5786432428790249
 20
218.2566797141629991
 30
0.0
 40
19.6739256414155186
 50
295.6006197941724736
 51
308.7126960002449891
  0
ARC
  5
13C40
  8
0
 10
3527.0903743713120093
 20
207.194418522131599
 30
0.0
 40
0.0183236751777616
 50
245.8887615017185908
 51
324.4726698595777066
  0
ARC
  5
13C41
  8
0
 10
3526.9338433409470781
 20
207.2445661586291976
 30
0.0
 40
0.181903722034465
 50
340.4750531127800741
 51
11.1859160770098391
  0
ARC
  5
13C42
  8
0
 10
3524.1028734990300109
 20
206.7636814837823067
 30
0.0
 40
3.0533638025507108
 50
9.7326193444633393
 51
18.7797590255635605
  0
ARC
  5
13C43
  8
0
 10
3518.4112419942489396
 20
205.0028974671166111
 30
0.0
 40
9.0103574124329064
 50
17.728775620081521
 51
23.6812822124536311
  0
ARC
  5
13C44
  8
0
 10
3525.4021013629790104
 20
208.1109507360926898
 30
0.0
 40
1.3603700242006089
 50
22.0609183359545113
 51
37.5958057174487124
  0
ARC
  5
13C45
  8
0
 10
3526.459918902085974
 20
208.9179735321141891
 30
0.0
 40
0.0304533971803293
 50
48.8225792260436009
 51
182.9905512397290863
  0
ARC
  5
13C46
  8
0
 10
3528.0905839173028653
 20
208.9376197980568008
 30
0.0
 40
1.6612126674912311
 50
180.7324241990025087
 51
191.4613383973999987
  0
ARC
  5
13C47
  8
0
 10
3531.6748780870698283
 20
209.8528458897312134
 30
0.0
 40
5.3590795693822164
 50
193.4369823564609021
 51
202.5146373851274006
  0
ARC
  5
13C48
  8
0
 10
3529.7595630102528048
 20
209.0061124346190979
 30
0.0
 40
3.265880172997456
 50
201.6587246941755893
 51
211.9288963103705896
  0
ARC
  5
13C49
  8
0
 10
3527.2553449654501492
 20
207.4350181446066017
 30
0.0
 40
0.3097693243740147
 50
210.2642157558088059
 51
236.1704642769354905
  0
ARC
  5
13C4A
  8
0
 10
3524.0214618494001115
 20
207.4500553614313958
 30
0.0
 40
2.7907553703499408
 50
23.7075132680657816
 51
30.2871608869475217
  0
ARC
  5
13C4B
  8
0
 10
3519.1252764389319054
 20
205.3000144259474098
 30
0.0
 40
8.1382134204838632
 50
20.4978071788219189
 51
23.7075132680657816
  0
ARC
  5
13C4C
  8
0
 10
3517.5747111786049572
 20
204.7203494683222118
 30
0.0
 40
9.7935877254773285
 50
17.1725342618832002
 51
20.4978071788219189
  0
ARC
  5
13C4D
  8
0
 10
3524.0437761267348833
 20
206.719461875350305
 30
0.0
 40
3.0226755477073008
 50
9.7268458814608287
 51
17.1725342618832002
  0
ARC
  5
13C4E
  8
0
 10
3535.2235711951630037
 20
199.8153580182851954
 30
0.0
 40
0.0205137081169042
 50
256.5045332304538874
 51
17.1538830697591003
  0
ARC
  5
13C4F
  8
0
 10
3532.7429030947719184
 20
196.9061383942380132
 30
0.0
 40
3.8405917716488331
 50
49.3820944772002974
 51
59.5378544582274571
  0
ARC
  5
13C50
  8
0
 10
3503.2332167576528263
 20
149.8551295364468103
 30
0.0
 40
59.3784791519334121
 50
58.0102997840003312
 51
59.6617498054698601
  0
ARC
  5
13C51
  8
0
 10
3548.629739829250866
 20
231.105935874793488
 30
0.0
 40
33.7270250084264234
 50
241.2940251403726108
 51
242.8235519006138077
  0
ARC
  5
13C52
  8
0
 10
3532.4177150204318423
 20
201.5013962031478911
 30
0.0
 40
0.0258788306772086
 50
61.2940251403718079
 51
211.9733810036914008
  0
ARC
  5
13C53
  8
0
 10
3535.204751919643968
 20
204.3782114941822954
 30
0.0
 40
4.0305734481674129
 50
225.8195356365000919
 51
236.3200854431196944
  0
ARC
  5
13C54
  8
0
 10
3540.9557996106468636
 20
212.5105313583127042
 30
0.0
 40
13.9898524754418805
 50
235.1899512327449884
 51
242.9892743550815055
  0
ARC
  5
13C55
  8
0
 10
3536.469633574522959
 20
203.7470786127624933
 30
0.0
 40
4.1449130125255698
 50
243.2220010715955141
 51
252.4354866939060003
  0
ARC
  5
13C56
  8
0
 10
3510.8343416628267732
 20
162.4147504255155923
 30
0.0
 40
44.5985293856209495
 50
57.0421004290023816
 51
60.9654051464649669
  0
ARC
  5
13C57
  8
0
 10
3540.6950540263028415
 20
197.3860632893519949
 30
0.0
 40
0.0323064439339847
 50
272.1095221926290719
 51
28.0585610405702113
  0
ARC
  5
13C58
  8
0
 10
3540.2574360248399898
 20
196.9596644828482113
 30
0.0
 40
0.642090959675053
 50
43.4518778394376994
 51
67.8884196278123824
  0
ARC
  5
13C59
  8
0
 10
3538.3389302179471088
 20
192.7595702815316088
 30
0.0
 40
5.2590967859675768
 50
65.7477769470525573
 51
79.458900106062373
  0
ARC
  5
13C5A
  8
0
 10
3539.0681646650200491
 20
196.8752624472325863
 30
0.0
 40
1.0800547336501281
 50
77.5487752235408152
 51
96.1443565495980437
  0
ARC
  5
13C5B
  8
0
 10
3538.9570629547579301
 20
197.9122005301501019
 30
0.0
 40
0.0371855169583888
 50
96.9517286394546858
 51
216.5519718599406076
  0
ARC
  5
13C5C
  8
0
 10
3539.5375161336501151
 20
198.5708581569492139
 30
0.0
 40
0.9143248694506878
 50
228.1244931345173086
 51
248.66980642107319
  0
ARC
  5
13C5D
  8
0
 10
3541.1681919594170722
 20
202.2022377912259969
 30
0.0
 40
4.8941097909663771
 50
246.3501374318570925
 51
253.5169714771888039
  0
ARC
  5
13C5E
  8
0
 10
3541.1477868828301325
 20
201.9270848213429872
 30
0.0
 40
4.6248450358252571
 50
252.7921763894914875
 51
261.2403776496428236
  0
ARC
  5
13C5F
  8
0
 10
3540.5788348536780177
 20
198.2983166914650894
 30
0.0
 40
0.95180705320001
 50
261.8238713334355907
 51
277.0856602537369895
  0
ARC
  5
13C60
  8
0
 10
3538.5054328985797838
 20
193.2977140159445923
 30
0.0
 40
4.596807054398047
 50
61.861155867461008
 51
84.495377722850904
  0
ARC
  5
13C61
  8
0
 10
3571.1308307133708695
 20
207.1143698243922984
 30
0.0
 40
0.0183236751777616
 50
215.5273301404222934
 51
294.1112384982814092
  0
ARC
  5
13C62
  8
0
 10
3571.2873617437348912
 20
207.1645174608898969
 30
0.0
 40
0.181903722034465
 50
168.8140839229901928
 51
199.5249468872183058
  0
ARC
  5
13C63
  8
0
 10
3574.1183315856528679
 20
206.6836327860428923
 30
0.0
 40
3.0533638025507108
 50
161.2202409744363933
 51
170.267380655536698
  0
ARC
  5
13C64
  8
0
 10
3579.8099630904339392
 20
204.9228487693773104
 30
0.0
 40
9.0103574124329064
 50
156.3187177875479108
 51
162.2712243799184932
  0
ARC
  5
13C65
  8
0
 10
3572.8191037217038684
 20
208.0309020383533891
 30
0.0
 40
1.3603700242006089
 50
142.4041942825512876
 51
157.9390816640454887
  0
ARC
  5
13C66
  8
0
 10
3571.7612861825959953
 20
208.8379248343748884
 30
0.0
 40
0.0304533971803293
 50
357.0094487602708
 51
131.1774207739564133
  0
ARC
  5
13C67
  8
0
 10
3570.130621167380923
 20
208.8575711003173865
 30
0.0
 40
1.6612126674912311
 50
348.5386616025983244
 51
359.2675758009958145
  0
ARC
  5
13C68
  8
0
 10
3566.5463269976130505
 20
209.7727971919919128
 30
0.0
 40
5.3590795693822164
 50
337.4853626148725994
 51
346.5630176435391263
  0
ARC
  5
13C69
  8
0
 10
3568.461642074430074
 20
208.926063736879712
 30
0.0
 40
3.265880172997456
 50
328.0711036896294104
 51
338.3412753058244107
  0
ARC
  5
13C6A
  8
0
 10
3570.9658601192340939
 20
207.354969446867301
 30
0.0
 40
0.3097693243740147
 50
303.8295357230645095
 51
329.7357842441912226
  0
ARC
  5
13C6B
  8
0
 10
3574.199743235283222
 20
207.3700066636920951
 30
0.0
 40
2.7907553703499408
 50
149.712839113052496
 51
156.2924867319341899
  0
ARC
  5
13C6C
  8
0
 10
3579.0959286457509734
 20
205.2199657282079954
 30
0.0
 40
8.1382134204838632
 50
156.2924867319341899
 51
159.502192821178113
  0
ARC
  5
13C6D
  8
0
 10
3580.6464939060788311
 20
204.6403007705829111
 30
0.0
 40
9.7935877254773285
 50
159.502192821178113
 51
162.827465738116814
  0
ARC
  5
13C6E
  8
0
 10
3574.177428957947086
 20
206.6394131776110044
 30
0.0
 40
3.0226755477073008
 50
162.827465738116814
 51
170.2731541185391109
  0
ARC
  5
13C6F
  8
0
 10
3554.9572240318880176
 20
198.7726120995203871
 30
0.0
 40
0.0379350079428946
 50
112.9388087124974049
 51
269.8919289913575881
  0
ARC
  5
13C70
  8
0
 10
3555.5865257115419809
 20
197.8592048532790955
 30
0.0
 40
1.146386103895628
 50
105.181336375645003
 51
124.1832141035909984
  0
ARC
  5
13C71
  8
0
 10
3556.974961046010776
 20
193.6462613122220091
 30
0.0
 40
5.5809244664552509
 50
97.9084037456640743
 51
107.6122946050702041
  0
ARC
  5
13C72
  8
0
 10
3556.5080551274031677
 20
197.4986105942159895
 30
0.0
 40
1.7023141503842341
 50
82.4582314681613866
 51
100.1835390533162951
  0
ARC
  5
13C73
  8
0
 10
3556.7326626560197838
 20
199.1494574052726136
 30
0.0
 40
0.03676034058642
 50
300.5741270218395016
 51
91.840491900321922
  0
ARC
  5
13C74
  8
0
 10
3556.2187750014381891
 20
199.8521950424523084
 30
0.0
 40
0.9071782515542965
 50
289.1418539653038238
 51
305.9500447929102052
  0
ARC
  5
13C75
  8
0
 10
3554.7539437350060325
 20
204.0572274178099121
 30
0.0
 40
5.3600451624440488
 50
276.8172014116901209
 51
289.1950454244657749
  0
ARC
  5
13C76
  8
0
 10
3555.1724859757191552
 20
200.0158225163239081
 30
0.0
 40
1.2991158305570569
 50
260.4589680008216988
 51
279.647162603151628
  0
ARC
  5
13C77
  8
0
 10
3556.8098293024918348
 20
194.3221264101013901
 30
0.0
 40
4.78677254679409
 50
90.8587733841431771
 51
112.8033701465940055
  0
ARC
  5
13C78
  8
0
 10
3539.1011950208499002
 20
212.8403678244127946
 30
0.0
 40
10.8166413268536505
 50
197.998289368737403
 51
229.6472464629196111
  0
ARC
  5
13C79
  8
0
 10
3545.2643288759418283
 20
219.6598448936587999
 30
0.0
 40
20.0061316276222101
 50
228.8418884732377023
 51
249.040621975448687
  0
ARC
  5
13C7A
  8
0
 10
3547.314875179226874
 20
224.0373739413379894
 30
0.0
 40
24.8299637643660382
 50
248.2352639857479915
 51
258.8220396080203045
  0
ARC
  5
13C7B
  8
0
 10
3544.7741855424260393
 20
211.4189454033389097
 30
0.0
 40
11.9584686147190293
 50
259.0439773953875147
 51
284.3687618060270097
  0
ARC
  5
13C7C
  8
0
 10
3517.1076870486072039
 20
315.1772695445447994
 30
0.0
 40
119.3414934683926987
 50
284.8739301397762915
 51
287.7548727187099757
  0
ARC
  5
13C7D
  8
0
 10
3580.0877976684628266
 20
99.2671487166306008
 30
0.0
 40
105.6529479869232944
 50
100.8472237417295929
 51
104.575127022845507
  0
ARC
  5
13C7E
  8
0
 10
3558.4984680646339257
 20
213.0772723178259866
 30
0.0
 40
10.1888419271417199
 50
279.6412364189508821
 51
320.2904313356397097
  0
ARC
  5
13C7F
  8
0
 10
3538.1046048071311816
 20
212.0656004488284907
 30
0.0
 40
18.2723476478613307
 50
162.2658850815602136
 51
197.7341149184397864
  0
ARC
  5
13C80
  8
0
 10
3548.9281890348697743
 20
212.0656004488284907
 30
0.0
 40
25.5949968538012911
 50
175.780112370505492
 51
184.2198876294928027
  0
ARC
  5
13C81
  8
0
 10
3489.0722693002721826
 20
212.0656004488284907
 30
0.0
 40
34.6108775348971278
 50
356.8366476627584802
 51
3.163352337241462
  0
ARC
  5
13C82
  8
0
 10
3539.4855989264910932
 20
212.0656004488284907
 30
0.0
 40
14.5283416439211308
 50
162.3234667555431088
 51
197.6765332444568912
  0
ARC
  5
13C83
  8
0
 10
3537.3237103047331402
 20
212.0656004488284907
 30
0.0
 40
8.8887228065633472
 50
163.2112580228842944
 51
196.788741977114114
  0
ARC
  5
13C84
  8
0
 10
3560.6928162120220804
 20
212.0656004488284907
 30
0.0
 40
7.8791156681017753
 50
315.7503064437124181
 51
44.2496935562876317
  0
ARC
  5
13C85
  8
0
 10
3560.874863767855004
 20
212.0656004488284907
 30
0.0
 40
12.9573932046120106
 50
347.3006156399716815
 51
12.6993843600283594
  0
ARC
  5
13C86
  8
0
 10
3561.1479866680451778
 20
212.0656004488284907
 30
0.0
 40
18.6842704912236997
 50
350.0162998706422854
 51
9.9837001293576773
  0
ARC
  5
13D13
  8
0
 10
3549.8277670128059071
 20
186.8451163176841021
 30
0.0
 40
46.3471393451151386
 50
80.083192615569061
 51
103.9776229586437069
  0
ENDSEC
  0
EOF
