  0
SECTION
  2
HEADER
  9
$ACADVER
  1
AC1009
  9
$INSBASE
 10
3404.6454140200539769
 20
134.0102318517486992
 30
0.0
  9
$EXTMIN
 10
3382.4216897319438431
 20
107.3108204733292013
 30
-0.0015258207003583
  9
$EXTMAX
 10
3404.7605891777548095
 20
167.4588441072436922
 30
0.0000000349246037
  9
$LIMMIN
 10
0.0
 20
0.0
  9
$LIMMAX
 10
11.6929133858000007
 20
8.2677165353999982
  9
$ORTHOMODE
 70
     1
  9
$REGENMODE
 70
     1
  9
$FILLMODE
 70
     1
  9
$QTEXTMODE
 70
     0
  9
$MIRRTEXT
 70
     0
  9
$DRAGMODE
 70
     2
  9
$LTSCALE
 40
0.6431102362
  9
$OSMODE
 70
  4095
  9
$ATTMODE
 70
     1
  9
$TEXTSIZE
 40
0.2
  9
$TRACEWID
 40
0.05
  9
$TEXTSTYLE
  7
STANDARD
  9
$CLAYER
  8
0
  9
$CELTYPE
  6
BYLAYER
  9
$CECOLOR
 62
   256
  9
$DIMSCALE
 40
1.0
  9
$DIMASZ
 40
0.1875
  9
$DIMEXO
 40
0.0625
  9
$DIMDLI
 40
0.4443307087
  9
$DIMRND
 40
0.0
  9
$DIMDLE
 40
0.0
  9
$DIMEXE
 40
0.125
  9
$DIMTP
 40
0.01
  9
$DIMTM
 40
0.01
  9
$DIMTXT
 40
2.0
  9
$DIMCEN
 40
0.1052362205
  9
$DIMTSZ
 40
0.0
  9
$DIMTOL
 70
     1
  9
$DIMLIM
 70
     0
  9
$DIMTIH
 70
     1
  9
$DIMTOH
 70
     1
  9
$DIMSE1
 70
     0
  9
$DIMSE2
 70
     0
  9
$DIMTAD
 70
     0
  9
$DIMZIN
 70
     0
  9
$DIMBLK
  1

  9
$DIMASO
 70
     1
  9
$DIMSHO
 70
     1
  9
$DIMPOST
  1
\X
  9
$DIMAPOST
  1

  9
$DIMALT
 70
     1
  9
$DIMALTD
 70
     2
  9
$DIMALTF
 40
25.3999999999999986
  9
$DIMLFAC
 40
1.0
  9
$DIMTOFL
 70
     0
  9
$DIMTVP
 40
0.0
  9
$DIMTIX
 70
     0
  9
$DIMSOXD
 70
     0
  9
$DIMSAH
 70
     0
  9
$DIMBLK1
  1

  9
$DIMBLK2
  1

  9
$DIMSTYLE
  2
STANDARD
  9
$DIMCLRD
 70
     0
  9
$DIMCLRE
 70
     0
  9
$DIMCLRT
 70
     0
  9
$DIMTFAC
 40
1.0
  9
$DIMGAP
 40
0.09
  9
$LUNITS
 70
     2
  9
$LUPREC
 70
     4
  9
$SKETCHINC
 40
0.1
  9
$FILLETRAD
 40
0.0
  9
$AUNITS
 70
     0
  9
$AUPREC
 70
     0
  9
$MENU
  1
.
  9
$ELEVATION
 40
0.0
  9
$PELEVATION
 40
0.0
  9
$THICKNESS
 40
0.0
  9
$LIMCHECK
 70
     0
  9
$BLIPMODE
 70
     0
  9
$CHAMFERA
 40
0.0
  9
$CHAMFERB
 40
0.0
  9
$SKPOLY
 70
     0
  9
$TDCREATE
 40
2458060.468368056230247
  9
$TDUPDATE
 40
2459550.4077893518842757
  9
$TDINDWG
 40
0.3835603009
  9
$TDUSRTIMER
 40
0.3835603009
  9
$USRTIMER
 70
     1
  9
$ANGBASE
 50
0.0
  9
$ANGDIR
 70
     0
  9
$PDMODE
 70
     0
  9
$PDSIZE
 40
0.3125
  9
$PLINEWID
 40
0.0
  9
$COORDS
 70
     1
  9
$SPLFRAME
 70
     0
  9
$SPLINETYPE
 70
     6
  9
$SPLINESEGS
 70
     8
  9
$ATTDIA
 70
     1
  9
$ATTREQ
 70
     1
  9
$HANDLING
 70
     1
  9
$HANDSEED
  5
1B0E0
  9
$SURFTAB1
 70
     6
  9
$SURFTAB2
 70
     6
  9
$SURFTYPE
 70
     6
  9
$SURFU
 70
     6
  9
$SURFV
 70
     6
  9
$UCSNAME
  2

  9
$UCSORG
 10
0.0
 20
0.0
 30
0.0
  9
$UCSXDIR
 10
1.0
 20
0.0
 30
0.0
  9
$UCSYDIR
 10
0.0
 20
1.0
 30
0.0
  9
$PUCSNAME
  2

  9
$PUCSORG
 10
0.0
 20
0.0
 30
0.0
  9
$PUCSXDIR
 10
1.0
 20
0.0
 30
0.0
  9
$PUCSYDIR
 10
0.0
 20
1.0
 30
0.0
  9
$USERI1
 70
     0
  9
$USERI2
 70
     0
  9
$USERI3
 70
     0
  9
$USERI4
 70
     0
  9
$USERI5
 70
     0
  9
$USERR1
 40
0.0
  9
$USERR2
 40
0.0
  9
$USERR3
 40
0.0
  9
$USERR4
 40
0.0
  9
$USERR5
 40
0.0
  9
$WORLDVIEW
 70
     1
  9
$SHADEDGE
 70
     3
  9
$SHADEDIF
 70
    70
  9
$TILEMODE
 70
     1
  9
$MAXACTVP
 70
    64
  9
$PLIMCHECK
 70
     0
  9
$PEXTMIN
 10
1.0000000000000000E+20
 20
1.0000000000000000E+20
 30
1.0000000000000000E+20
  9
$PEXTMAX
 10
-1.0000000000000000E+20
 20
-1.0000000000000000E+20
 30
-1.0000000000000000E+20
  9
$PLIMMIN
 10
0.0
 20
0.0
  9
$PLIMMAX
 10
12.0
 20
9.0
  9
$UNITMODE
 70
     0
  9
$VISRETAIN
 70
     1
  9
$PLINEGEN
 70
     0
  9
$PSLTSCALE
 70
     1
  0
ENDSEC
  0
SECTION
  2
TABLES
  0
TABLE
  2
VPORT
 70
     1
  0
VPORT
  2
*ACTIVE
 70
     0
 10
0.0
 20
0.0
 11
1.0
 21
1.0
 12
-409.9529279279631169
 22
11.3895700935365607
 13
0.0
 23
0.0
 14
1.0
 24
1.0
 15
0.0
 25
0.0
 16
0.0
 26
0.0
 36
17.1152628219792007
 17
3803.5440673828129547
 27
125.9952621967499056
 37
0.0
 40
60.5902885135756719
 41
2.344785276073619
 42
50.0
 43
0.0
 44
0.0
 50
0.0
 51
0.0
 71
     0
 72
   100
 73
     1
 74
     1
 75
     0
 76
     0
 77
     0
 78
     0
  0
ENDTAB
  0
TABLE
  2
LTYPE
 70
     2
  0
LTYPE
  2
CONTINUOUS
 70
     0
  3
Solid line
 72
    65
 73
     0
 40
0.0
  0
LTYPE
  2
PHANTOM2
 70
     0
  3
___ _ _ ___ _ _ ___ _ _ ___ _ _
 72
    65
 73
     6
 40
1.25
 49
0.625
 49
-0.125
 49
0.125
 49
-0.125
 49
0.125
 49
-0.125
  0
ENDTAB
  0
TABLE
  2
LAYER
 70
     2
  0
LAYER
  2
0
 70
     0
 62
   255
  6
CONTINUOUS
  0
LAYER
  2
DEFPOINTS
 70
     0
 62
     7
  6
CONTINUOUS
  0
ENDTAB
  0
TABLE
  2
STYLE
 70
     1
  0
STYLE
  2
STANDARD
 70
     0
 40
0.0
 41
0.8
 50
0.0
 71
     0
 42
0.2
  3
txt
  4

  0
ENDTAB
  0
TABLE
  2
VIEW
 70
     0
  0
ENDTAB
  0
TABLE
  2
UCS
 70
     0
  0
ENDTAB
  0
TABLE
  2
APPID
 70
     9
  0
APPID
  2
ACAD
 70
     0
  0
APPID
  2
ACAD_MLEADERVER
 70
     0
  0
APPID
  2
ACAD_EXEMPT_FROM_CAD_STANDARDS
 70
     0
  0
APPID
  2
ACAD_NAV_VCDISPLAY
 70
     0
  0
APPID
  2
ACAECLAYERSTANDARD
 70
     0
  0
APPID
  2
ACCMTRANSPARENCY
 70
     0
  0
APPID
  2
ACAD_DSTYLE_DIMJAG
 70
     0
  0
APPID
  2
ACAD_DSTYLE_DIMTALN
 70
     0
  0
APPID
  2
ACDBATTR
 70
     0
  0
ENDTAB
  0
TABLE
  2
DIMSTYLE
 70
     1
  0
DIMSTYLE
  2
STANDARD
 70
     0
  3

  4

  5

  6

  7

 40
1.0
 41
0.1875
 42
0.0625
 43
0.38
 44
0.125
 45
0.0
 46
0.0
 47
0.01
 48
0.01
140
0.15625
141
0.09
142
0.0
143
25.3999999999999986
144
1.0
145
0.0
146
1.0
147
0.09
 71
     1
 72
     0
 73
     1
 74
     1
 75
     0
 76
     0
 77
     0
 78
     4
170
     0
171
     2
172
     0
173
     0
174
     0
175
     0
176
     0
177
     0
178
     0
  0
ENDTAB
  0
ENDSEC
  0
SECTION
  2
BLOCKS
  0
BLOCK
  8
0
  2
$MODEL_SPACE
 70
     0
 10
0.0
 20
0.0
 30
0.0
  3
$MODEL_SPACE
  1

  0
ENDBLK
  5
21
  8
0
  0
BLOCK
 67
     1
  8
0
  2
$PAPER_SPACE
 70
     0
 10
0.0
 20
0.0
 30
0.0
  3
$PAPER_SPACE
  1

  0
ENDBLK
  5
1D
 67
     1
  8
0
  0
BLOCK
  8
0
  2
A$C6781DE70
 70
     2
 10
0.0
 20
0.0
 30
0.0
  3
A$C6781DE70
  1

  0
LINE
  5
1A391
  8
0
 10
-22.1850393701001884
 20
22.4270302947593585
 30
0.0
 11
-14.1929133857997805
 21
22.4270302947593585
 31
0.0
  0
LINE
  5
1A392
  8
0
 10
-22.1551181101999717
 20
21.9545893498593294
 30
0.0
 11
-14.2228346457000008
 21
21.9545893498593294
 31
0.0
  0
LINE
  5
1A393
  8
0
 10
-22.1850393701001884
 20
22.4270302947593585
 30
0.0
 11
-22.1850393700001405
 21
21.9845106097593508
 31
0.0
  0
ARC
  5
1A394
  8
0
 10
-22.1551181100930989
 20
21.9845106097661187
 30
0.0
 40
0.0299212599067617
 50
180.0000000129477087
 51
269.9999997955716253
  0
LINE
  5
1A395
  8
0
 10
-14.1929133857997805
 20
22.4270302947593585
 30
0.0
 11
-14.1929133857997805
 21
21.9845106097593508
 31
0.0
  0
ARC
  5
1A396
  8
0
 10
-14.2228346457000008
 20
21.9845106097593508
 30
0.0
 40
0.0299212599000001
 50
270.0
 51
0.0
  0
LINE
  5
1A397
  8
0
 10
-21.4988844600002302
 20
21.9545893498593294
 30
0.0
 11
-21.4944457271503815
 21
21.9132273830429902
 31
0.0
  0
ARC
  5
1A398
  8
0
 10
-21.4866166636002092
 20
21.9140675539593417
 30
0.0
 40
0.0078740156999995
 50
186.1252180547934074
 51
268.0000000523988888
  0
LINE
  5
1A399
  8
0
 10
-21.4868914627777485
 20
21.9061983348967111
 30
0.0
 11
-21.3947409100924197
 21
21.9029803667722582
 31
0.0
  0
ARC
  5
1A39A
  8
0
 10
-21.3944661089963084
 20
21.9108496407779398
 30
0.0
 40
0.0078740706765504
 50
268.0000000523988888
 51
349.8744339065829081
  0
LINE
  5
1A39B
  8
0
 10
-21.3867146782999988
 20
21.9094653318593693
 30
0.0
 11
-21.3845601250718609
 21
21.9215297416202191
 31
0.0
  0
LINE
  5
1A39C
  8
0
 10
-21.3881479110000292
 20
21.9545893498593294
 30
0.0
 11
-21.3836521876000916
 21
21.91316273375935
 31
0.0
  0
ARC
  5
1A39D
  8
0
 10
-21.3758727128247301
 20
21.9140069824593411
 30
0.0
 40
0.0078251507108568
 50
186.1936473966217136
 51
271.0189113791250861
  0
LINE
  5
1A39E
  8
0
 10
-21.375733562700141
 20
21.9061830690593489
 30
0.0
 11
-21.2854899842000087
 21
21.9029803665593512
 31
0.0
  0
ARC
  5
1A39F
  8
0
 10
-21.2842138364421807
 20
21.9113779663106207
 30
0.0
 40
0.0084940116954613
 50
261.3591140716060863
 51
347.4269321068716749
  0
LINE
  5
1A3A0
  8
0
 10
-21.2759235180001305
 20
21.9095289517593415
 30
0.0
 11
-21.2679248296999504
 21
21.9545893498593294
 31
0.0
  0
LINE
  5
1A3A1
  8
0
 10
-21.0634852764001188
 20
21.9545893498593294
 30
0.0
 11
-21.0584651521599007
 21
21.9130723990995797
 31
0.0
  0
ARC
  5
1A3A2
  8
0
 10
-21.0504021940773782
 20
21.9140473515124405
 30
0.0
 40
0.0081216885716093
 50
186.8945881570946028
 51
264.1749298282555856
  0
LINE
  5
1A3A3
  8
0
 10
-21.05122647728194
 20
21.9059676001268713
 30
0.0
 11
-20.9617216088599889
 21
21.9029970019633389
 31
0.0
  0
ARC
  5
1A3A4
  8
0
 10
-20.9600043440018489
 20
21.9120716901652983
 30
0.0
 40
0.0092357438550738
 50
259.2842439634165999
 51
345.2147421251884793
  0
LINE
  5
1A3A5
  8
0
 10
-20.9510744040999306
 20
21.9097147561593601
 30
0.0
 11
-20.9432758693001198
 21
21.9545893498593294
 31
0.0
  0
LINE
  5
1A3A6
  8
0
 10
-20.8484579613000314
 20
21.9545893498593294
 30
0.0
 11
-20.8430883249684484
 21
21.912275736058799
 31
0.0
  0
ARC
  5
1A3A7
  8
0
 10
-20.8352769545258489
 20
21.9132670061196997
 30
0.0
 40
0.0078740157812446
 50
187.2322299719633918
 51
269.0003460494316982
  0
LINE
  5
1A3A8
  8
0
 10
-20.8354143275000787
 20
21.9053941887593489
 30
0.0
 11
-20.7431959406790192
 21
21.9037850679710289
 31
0.0
  0
ARC
  5
1A3A9
  8
0
 10
-20.7430585171296116
 20
21.91166078379106
 30
0.0
 40
0.0078769146821632
 50
269.0003460494316982
 51
305.125913489303116
  0
LINE
  5
1A3AA
  8
0
 10
-20.7598881970998299
 20
21.9545893498593294
 30
0.0
 11
-20.7544822079998994
 21
21.9122434159593489
 31
0.0
  0
ARC
  5
1A3AB
  8
0
 10
-20.7466608326335518
 20
21.9132419125346907
 30
0.0
 40
0.0078848530762646
 50
187.2751716392617141
 51
267.1659534289026965
  0
LINE
  5
1A3AC
  8
0
 10
-20.7470506856043393
 20
21.9053667031599595
 30
0.0
 11
-20.6561458802998494
 21
21.9037845109593583
 31
0.0
  0
ARC
  5
1A3AD
  8
0
 10
-20.6557883753462193
 20
21.9133333644328694
 30
0.0
 40
0.0095555435455562
 50
267.8558721869208057
 51
342.2859925952603248
  0
LINE
  5
1A3AE
  8
0
 10
-20.6466858876001389
 20
21.9104259378593511
 30
0.0
 11
-20.6384254385811801
 21
21.9545893498593294
 31
0.0
  0
LINE
  5
1A3AF
  8
0
 10
-20.5470770241276988
 20
21.9545893498593294
 30
0.0
 11
-20.5420892043985113
 21
21.9126725951267893
 31
0.0
  0
ARC
  5
1A3B0
  8
0
 10
-20.5342967404085393
 20
21.9135998473884683
 30
0.0
 40
0.0078474385496222
 50
186.7859149031056063
 51
268.887139619941081
  0
ARC
  5
1A3B1
  8
0
 10
-20.449342422944941
 20
23.467381761833991
 30
0.0
 40
1.563945257501471
 50
266.8805389607351799
 51
270.2585224853349928
  0
ARC
  5
1A3B2
  8
0
 10
-20.4420471641797086
 20
21.9112722414435801
 30
0.0
 40
0.0078234580660355
 50
268.2519218261085143
 51
350.7241836809006941
  0
LINE
  5
1A3B3
  8
0
 10
-20.434326006910851
 20
21.9100111995969904
 30
0.0
 11
-20.4270453738445212
 21
21.9545893498593294
 31
0.0
  0
LINE
  5
1A3B4
  8
0
 10
-20.3798645031001797
 20
21.9545893498593294
 30
0.0
 11
-20.3871525615500104
 21
21.9105539711593487
 31
0.0
  0
ARC
  5
1A3B5
  8
0
 10
-20.3945177736200094
 20
21.9112915555665211
 30
0.0
 40
0.0074020523905562
 50
267.6715964835962041
 51
354.2812179762444202
  0
ARC
  5
1A3B6
  8
0
 10
-20.4058591407774585
 20
22.4119260686298709
 30
0.0
 40
0.5081504089803146
 50
266.4075332380498935
 51
271.2449700331433746
  0
ARC
  5
1A3B7
  8
0
 10
-20.500644284364629
 20
21.4669522286654413
 30
0.0
 40
0.4389653942178622
 50
84.727905692285276
 51
91.9422749612405852
  0
ARC
  5
1A3B8
  8
0
 10
-20.4501944792014001
 20
23.2026303498026891
 30
0.0
 40
1.2986091353573179
 50
267.1164767500567905
 51
269.5537039034667828
  0
ARC
  5
1A3B9
  8
0
 10
-20.4405547501664806
 20
21.1517522767704484
 30
0.0
 40
0.7528992850923178
 50
87.9758220149790588
 51
89.6060355591135931
  0
ARC
  5
1A3BA
  8
0
 10
-20.4215591433030603
 20
22.2503502153307089
 30
0.0
 40
0.3462518217840854
 50
269.5530867856064106
 51
271.2573276684871075
  0
LINE
  5
1A3BB
  8
0
 10
-20.1980478410000615
 20
21.9545893498593294
 30
0.0
 11
-20.1917140620871614
 21
21.9113228452488116
 31
0.0
  0
ARC
  5
1A3BC
  8
0
 10
-20.183923080382101
 20
21.9124633662147801
 30
0.0
 40
0.0078740195579257
 50
188.3283668559890884
 51
269.9483246420683145
  0
LINE
  5
1A3BD
  8
0
 10
-20.1839301820000401
 20
21.90458934985935
 30
0.0
 11
-20.0916674670002102
 21
21.90458934985935
 31
0.0
  0
ARC
  5
1A3BE
  8
0
 10
-20.0916674674463103
 20
21.9124633660590007
 30
0.0
 40
0.0078740161996507
 50
270.0000032488109127
 51
351.6716307123555794
  0
LINE
  5
1A3BF
  8
0
 10
-20.0838764891127504
 20
21.9113228452488116
 30
0.0
 11
-20.0825846606962806
 21
21.9201474165438697
 31
0.0
  0
LINE
  5
1A3C0
  8
0
 10
-20.0871347560891991
 20
21.9545893498593294
 30
0.0
 11
-20.0815081842001817
 21
21.9119990309593504
 31
0.0
  0
LINE
  5
1A3C1
  8
0
 10
-19.9667890247001196
 20
21.9545893498593294
 30
0.0
 11
-19.9736982557001284
 21
21.9106683766593484
 31
0.0
  0
ARC
  5
1A3C2
  8
0
 10
-19.9814843270146412
 20
21.911893207563061
 30
0.0
 40
0.0078818219505056
 50
269.298659017677096
 51
351.0600354378651105
  0
ARC
  5
1A3C3
  8
0
 10
-20.004301579829189
 20
23.7848849931121684
 30
0.0
 40
1.88101024447625
 50
267.882635586547508
 51
270.6920941774295102
  0
ARC
  5
1A3C4
  8
0
 10
-20.0736988993157901
 20
21.9130362596087309
 30
0.0
 40
0.0078778660610993
 50
187.5657392358262996
 51
269.2759051654609834
  0
ARC
  5
1A3C5
  8
0
 10
-20.0348577849367686
 20
21.3243022037989896
 30
0.0
 40
0.5809571167764391
 50
86.631375115766204
 51
91.9525643086238915
  0
ARC
  5
1A3C6
  8
0
 10
-20.0164169592721883
 20
22.8165091285108907
 30
0.0
 40
0.9123886338071832
 50
267.598216702519494
 51
270.9857227218482763
  0
LINE
  5
1A3C7
  8
0
 10
-19.9369133236664311
 20
21.9545893498593294
 30
0.0
 11
-19.930579544753531
 21
21.9113228452488116
 31
0.0
  0
ARC
  5
1A3C8
  8
0
 10
-19.9227885630489183
 20
21.9124633662147801
 30
0.0
 40
0.0078740195579257
 50
188.3283668559890884
 51
269.9483246420683145
  0
LINE
  5
1A3C9
  8
0
 10
-19.9227956646664097
 20
21.90458934985935
 30
0.0
 11
-19.8807769722161503
 21
21.90458934985935
 31
0.0
  0
ARC
  5
1A3CA
  8
0
 10
-19.8807769726627086
 20
21.9124633660590007
 30
0.0
 40
0.0078740161996507
 50
270.0000032488109127
 51
351.6716307123555794
  0
LINE
  5
1A3CB
  8
0
 10
-19.8729859943291487
 20
21.9113228452488116
 30
0.0
 11
-19.8716941659126789
 21
21.9201474165438697
 31
0.0
  0
LINE
  5
1A3CC
  8
0
 10
-19.876244261305601
 20
21.9545893498593294
 30
0.0
 11
-19.8706176894161217
 21
21.9119990309593504
 31
0.0
  0
LINE
  5
1A3CD
  8
0
 10
-19.7558985299160703
 20
21.9545893498593294
 30
0.0
 11
-19.7628077609160684
 21
21.9106683766593484
 31
0.0
  0
ARC
  5
1A3CE
  8
0
 10
-19.7705938322310395
 20
21.911893207563061
 30
0.0
 40
0.0078818219505056
 50
269.298659017677096
 51
351.0600354378651105
  0
ARC
  5
1A3CF
  8
0
 10
-19.793411085045129
 20
23.7848849931121684
 30
0.0
 40
1.88101024447625
 50
267.882635586547508
 51
270.6920941774295102
  0
ARC
  5
1A3D0
  8
0
 10
-19.8628084045317301
 20
21.9130362596087309
 30
0.0
 40
0.0078778660610993
 50
187.5657392358262996
 51
269.2759051654609834
  0
ARC
  5
1A3D1
  8
0
 10
-19.8239672901531812
 20
21.3243022037989896
 30
0.0
 40
0.5809571167764391
 50
86.631375115766204
 51
91.9525643086238915
  0
ARC
  5
1A3D2
  8
0
 10
-19.805526464488139
 20
22.8165091285108907
 30
0.0
 40
0.9123886338071832
 50
267.598216702519494
 51
270.9857227218482763
  0
LINE
  5
1A3D3
  8
0
 10
-19.5487989238940791
 20
21.9545893498593294
 30
0.0
 11
-19.5429888607000102
 21
21.9118035847593617
 31
0.0
  0
ARC
  5
1A3D4
  8
0
 10
-19.5351994549641788
 20
21.91286134169005
 30
0.0
 40
0.0078608963510552
 50
187.7331387439741093
 51
269.6613727598704031
  0
ARC
  5
1A3D5
  8
0
 10
-19.4664745625486795
 20
24.4787482698440613
 30
0.0
 40
2.574666319390559
 50
268.469402870673207
 51
270.5217240081706791
  0
ARC
  5
1A3D6
  8
0
 10
-19.4429385443049796
 20
21.9120478990240315
 30
0.0
 40
0.0078597470444828
 50
269.3297541189739945
 51
348.6312625662556002
  0
LINE
  5
1A3D7
  8
0
 10
-19.4352330143205982
 20
21.9104985665009586
 30
0.0
 11
-19.4279364109002017
 21
21.9545893498593294
 31
0.0
  0
ARC
  5
1A3D8
  8
0
 10
-19.4970982328095488
 20
21.0961057112825188
 30
0.0
 40
0.8092970734782872
 50
87.2813170766996933
 51
91.3532426457030908
  0
ARC
  5
1A3D9
  8
0
 10
-19.4716036254662903
 20
23.2355843895084888
 30
0.0
 40
1.3311549299573091
 50
268.0796484218665228
 51
270.5549121543202773
  0
LINE
  5
1A3DA
  8
0
 10
-19.3743800585998507
 20
21.9545893498593294
 30
0.0
 11
-19.3685391373833191
 21
21.9146895928593288
 31
0.0
  0
ARC
  5
1A3DB
  8
0
 10
-19.3568526704466386
 20
21.9164003735209292
 30
0.0
 40
0.0118110236615611
 50
188.3283670258580003
 51
269.9999997418980797
  0
LINE
  5
1A3DC
  8
0
 10
-19.3568526704998511
 20
21.90458934985935
 30
0.0
 11
-19.2714023157000085
 21
21.9045893494744313
 31
0.0
  0
ARC
  5
1A3DD
  8
0
 10
-19.2714023156468102
 20
21.9164003729476597
 30
0.0
 40
0.0118110234732392
 50
269.9999997418980797
 51
351.6716356509103889
  0
LINE
  5
1A3DE
  8
0
 10
-19.2597158488165405
 20
21.9146895928593288
 30
0.0
 11
-19.253874929504029
 21
21.9545893498593294
 31
0.0
  0
LINE
  5
1A3DF
  8
0
 10
-19.2236383922258902
 20
21.9545893498593294
 30
0.0
 11
-19.2173046132997989
 21
21.9113228452593489
 31
0.0
  0
ARC
  5
1A3E0
  8
0
 10
-19.2095136354014286
 20
21.9124633656706997
 30
0.0
 40
0.0078740157113467
 50
188.3283668746034891
 51
270.0000007390790984
  0
LINE
  5
1A3E1
  8
0
 10
-19.2095136353000306
 20
21.9045893499593696
 30
0.0
 11
-19.1172580182001184
 21
21.9045893511493794
 31
0.0
  0
ARC
  5
1A3E2
  8
0
 10
-19.1172580183015306
 20
21.9124633671684705
 30
0.0
 40
0.0078740160190876
 50
270.0000007390790984
 51
351.6716223608405016
  0
LINE
  5
1A3E3
  8
0
 10
-19.1094670403131204
 20
21.9113228452488116
 30
0.0
 11
-19.1031332530828912
 21
21.9545893498593294
 31
0.0
  0
LINE
  5
1A3E4
  8
0
 10
-19.0879506548972095
 20
21.9545893498593294
 30
0.0
 11
-19.0821405917026787
 21
21.9118035847593617
 31
0.0
  0
ARC
  5
1A3E5
  8
0
 10
-19.0743511859668615
 20
21.91286134169005
 30
0.0
 40
0.0078608963510552
 50
187.7331387439741093
 51
269.6613727598704031
  0
ARC
  5
1A3E6
  8
0
 10
-19.0056262935513587
 20
24.4787482698440613
 30
0.0
 40
2.574666319390559
 50
268.469402870673207
 51
270.5217240081706791
  0
ARC
  5
1A3E7
  8
0
 10
-18.9820902753076517
 20
21.9120478990240315
 30
0.0
 40
0.0078597470444828
 50
269.3297541189739945
 51
348.6312625662556002
  0
LINE
  5
1A3E8
  8
0
 10
-18.9743847453237287
 20
21.9104985665009586
 30
0.0
 11
-18.9670881419028809
 21
21.9545893498593294
 31
0.0
  0
ARC
  5
1A3E9
  8
0
 10
-19.0362499638122209
 20
21.0961057112825188
 30
0.0
 40
0.8092970734782872
 50
87.2813170766996933
 51
91.3532426457030908
  0
ARC
  5
1A3EA
  8
0
 10
-19.0107553564689589
 20
23.2355843895084888
 30
0.0
 40
1.3311549299573091
 50
268.0796484218665228
 51
270.5549121543202773
  0
LINE
  5
1A3EB
  8
0
 10
-18.9218945810998811
 20
21.9545893498593294
 30
0.0
 11
-18.9155406408854105
 21
21.9116769488127296
 31
0.0
  0
ARC
  5
1A3EC
  8
0
 10
-18.9075288943404303
 20
21.9128632296388197
 30
0.0
 40
0.0080990953139998
 50
188.4224582170259055
 51
265.978785284521507
  0
ARC
  5
1A3ED
  8
0
 10
-18.8515824003429806
 20
24.2943604634594692
 30
0.0
 40
2.3902445917969408
 50
268.6451841641950864
 51
270.855876736844607
  0
ARC
  5
1A3EE
  8
0
 10
-18.8164036037733204
 20
21.912912311305039
 30
0.0
 40
0.0085459084858642
 50
273.5222756165401279
 51
347.6819547015646776
  0
LINE
  5
1A3EF
  8
0
 10
-18.8080544354997983
 20
21.9110891434593498
 30
0.0
 11
-18.8015562020141189
 21
21.9545893498593294
 31
0.0
  0
LINE
  5
1A3F0
  8
0
 10
-18.7782503719199596
 20
21.9545893498593294
 30
0.0
 11
-18.78417103281663
 21
21.9146895928593288
 31
0.0
  0
ARC
  5
1A3F1
  8
0
 10
-18.7958806546475898
 20
21.9164271648472813
 30
0.0
 40
0.0118378376336188
 50
270.1120712802094204
 51
351.5595619520303217
  0
LINE
  5
1A3F2
  8
0
 10
-18.7958574997001016
 20
21.90458934985935
 30
0.0
 11
-18.8146292548576604
 21
21.9045526320184685
 31
0.0
  0
LINE
  5
1A3F3
  8
0
 10
-18.7958574997001016
 20
21.90458934985935
 30
0.0
 11
-18.7054241269002013
 21
21.90458934985935
 31
0.0
  0
ARC
  5
1A3F4
  8
0
 10
-18.7054241271834982
 20
21.9124633658834718
 30
0.0
 40
0.0078740160241182
 50
270.0000020621051249
 51
351.6716318438303119
  0
LINE
  5
1A3F5
  8
0
 10
-18.6976331490009215
 20
21.9113228452525597
 30
0.0
 11
-18.6912993690857512
 21
21.9545893498593294
 31
0.0
  0
LINE
  5
1A3F6
  8
0
 10
-18.2490530544000613
 20
21.9545893498593294
 30
0.0
 11
-18.2428951645001689
 21
21.9113228452593489
 31
0.0
  0
ARC
  5
1A3F7
  8
0
 10
-18.2346955072721286
 20
21.9126721394197794
 30
0.0
 40
0.0083099322128987
 50
189.3445594929133904
 51
255.6437059684506892
  0
ARC
  5
1A3F8
  8
0
 10
-18.1876461357360313
 20
22.5742613579830298
 30
0.0
 40
0.6714380389011372
 50
265.805568760078927
 51
273.8269042400003173
  0
ARC
  5
1A3F9
  8
0
 10
-18.145386893583229
 20
21.9154103420418416
 30
0.0
 40
0.0111086503923341
 50
283.0727313471462026
 51
338.4103740719916118
  0
LINE
  5
1A3FA
  8
0
 10
-18.1350575913998
 20
21.9113228452593489
 30
0.0
 11
-18.1287238125000805
 21
21.9545893498593294
 31
0.0
  0
ARC
  5
1A3FB
  8
0
 10
-18.1891702273351186
 20
21.582642786672551
 30
0.0
 40
0.3235555716448667
 50
84.9098264241744829
 51
94.8040725485765847
  0
ARC
  5
1A3FC
  8
0
 10
-18.1876450403956298
 20
22.1935194764109305
 30
0.0
 40
0.2898743710568822
 50
264.3333134937661839
 51
275.3805842715718768
  0
LINE
  5
1A3FD
  8
0
 10
-14.8830053036999708
 20
21.9545893498593294
 30
0.0
 11
-14.8874440365498195
 21
21.9132273830429902
 31
0.0
  0
ARC
  5
1A3FE
  8
0
 10
-14.8952731000999794
 20
21.9140675539593417
 30
0.0
 40
0.0078740156999995
 50
271.9999999476009975
 51
353.874781945206621
  0
LINE
  5
1A3FF
  8
0
 10
-14.8949983009224507
 20
21.9061983348967111
 30
0.0
 11
-14.9871488536073194
 21
21.9029803667722582
 31
0.0
  0
ARC
  5
1A400
  8
0
 10
-14.9874236547038908
 20
21.9108496407779398
 30
0.0
 40
0.0078740706765504
 50
190.1255660934170066
 51
271.9999999476009975
  0
LINE
  5
1A401
  8
0
 10
-14.9951750854002004
 20
21.9094653318593693
 30
0.0
 11
-14.9973296386283401
 21
21.9215297416202191
 31
0.0
  0
LINE
  5
1A402
  8
0
 10
-14.99374185270017
 20
21.9545893498593294
 30
0.0
 11
-14.9982375761001094
 21
21.91316273375935
 31
0.0
  0
ARC
  5
1A403
  8
0
 10
-15.0060170508754709
 20
21.9140069824593411
 30
0.0
 40
0.0078251507108568
 50
268.9810886208749139
 51
353.8063526033781727
  0
LINE
  5
1A404
  8
0
 10
-15.00615620100006
 20
21.9061830690593489
 30
0.0
 11
-15.0963997795001905
 21
21.9029803665593512
 31
0.0
  0
ARC
  5
1A405
  8
0
 10
-15.0976759272580203
 20
21.9113779663106207
 30
0.0
 40
0.0084940116954613
 50
192.5730678931282966
 51
278.6408859283939137
  0
LINE
  5
1A406
  8
0
 10
-15.1059662457000705
 20
21.9095289517593415
 30
0.0
 11
-15.1139649339997906
 21
21.9545893498593294
 31
0.0
  0
LINE
  5
1A407
  8
0
 10
-15.3184044873000804
 20
21.9545893498593294
 30
0.0
 11
-15.3234246115398491
 21
21.9130723990995797
 31
0.0
  0
ARC
  5
1A408
  8
0
 10
-15.3314875696228192
 20
21.9140473515124405
 30
0.0
 40
0.0081216885716093
 50
275.8250701717444144
 51
353.1054118429054256
  0
LINE
  5
1A409
  8
0
 10
-15.3306632864177992
 20
21.9059676001268713
 30
0.0
 11
-15.4201681548397502
 21
21.9029970019633389
 31
0.0
  0
ARC
  5
1A40A
  8
0
 10
-15.4218854196983504
 20
21.9120716901652983
 30
0.0
 40
0.0092357438550738
 50
194.7852578748114922
 51
280.7157560365834001
  0
LINE
  5
1A40B
  8
0
 10
-15.4308153595998192
 20
21.9097147561593601
 30
0.0
 11
-15.4386138944000795
 21
21.9545893498593294
 31
0.0
  0
LINE
  5
1A40C
  8
0
 10
-15.5334318024001696
 20
21.9545893498593294
 30
0.0
 11
-15.5388014387317508
 21
21.912275736058799
 31
0.0
  0
ARC
  5
1A40D
  8
0
 10
-15.5466128091743503
 20
21.9132670061196997
 30
0.0
 40
0.0078740157812446
 50
270.9996539505683018
 51
352.7677700280365798
  0
LINE
  5
1A40E
  8
0
 10
-15.5464754362001205
 20
21.9053941887593489
 30
0.0
 11
-15.6386938230211801
 21
21.9037850679710289
 31
0.0
  0
ARC
  5
1A40F
  8
0
 10
-15.6388312465705894
 20
21.91166078379106
 30
0.0
 40
0.0078769146821632
 50
234.874086510696003
 51
270.9996539505683018
  0
LINE
  5
1A410
  8
0
 10
-15.6220015665999199
 20
21.9545893498593294
 30
0.0
 11
-15.6274075556998504
 21
21.9122434159593489
 31
0.0
  0
ARC
  5
1A411
  8
0
 10
-15.6352289310666492
 20
21.9132419125346907
 30
0.0
 40
0.0078848530762646
 50
272.8340465710973035
 51
352.7248283607381723
  0
LINE
  5
1A412
  8
0
 10
-15.6348390780958599
 20
21.9053667031599595
 30
0.0
 11
-15.7257438833999004
 21
21.9037845109593583
 31
0.0
  0
ARC
  5
1A413
  8
0
 10
-15.7261013883535306
 20
21.9133333644328694
 30
0.0
 40
0.0095555435455562
 50
197.7140074047397036
 51
272.144127813079308
  0
LINE
  5
1A414
  8
0
 10
-15.7352038761000603
 20
21.9104259378593511
 30
0.0
 11
-15.7434643251185609
 21
21.9545893498593294
 31
0.0
  0
LINE
  5
1A415
  8
0
 10
-15.8348127395720404
 20
21.9545893498593294
 30
0.0
 11
-15.8398005593016897
 21
21.9126725951267893
 31
0.0
  0
ARC
  5
1A416
  8
0
 10
-15.8475930232912106
 20
21.9135998473884683
 30
0.0
 40
0.0078474385496222
 50
271.112860380058919
 51
353.21408509689428
  0
ARC
  5
1A417
  8
0
 10
-15.93254734075526
 20
23.467381761833991
 30
0.0
 40
1.563945257501471
 50
269.7414775146650072
 51
273.1194610392648201
  0
ARC
  5
1A418
  8
0
 10
-15.9398425995200306
 20
21.9112722414435801
 30
0.0
 40
0.0078234580660355
 50
189.2758163190993059
 51
271.7480781738914857
  0
LINE
  5
1A419
  8
0
 10
-15.9475637567888899
 20
21.9100111995969904
 30
0.0
 11
-15.9548443898556798
 21
21.9545893498593294
 31
0.0
  0
LINE
  5
1A41A
  8
0
 10
-16.0020252606000213
 20
21.9545893498593294
 30
0.0
 11
-15.9947372021501906
 21
21.9105539711593487
 31
0.0
  0
ARC
  5
1A41B
  8
0
 10
-15.9873719900801898
 20
21.9112915555665211
 30
0.0
 40
0.0074020523905562
 50
185.7187820237556082
 51
272.3284035164037959
  0
ARC
  5
1A41C
  8
0
 10
-15.97603062292273
 20
22.4119260686298709
 30
0.0
 40
0.5081504089803146
 50
268.7550299668566254
 51
273.5924667619501065
  0
ARC
  5
1A41D
  8
0
 10
-15.8812454793355702
 20
21.4669522286654413
 30
0.0
 40
0.4389653942178622
 50
88.0577250387594148
 51
95.2720943077147666
  0
ARC
  5
1A41E
  8
0
 10
-15.9316952844987991
 20
23.2026303498026891
 30
0.0
 40
1.2986091353573179
 50
270.4462960965332172
 51
272.8835232499432095
  0
ARC
  5
1A41F
  8
0
 10
-15.9413350135332603
 20
21.1517522767704484
 30
0.0
 40
0.7528992850923178
 50
90.3939644408863927
 51
92.0241779850209554
  0
ARC
  5
1A420
  8
0
 10
-15.9603306203971407
 20
22.2503502153307089
 30
0.0
 40
0.3462518217840854
 50
268.7426723315128925
 51
270.4469132143935894
  0
LINE
  5
1A421
  8
0
 10
-16.1838419227001395
 20
21.9545893498593294
 30
0.0
 11
-16.1901757016130396
 21
21.9113228452488116
 31
0.0
  0
ARC
  5
1A422
  8
0
 10
-16.1979666833176417
 20
21.9124633662147801
 30
0.0
 40
0.0078740195579257
 50
270.0516753579315719
 51
351.6716331440107979
  0
LINE
  5
1A423
  8
0
 10
-16.1979595817001609
 20
21.90458934985935
 30
0.0
 11
-16.2902222966999908
 21
21.90458934985935
 31
0.0
  0
ARC
  5
1A424
  8
0
 10
-16.2902222962534289
 20
21.9124633660590007
 30
0.0
 40
0.0078740161996507
 50
188.3283692876443922
 51
269.9999967511890873
  0
LINE
  5
1A425
  8
0
 10
-16.2980132745869888
 20
21.9113228452488116
 30
0.0
 11
-16.2993051030034586
 21
21.9201474165438697
 31
0.0
  0
LINE
  5
1A426
  8
0
 10
-16.2947550076105507
 20
21.9545893498593294
 30
0.0
 11
-16.3003815795000193
 21
21.9119990309593504
 31
0.0
  0
LINE
  5
1A427
  8
0
 10
-16.4151007390000814
 20
21.9545893498593294
 30
0.0
 11
-16.4081915080000691
 21
21.9106683766593484
 31
0.0
  0
ARC
  5
1A428
  8
0
 10
-16.4004054366855598
 20
21.911893207563061
 30
0.0
 40
0.0078818219505056
 50
188.9399645621350032
 51
270.701340982322904
  0
ARC
  5
1A429
  8
0
 10
-16.3775881838710085
 20
23.7848849931121684
 30
0.0
 40
1.88101024447625
 50
269.3079058225704898
 51
272.117364413452492
  0
ARC
  5
1A42A
  8
0
 10
-16.3081908643844109
 20
21.9130362596087309
 30
0.0
 40
0.0078778660610993
 50
270.7240948345390166
 51
352.4342607641737004
  0
ARC
  5
1A42B
  8
0
 10
-16.3470319787629705
 20
21.3243022037989896
 30
0.0
 40
0.5809571167764391
 50
88.0474356913761369
 51
93.3686248842338102
  0
ARC
  5
1A42C
  8
0
 10
-16.3654728044280091
 20
22.8165091285108907
 30
0.0
 40
0.9123886338071832
 50
269.0142772781517237
 51
272.401783297480506
  0
LINE
  5
1A42D
  8
0
 10
-16.4449764400333116
 20
21.9545893498593294
 30
0.0
 11
-16.4513102189462188
 21
21.9113228452488116
 31
0.0
  0
ARC
  5
1A42E
  8
0
 10
-16.4591012006512685
 20
21.9124633662147801
 30
0.0
 40
0.0078740195579257
 50
270.0516753579315719
 51
351.6716331440107979
  0
LINE
  5
1A42F
  8
0
 10
-16.4590940990333401
 20
21.90458934985935
 30
0.0
 11
-16.5011127914840401
 21
21.90458934985935
 31
0.0
  0
ARC
  5
1A430
  8
0
 10
-16.5011127910374817
 20
21.9124633660590007
 30
0.0
 40
0.0078740161996507
 50
188.3283692876443922
 51
269.9999967511890873
  0
LINE
  5
1A431
  8
0
 10
-16.5089037693710416
 20
21.9113228452488116
 30
0.0
 11
-16.5101955977875114
 21
21.9201474165438697
 31
0.0
  0
LINE
  5
1A432
  8
0
 10
-16.5056455023946
 20
21.9545893498593294
 30
0.0
 11
-16.511272074283621
 21
21.9119990309593504
 31
0.0
  0
LINE
  5
1A433
  8
0
 10
-16.6259912337836795
 20
21.9545893498593294
 30
0.0
 11
-16.6190820027836708
 21
21.9106683766593484
 31
0.0
  0
ARC
  5
1A434
  8
0
 10
-16.6112959314691615
 20
21.911893207563061
 30
0.0
 40
0.0078818219505056
 50
188.9399645621350032
 51
270.701340982322904
  0
ARC
  5
1A435
  8
0
 10
-16.5884786786546101
 20
23.7848849931121684
 30
0.0
 40
1.88101024447625
 50
269.3079058225704898
 51
272.117364413452492
  0
ARC
  5
1A436
  8
0
 10
-16.519081359168009
 20
21.9130362596087309
 30
0.0
 40
0.0078778660610993
 50
270.7240948345390166
 51
352.4342607641737004
  0
ARC
  5
1A437
  8
0
 10
-16.5579224735470198
 20
21.3243022037989896
 30
0.0
 40
0.5809571167764391
 50
88.0474356913761369
 51
93.3686248842338102
  0
ARC
  5
1A438
  8
0
 10
-16.5763632992116001
 20
22.8165091285108907
 30
0.0
 40
0.9123886338071832
 50
269.0142772781517237
 51
272.401783297480506
  0
LINE
  5
1A439
  8
0
 10
-16.83309083980566
 20
21.9545893498593294
 30
0.0
 11
-16.8389009030001908
 21
21.9118035847593617
 31
0.0
  0
ARC
  5
1A43A
  8
0
 10
-16.8466903087360116
 20
21.91286134169005
 30
0.0
 40
0.0078608963510552
 50
270.3386272401297106
 51
352.266861256025777
  0
ARC
  5
1A43B
  8
0
 10
-16.9154152011515109
 20
24.4787482698440613
 30
0.0
 40
2.574666319390559
 50
269.4782759918293209
 51
271.5305971293266794
  0
ARC
  5
1A43C
  8
0
 10
-16.9389512193952214
 20
21.9120478990240315
 30
0.0
 40
0.0078597470444828
 50
191.3687374337443998
 51
270.6702458810258918
  0
LINE
  5
1A43D
  8
0
 10
-16.9466567493791409
 20
21.9104985665009586
 30
0.0
 11
-16.9539533527999993
 21
21.9545893498593294
 31
0.0
  0
ARC
  5
1A43E
  8
0
 10
-16.8847915308906487
 20
21.0961057112825188
 30
0.0
 40
0.8092970734782872
 50
88.646757354296895
 51
92.7186829233003067
  0
ARC
  5
1A43F
  8
0
 10
-16.9102861382339107
 20
23.2355843895084888
 30
0.0
 40
1.3311549299573091
 50
269.4450878456797227
 51
271.9203515781334772
  0
LINE
  5
1A440
  8
0
 10
-17.0075097050998885
 20
21.9545893498593294
 30
0.0
 11
-17.01335062631642
 21
21.9146895928593288
 31
0.0
  0
ARC
  5
1A441
  8
0
 10
-17.0250370932531006
 20
21.9164003735209292
 30
0.0
 40
0.0118110236615611
 50
270.0000002581019203
 51
351.6716329741420282
  0
LINE
  5
1A442
  8
0
 10
-17.0250370931998987
 20
21.90458934985935
 30
0.0
 11
-17.1104874480001783
 21
21.9045893494744313
 31
0.0
  0
ARC
  5
1A443
  8
0
 10
-17.1104874480533908
 20
21.9164003729476597
 30
0.0
 40
0.0118110234732392
 50
188.3283643490896111
 51
270.0000002581019203
  0
LINE
  5
1A444
  8
0
 10
-17.1221739148836605
 20
21.9146895928593288
 30
0.0
 11
-17.1280148341961613
 21
21.9545893498593294
 31
0.0
  0
LINE
  5
1A445
  8
0
 10
-17.1582513714743108
 20
21.9545893498593294
 30
0.0
 11
-17.1645851503999403
 21
21.9113228452593489
 31
0.0
  0
ARC
  5
1A446
  8
0
 10
-17.1723761282983105
 20
21.9124633656706997
 30
0.0
 40
0.0078740157113467
 50
269.9999992609209016
 51
351.6716331253963972
  0
LINE
  5
1A447
  8
0
 10
-17.1723761284001704
 20
21.9045893499593696
 30
0.0
 11
-17.2646317455000791
 21
21.9045893511493794
 31
0.0
  0
ARC
  5
1A448
  8
0
 10
-17.2646317453982192
 20
21.9124633671684705
 30
0.0
 40
0.0078740160190876
 50
188.3283776391594984
 51
269.9999992609209016
  0
LINE
  5
1A449
  8
0
 10
-17.2724227233870806
 20
21.9113228452488116
 30
0.0
 11
-17.2787565106173098
 21
21.9545893498593294
 31
0.0
  0
LINE
  5
1A44A
  8
0
 10
-17.2939391088029915
 20
21.9545893498593294
 30
0.0
 11
-17.2997491719970604
 21
21.9118035847593617
 31
0.0
  0
ARC
  5
1A44B
  8
0
 10
-17.3075385777328812
 20
21.91286134169005
 30
0.0
 40
0.0078608963510552
 50
270.3386272401297106
 51
352.266861256025777
  0
ARC
  5
1A44C
  8
0
 10
-17.3762634701483805
 20
24.4787482698440613
 30
0.0
 40
2.574666319390559
 50
269.4782759918293209
 51
271.5305971293266794
  0
ARC
  5
1A44D
  8
0
 10
-17.399799488392091
 20
21.9120478990240315
 30
0.0
 40
0.0078597470444828
 50
191.3687374337443998
 51
270.6702458810258918
  0
LINE
  5
1A44E
  8
0
 10
-17.4075050183764688
 20
21.9104985665009586
 30
0.0
 11
-17.4148016217968689
 21
21.9545893498593294
 31
0.0
  0
ARC
  5
1A44F
  8
0
 10
-17.3456397998875183
 20
21.0961057112825188
 30
0.0
 40
0.8092970734782872
 50
88.646757354296895
 51
92.7186829233003067
  0
ARC
  5
1A450
  8
0
 10
-17.3711344072307803
 20
23.2355843895084888
 30
0.0
 40
1.3311549299573091
 50
269.4450878456797227
 51
271.9203515781334772
  0
LINE
  5
1A451
  8
0
 10
-17.4599951825998687
 20
21.9545893498593294
 30
0.0
 11
-17.4663491228143286
 21
21.9116769488127296
 31
0.0
  0
ARC
  5
1A452
  8
0
 10
-17.4743608693597707
 20
21.9128632296388197
 30
0.0
 40
0.0080990953139998
 50
274.021214715478493
 51
351.5775417829739808
  0
ARC
  5
1A453
  8
0
 10
-17.5303073633572204
 20
24.2943604634594692
 30
0.0
 40
2.3902445917969408
 50
269.144123263155393
 51
271.3548158358049136
  0
ARC
  5
1A454
  8
0
 10
-17.5654861599268699
 20
21.912912311305039
 30
0.0
 40
0.0085459084858642
 50
192.3180452984352087
 51
266.4777243834598721
  0
LINE
  5
1A455
  8
0
 10
-17.5738353281999515
 20
21.9110891434593498
 30
0.0
 11
-17.5803335616860714
 21
21.9545893498593294
 31
0.0
  0
LINE
  5
1A456
  8
0
 10
-17.6036393917797795
 20
21.9545893498593294
 30
0.0
 11
-17.597718730883571
 21
21.9146895928593288
 31
0.0
  0
ARC
  5
1A457
  8
0
 10
-17.5860091090526112
 20
21.9164271648472813
 30
0.0
 40
0.0118378376336188
 50
188.4404380479695931
 51
269.8879287197905796
  0
LINE
  5
1A458
  8
0
 10
-17.5860322640000888
 20
21.90458934985935
 30
0.0
 11
-17.56726050884253
 21
21.9045526320184685
 31
0.0
  0
LINE
  5
1A459
  8
0
 10
-17.5860322640000888
 20
21.90458934985935
 30
0.0
 11
-17.6764656367999997
 21
21.90458934985935
 31
0.0
  0
ARC
  5
1A45A
  8
0
 10
-17.6764656365166886
 20
21.9124633658834718
 30
0.0
 40
0.0078740160241182
 50
188.3283681561698018
 51
269.9999979378948751
  0
LINE
  5
1A45B
  8
0
 10
-17.6842566146988212
 20
21.9113228452525597
 30
0.0
 11
-17.6905903946144392
 21
21.9545893498593294
 31
0.0
  0
LINE
  5
1A45C
  8
0
 10
-18.9074803150001607
 20
22.4270302947593585
 30
0.0
 11
-18.9074803150001607
 21
23.0175814758593411
 31
0.0
  0
LINE
  5
1A45D
  8
0
 10
-18.9074803150001607
 20
23.0175814758593411
 30
0.0
 11
-18.8779527558999689
 21
23.0175814758593695
 31
0.0
  0
LINE
  5
1A45E
  8
0
 10
-18.8779527558999689
 20
23.0175814758593695
 30
0.0
 11
-18.8779527558999689
 21
23.4900224207593418
 31
0.0
  0
LINE
  5
1A45F
  8
0
 10
-18.8779527558999689
 20
23.4900224207593418
 30
0.0
 11
-17.5
 21
23.4900224207593418
 31
0.0
  0
LINE
  5
1A460
  8
0
 10
-17.5
 20
23.4900224207593418
 30
0.0
 11
-17.5
 21
23.0175814758593411
 31
0.0
  0
LINE
  5
1A461
  8
0
 10
-17.5
 20
23.0175814758593411
 30
0.0
 11
-17.4704724409998491
 21
23.0175814758593411
 31
0.0
  0
LINE
  5
1A462
  8
0
 10
-17.4704724409998491
 20
23.0175814758593411
 30
0.0
 11
-17.4704724409998491
 21
22.4270302947593585
 31
0.0
  0
LINE
  5
1A463
  8
0
 10
-18.6260927727830712
 20
23.489979213205519
 30
0.0
 11
-18.6437007874214906
 21
23.5120644464045085
 31
0.0
  0
LINE
  5
1A464
  8
0
 10
-18.6437007874214906
 20
23.5120644464045085
 30
0.0
 11
-18.643700787400121
 21
24.0106597502593502
 31
0.0
  0
LINE
  5
1A465
  8
0
 10
-18.643700787400121
 20
24.0106597502593502
 30
0.0
 11
-18.6850393701001813
 21
24.0519983329593607
 31
0.0
  0
LINE
  5
1A466
  8
0
 10
-18.6850393701001813
 20
24.0519983329593607
 30
0.0
 11
-18.6850393701001813
 21
24.1599510888593514
 31
0.0
  0
ARC
  5
1A467
  8
0
 10
-18.6650393701001995
 20
24.1599510888593514
 30
0.0
 40
0.0199999999999996
 50
90.0
 51
180.0
  0
LINE
  5
1A468
  8
0
 10
-18.6650393701001995
 20
24.1799510888593616
 30
0.0
 11
-17.7129133858002206
 21
24.1799510888593616
 31
0.0
  0
ARC
  5
1A469
  8
0
 10
-17.7129133857997587
 20
24.1599510888593514
 30
0.0
 40
0.019999999999996
 50
359.9999999999902229
 51
90.0
  0
LINE
  5
1A46A
  8
0
 10
-17.6929133857997805
 20
24.1599510888593514
 30
0.0
 11
-17.6929133858002388
 21
24.0519983329593607
 31
0.0
  0
LINE
  5
1A46B
  8
0
 10
-17.6929133858002388
 20
24.0519983329593607
 30
0.0
 11
-17.7342519684998408
 21
24.0106597502593502
 31
0.0
  0
LINE
  5
1A46C
  8
0
 10
-17.7342519684998408
 20
24.0106597502593502
 30
0.0
 11
-17.7342519684784712
 21
23.5120644464045085
 31
0.0
  0
LINE
  5
1A46D
  8
0
 10
-17.7342519684784712
 20
23.5120644464045085
 30
0.0
 11
-17.7518599831169013
 21
23.489979213205519
 31
0.0
  0
LINE
  5
1A46E
  8
0
 10
-18.6023622047000607
 20
24.1799510888593616
 30
0.0
 11
-18.6023622234001813
 21
24.2224392699593487
 31
0.0
  0
LINE
  5
1A46F
  8
0
 10
-18.6023622234001813
 20
24.2224392699593487
 30
0.0
 11
-18.5531496062999395
 21
24.2716518857593613
 31
0.0
  0
LINE
  5
1A470
  8
0
 10
-18.5531496062999395
 20
24.2716518857593613
 30
0.0
 11
-18.5531496062999395
 21
24.3897621124593513
 31
0.0
  0
LINE
  5
1A471
  8
0
 10
-17.8248031496000294
 20
24.3897621124593513
 30
0.0
 11
-17.8248031496000294
 21
24.2716518857593613
 31
0.0
  0
LINE
  5
1A472
  8
0
 10
-17.8248031496000294
 20
24.2716518857593613
 30
0.0
 11
-17.7755905511999117
 21
24.2224392886593591
 31
0.0
  0
LINE
  5
1A473
  8
0
 10
-17.7755905511999117
 20
24.2224392886593591
 30
0.0
 11
-17.7755905511999117
 21
24.1799510888593616
 31
0.0
  0
LINE
  5
1A474
  8
0
 10
-18.5531496062999395
 20
24.2716518857593613
 30
0.0
 11
-17.8248031496000294
 21
24.2716518857593613
 31
0.0
  0
LINE
  5
1A475
  8
0
 10
-18.6023622047000607
 20
24.2224392699593487
 30
0.0
 11
-17.7755905511999117
 21
24.2224392699593487
 31
0.0
  0
LINE
  5
1A476
  8
0
 10
-17.7952755905998785
 20
24.3897621124593513
 30
0.0
 11
-18.5826771654001206
 21
24.3897621124593513
 31
0.0
  0
LINE
  5
1A477
  8
0
 10
-18.5826771654001206
 20
24.3897621124593513
 30
0.0
 11
-18.5826771654001206
 21
25.1771636872593696
 31
0.0
  0
LINE
  5
1A478
  8
0
 10
-17.7952755905998785
 20
24.3897621124593513
 30
0.0
 11
-17.7952755904998412
 21
25.1771636872593696
 31
0.0
  0
ARC
  5
1A479
  8
0
 10
-10.3149606298998098
 20
25.1771636863093704
 30
0.0
 40
7.4803149606000012
 50
0.0000000072758878
 51
179.9999999927240992
  0
ARC
  5
1A47A
  8
0
 10
-10.3149606299498409
 20
25.1771636868987194
 30
0.0
 40
8.2677165354500026
 50
0.0000000024996615
 51
179.9999999975003107
  0
LINE
  5
1A47B
  8
0
 10
-2.0472440945000012
 20
25.1771636872593696
 30
0.0
 11
-2.0472440941443888
 21
17.0275573880593605
 31
0.0
  0
LINE
  5
1A47C
  8
0
 10
-2.834645669299789
 20
17.0275573880593605
 30
0.0
 11
-2.834645669299789
 21
25.1771636863093704
 31
0.0
  0
ARC
  5
1A47D
  8
0
 10
-3.0314960631094432
 20
17.0078723487687604
 30
0.0
 40
0.0196850392906143
 50
89.999999681632687
 51
180.0000000273398939
  0
LINE
  5
1A47E
  8
0
 10
-3.0314960629998491
 20
17.0275573880593605
 30
0.0
 11
-1.8503937008017599
 21
17.0275573814962797
 31
0.0
  0
ARC
  5
1A47F
  8
0
 10
-1.8503937009108991
 20
17.0078723419852302
 30
0.0
 40
0.0196850395110566
 50
0.000019425887568
 51
89.9999996816066243
  0
LINE
  5
1A480
  8
0
 10
-1.830708661399967
 20
17.0078723486593617
 30
0.0
 11
-1.8307085145693229
 21
16.5748014825593586
 31
0.0
  0
ARC
  5
1A481
  8
0
 10
-1.8503935470539541
 20
16.5748014758852591
 30
0.0
 40
0.0196850324848666
 50
270.0896035772848904
 51
0.0000194258859395
  0
LINE
  5
1A482
  8
0
 10
-1.8503627620884791
 20
16.5551164674723417
 30
0.0
 11
-3.031493111145664
 21
16.5551164431593598
 31
0.0
  0
ARC
  5
1A483
  8
0
 10
-3.031496062468249
 20
16.5748014828502903
 30
0.0
 40
0.0196850399319225
 50
180.000000846772906
 51
270.0089656218059986
  0
LINE
  5
1A484
  8
0
 10
-3.051181102399823
 20
16.5748014825593586
 30
0.0
 11
-3.051181102399823
 21
17.0078723487593493
 31
0.0
  0
ARC
  5
1A485
  8
0
 10
-3.0708661417002072
 20
16.4960613250593688
 30
0.0
 40
0.0196850393999846
 50
89.9999999999739515
 51
180.0000000000406999
  0
LINE
  5
1A486
  8
0
 10
-3.0905511811001811
 20
16.4960613250593404
 30
0.0
 11
-3.0905511810992721
 21
15.3543290416593496
 31
0.0
  0
ARC
  5
1A487
  8
0
 10
-3.0708661416992982
 20
15.3543290416593496
 30
0.0
 40
0.0196850394000165
 50
180.0000000000422915
 51
270.0000357982538048
  0
LINE
  5
1A488
  8
0
 10
-3.0708661294002009
 20
15.3346440022593509
 30
0.0
 11
-1.8110236345000881
 21
15.3346447894053899
 31
0.0
  0
ARC
  5
1A489
  8
0
 10
-1.8110236467991849
 20
15.3543298535215609
 30
0.0
 40
0.0196850641161606
 50
270.0000357982277137
 51
359.9976369760556167
  0
LINE
  5
1A48A
  8
0
 10
-1.791338582700063
 20
15.3543290416593496
 30
0.0
 11
-1.7913329012449131
 21
15.4920861729450792
 31
0.0
  0
ARC
  5
1A48B
  8
0
 10
-1.751923026661188
 20
15.4920845475814097
 30
0.0
 40
0.0394098746172923
 50
90.0661167906776825
 51
179.9976369760539114
  0
LINE
  5
1A48C
  8
0
 10
-1.751968503900116
 20
15.5314943959593492
 30
0.0
 11
-1.496063162483551
 21
15.5317896995147997
 31
0.0
  0
LINE
  5
1A48D
  8
0
 10
-1.496062992100178
 20
15.3741517496593492
 30
0.0
 11
-1.496062992100178
 21
16.4762386171593391
 31
0.0
  0
ARC
  5
1A48E
  8
0
 10
-1.456692912699963
 20
16.4762386171593391
 30
0.0
 40
0.0393700793999941
 50
90.000001018702477
 51
179.9999999999951115
  0
ARC
  5
1A48F
  8
0
 10
-1.4566893032751971
 20
-186.531074788892397
 30
0.0
 40
203.0466834854518083
 50
89.6000183718045378
 51
90.000001018702477
  0
ARC
  5
1A490
  8
0
 10
-0.0395084661390683
 20
16.4711533025210315
 30
0.0
 40
0.0395087068164505
 50
0.1999903052427913
 51
89.6000183718045378
  0
LINE
  5
1A491
  8
0
 10
0.0
 20
16.4712912069593607
 30
0.0
 11
0.0
 21
15.3791058131219796
 31
0.0
  0
ARC
  5
1A492
  8
0
 10
-0.0393700789968534
 20
15.3790991592990398
 30
0.0
 40
0.0393700789966332
 50
270.2000003997371778
 51
359.9999996511904783
  0
LINE
  5
1A493
  8
0
 10
-0.0392326514997876
 20
15.3397293201593605
 30
0.0
 11
-0.7480314955209906
 21
15.3372551353613709
 31
0.0
  0
ARC
  5
1A494
  8
0
 10
-0.8641123614061142
 20
14.7554733238821392
 30
0.0
 40
0.593249394093818
 50
78.7161581591998356
 51
101.6838418166338016
  0
ARC
  5
1A495
  8
0
 10
-1.0846474547688549
 20
40.4720547075247907
 30
0.0
 40
25.1358246370476301
 50
269.9571245212064241
 51
270.2288467962667937
  0
ARC
  5
1A496
  8
0
 10
-1.218444360020384
 20
14.75336860443036
 30
0.0
 40
0.5941024947301319
 50
78.8400896200409136
 51
101.6394280572777973
  0
ARC
  5
1A497
  8
0
 10
-1.4566929133998201
 20
15.3741517489593793
 30
0.0
 40
0.03937007870001
 50
179.9999989812990862
 51
270.0
  0
ARC
  5
1A498
  8
0
 10
-1.4566929133970909
 20
30.1603371648394614
 30
0.0
 40
14.8255554945801098
 50
270.0
 51
270.4575315475016737
  0
LINE
  5
1A499
  8
0
 10
-1.318896522469003
 20
15.3389171825210102
 30
0.0
 11
-1.318896522469003
 21
15.3307069943593604
 31
0.0
  0
LINE
  5
1A49A
  8
0
 10
-1.318896522469003
 20
15.3307069943593604
 30
0.0
 11
-1.303149606299939
 21
15.3149589628593503
 31
0.0
  0
LINE
  5
1A49B
  8
0
 10
-1.303149606299939
 20
15.3149589628593503
 30
0.0
 11
-1.137795275600183
 21
15.3149589628593503
 31
0.0
  0
LINE
  5
1A49C
  8
0
 10
-1.137795275600183
 20
15.3149589628593503
 30
0.0
 11
-1.1220472441000311
 21
15.3307069943593604
 31
0.0
  0
LINE
  5
1A49D
  8
0
 10
-1.1220472441000311
 20
15.3307069943593604
 30
0.0
 11
-1.1220472441000311
 21
15.3395983975036891
 31
0.0
  0
LINE
  5
1A49E
  8
0
 10
-1.3188976378000909
 20
15.3307069943593604
 30
0.0
 11
-1.1220472441000311
 21
15.3307069943593604
 31
0.0
  0
LINE
  5
1A49F
  8
0
 10
-0.9645133348049058
 20
15.3401396448106997
 30
0.0
 11
-0.9645133348049058
 21
15.3306534000639907
 31
0.0
  0
LINE
  5
1A4A0
  8
0
 10
-0.9645133348049058
 20
15.3307069943593604
 30
0.0
 11
-0.9487664186358415
 21
15.3149589628593503
 31
0.0
  0
LINE
  5
1A4A1
  8
0
 10
-0.9487664186358415
 20
15.3149589628593503
 30
0.0
 11
-0.7834120879360853
 21
15.3149589628593503
 31
0.0
  0
LINE
  5
1A4A2
  8
0
 10
-0.7834120879360853
 20
15.3149589628593503
 30
0.0
 11
-0.7676640564359332
 21
15.3307069943593604
 31
0.0
  0
LINE
  5
1A4A3
  8
0
 10
-0.7676640564359332
 20
15.3307069943593604
 30
0.0
 11
-0.7676640564359332
 21
15.3408131916085608
 31
0.0
  0
LINE
  5
1A4A4
  8
0
 10
-0.9645144501359936
 20
15.3307069943593604
 30
0.0
 11
-0.7676640564359332
 21
15.3307069943593604
 31
0.0
  0
LINE
  5
1A4A5
  8
0
 10
-3.0708661417002072
 20
16.5157463644593392
 30
0.0
 11
-1.8110236221000371
 21
16.5157463644593392
 31
0.0
  0
ARC
  5
1A4A6
  8
0
 10
-1.8110236221000371
 20
16.4960613250593404
 30
0.0
 40
0.0196850393999952
 50
359.9999999999789111
 51
90.0
  0
LINE
  5
1A4A7
  8
0
 10
-1.791338582700063
 20
16.4960613250593404
 30
0.0
 11
-1.791338582700063
 21
16.3582660845791814
 31
0.0
  0
ARC
  5
1A4A8
  8
0
 10
-1.7519684688800219
 20
16.3582660845791814
 30
0.0
 40
0.0393701138198495
 50
179.9999999999820943
 51
269.9999491808225116
  0
LINE
  5
1A4A9
  8
0
 10
-1.751968503800071
 20
16.3188959707593391
 30
0.0
 11
-1.496062992100178
 21
16.3188957437808391
 31
0.0
  0
ARC
  5
1A4AA
  8
0
 10
-1.2192153088653861
 20
15.9252054780028196
 30
0.0
 40
0.6624457583468014
 50
143.5373627657137092
 51
216.4648511872572101
  0
LINE
  5
1A4AB
  8
0
 10
-2.9921259842999461
 20
16.5551164431593598
 30
0.0
 11
-2.9921259842999461
 21
16.5157463644593712
 31
0.0
  0
LINE
  5
1A4AC
  8
0
 10
-1.8897637794998441
 20
16.5551164666612998
 30
0.0
 11
-1.8897637794998441
 21
16.5157463644593712
 31
0.0
  0
LINE
  5
1A4AD
  8
0
 10
-2.933070866200068
 20
15.3346440022593509
 30
0.0
 11
-2.933070866200068
 21
12.3225517062989791
 31
0.0
  0
LINE
  5
1A4AE
  8
0
 10
-1.9488188977002201
 20
15.3346440022593509
 30
0.0
 11
-1.9488188977002201
 21
12.3225517063704295
 31
0.0
  0
CIRCLE
  5
1A4AF
  8
0
 10
-2.440944881950144
 20
11.6338566007593407
 30
0.0
 40
0.7874015748687933
  0
LINE
  5
1A4B0
  8
0
 10
-1.8582677167000829
 20
11.0789277989093495
 30
0.0
 11
-1.8582677167000829
 21
11.0287255973911993
 31
0.0
  0
ARC
  5
1A4B1
  8
0
 10
-1.8783391029769509
 20
11.0285572107699199
 30
0.0
 40
0.020072092600285
 50
313.3800933473477244
 51
0.4806651747271957
  0
LINE
  5
1A4B2
  8
0
 10
-1.8917322837000929
 20
11.0488197575296496
 30
0.0
 11
-1.8917322837000929
 21
11.0696800389093504
 31
0.0
  0
ARC
  5
1A4B3
  8
0
 10
-2.440944885555381
 20
11.6929117241224905
 30
0.0
 40
0.8464566991437671
 50
300.2152207364680976
 51
313.5013835989415156
  0
ARC
  5
1A4B4
  8
0
 10
-2.4320283025513159
 20
11.6715564826236804
 30
0.0
 40
0.8235211079787752
 50
277.39512448926871
 51
300.4268538729589864
  0
LINE
  5
1A4B5
  8
0
 10
-2.9830713945680141
 20
12.1303318985228508
 30
0.0
 11
-2.500835452769933
 21
10.8487359988001195
 31
0.0
  0
LINE
  5
1A4B6
  8
0
 10
-2.3447200089872231
 20
12.3626383437671699
 30
0.0
 11
-1.8903945245970131
 21
11.0709218406634893
 31
0.0
  0
ARC
  5
1A4B7
  8
0
 10
-2.305438020362089
 20
12.36932620413344
 30
0.0
 40
0.0398472346167809
 50
86.711749633387555
 51
189.6621106556534926
  0
ARC
  5
1A4B8
  8
0
 10
-3.0179812561468671
 20
12.1096421761046695
 30
0.0
 40
0.0405803283524209
 50
30.6535795299959517
 51
126.9500379434856967
  0
CIRCLE
  5
1A4B9
  8
0
 10
-2.440944881950144
 20
11.6338566007593407
 30
0.0
 40
0.1968503936335753
  0
LINE
  5
1A4BA
  8
0
 10
-3.0236220472002051
 20
11.0789277989093495
 30
0.0
 11
-3.0236220472002051
 21
11.0287255973911993
 31
0.0
  0
ARC
  5
1A4BB
  8
0
 10
-3.0035506609228828
 20
11.0285572107699199
 30
0.0
 40
0.020072092600285
 50
179.5193348252728072
 51
226.619906652652304
  0
LINE
  5
1A4BC
  8
0
 10
-2.990157480200196
 20
11.0488197575296496
 30
0.0
 11
-2.990157480200196
 21
11.0696800389093504
 31
0.0
  0
ARC
  5
1A4BD
  8
0
 10
-2.440944878344907
 20
11.6929117241224905
 30
0.0
 40
0.8464566991437671
 50
226.4986164010583991
 51
239.7847792635319024
  0
ARC
  5
1A4BE
  8
0
 10
-2.4498614613489731
 20
11.6715564826236804
 30
0.0
 40
0.8235211079787752
 50
239.5731461270409
 51
262.60487551073129
  0
LINE
  5
1A4BF
  8
0
 10
-1.8582677167000829
 20
12.1887854026093407
 30
0.0
 11
-1.8582677167000829
 21
12.2389876041275105
 31
0.0
  0
ARC
  5
1A4C0
  8
0
 10
-1.8783391029769509
 20
12.2391559907488006
 30
0.0
 40
0.020072092600285
 50
359.5193348252727787
 51
46.6199066526534409
  0
LINE
  5
1A4C1
  8
0
 10
-1.8917322837000929
 20
12.21889344398903
 30
0.0
 11
-1.8917322837000929
 21
12.1980331626093594
 31
0.0
  0
ARC
  5
1A4C2
  8
0
 10
-2.440944885555381
 20
11.5748014773961891
 30
0.0
 40
0.8464566991437671
 50
46.4986164010584488
 51
59.7847792635319166
  0
ARC
  5
1A4C3
  8
0
 10
-2.4320283025513159
 20
11.5961567188949992
 30
0.0
 40
0.8235211079787752
 50
59.5731461270409426
 51
82.60487551073129
  0
LINE
  5
1A4C4
  8
0
 10
-3.0236220472002051
 20
12.1887854026093407
 30
0.0
 11
-3.0236220472002051
 21
12.2389876041275105
 31
0.0
  0
ARC
  5
1A4C5
  8
0
 10
-3.0035506609228828
 20
12.2391559907488006
 30
0.0
 40
0.020072092600285
 50
133.3800933473476107
 51
180.4806651747271928
  0
LINE
  5
1A4C6
  8
0
 10
-2.990157480200196
 20
12.21889344398903
 30
0.0
 11
-2.990157480200196
 21
12.1980331626093594
 31
0.0
  0
ARC
  5
1A4C7
  8
0
 10
-2.440944878344907
 20
11.5748014773961891
 30
0.0
 40
0.8464566991437671
 50
120.2152207364680976
 51
133.5013835989414872
  0
ARC
  5
1A4C8
  8
0
 10
-2.4498614613489731
 20
11.5961567188949992
 30
0.0
 40
0.8235211079787752
 50
97.3951244892687242
 51
120.4268538729591
  0
ARC
  5
1A4C9
  8
0
 10
-2.440944881950144
 20
11.6338566010908799
 30
0.0
 40
0.8464566925184586
 50
47.0823245151238226
 51
132.917675484876213
  0
ARC
  5
1A4CA
  8
0
 10
-2.440944881950144
 20
11.6338566000541395
 30
0.0
 40
0.8464566922447871
 50
227.0823244979023912
 51
312.9176755020976088
  0
LINE
  5
1A4CB
  8
0
 10
-2.933070866200068
 20
10.9451614950197307
 30
0.0
 11
-2.933070866200068
 21
-13.9960646591406395
 31
0.0
  0
LINE
  5
1A4CC
  8
0
 10
-1.9488188977002201
 20
10.9451614949482803
 30
0.0
 11
-1.948818897699766
 21
-13.9960646591406395
 31
0.0
  0
LINE
  5
1A4CD
  8
0
 10
-2.933070866200068
 20
-13.9960646591406395
 30
0.0
 11
-1.9488188977002201
 21
-13.9960646591406395
 31
0.0
  0
LINE
  5
1A4CE
  8
0
 10
-3.110236219374201
 20
-14.0275607221406506
 30
0.0
 11
-1.771653544425589
 21
-14.0275607221406506
 31
0.0
  0
ARC
  5
1A4CF
  8
0
 10
-1.771653544425589
 20
-14.0472457626662504
 30
0.0
 40
0.0196850405256033
 50
0.0000032762078534
 51
90.0
  0
LINE
  5
1A4D0
  8
0
 10
-1.751968503900116
 20
-14.0472457615406494
 30
0.0
 11
-1.751968498947462
 21
-14.1338599123406503
 31
0.0
  0
LINE
  5
1A4D1
  8
0
 10
-1.751968498947462
 20
-14.1338599123406503
 30
0.0
 11
-1.791338582700063
 21
-14.1732300134406408
 31
0.0
  0
LINE
  5
1A4D2
  8
0
 10
-1.791338582700063
 20
-14.1732300134406408
 30
0.0
 11
-1.791338582700063
 21
-14.7637811945406394
 31
0.0
  0
LINE
  5
1A4D3
  8
0
 10
-1.791338582700063
 20
-14.7637811945406394
 30
0.0
 11
-3.0905511811001811
 21
-14.7637811945406394
 31
0.0
  0
LINE
  5
1A4D4
  8
0
 10
-3.0905511811001811
 20
-14.7637811945406394
 30
0.0
 11
-3.0905511811001811
 21
-14.1732300134406408
 31
0.0
  0
LINE
  5
1A4D5
  8
0
 10
-3.0905511811001811
 20
-14.1732300134406408
 30
0.0
 11
-3.1299212713001898
 21
-14.1338599233406494
 31
0.0
  0
LINE
  5
1A4D6
  8
0
 10
-3.1299212713001898
 20
-14.1338599233406494
 30
0.0
 11
-3.1299212713001898
 21
-14.0472457615406494
 31
0.0
  0
ARC
  5
1A4D7
  8
0
 10
-3.1102362319002159
 20
-14.0472457615406494
 30
0.0
 40
0.0196850394000059
 50
89.9999668188772262
 51
180.0000000000065086
  0
LINE
  5
1A4D8
  8
0
 10
-2.7559055117999369
 20
-13.9960646591406395
 30
0.0
 11
-2.7559055117999369
 21
-14.0275607221406506
 31
0.0
  0
LINE
  5
1A4D9
  8
0
 10
-2.125984251999852
 20
-13.9960646591406395
 30
0.0
 11
-2.125984251999852
 21
-14.0275607221406506
 31
0.0
  0
LINE
  5
1A4DA
  8
0
 10
-3.149606299200058
 20
-14.8228363127406393
 30
0.0
 11
-1.7322834646001859
 21
-14.8228363127406393
 31
0.0
  0
LINE
  5
1A4DB
  8
0
 10
-1.7322834646001859
 20
-14.8228363127406393
 30
0.0
 11
-1.7322834646001859
 21
-15.0984268643406505
 31
0.0
  0
ARC
  5
1A4DC
  8
0
 10
-1.653543307600102
 20
-15.0984268643406399
 30
0.0
 40
0.0787401569999986
 50
180.0000000000015916
 51
270.0000005093511959
  0
LINE
  5
1A4DD
  8
0
 10
-1.6535433068997909
 20
-15.1771670213406509
 30
0.0
 11
0.0
 21
-15.1771670066406905
 31
0.0
  0
LINE
  5
1A4DE
  8
0
 10
0.0
 20
-15.1771670066406905
 30
0.0
 11
0.0
 21
-16.6732300134406408
 31
0.0
  0
LINE
  5
1A4DF
  8
0
 10
0.0
 20
-16.6732300134406408
 30
0.0
 11
-1.279527559100188
 21
-16.6732300134406408
 31
0.0
  0
ARC
  5
1A4E0
  8
0
 10
-1.535433070900126
 20
-17.3777396904426702
 30
0.0
 40
0.7495475408265316
 50
70.0369956426761036
 51
109.9630043573238964
  0
LINE
  5
1A4E1
  8
0
 10
-1.791338582700063
 20
-16.6732300134406408
 30
0.0
 11
-2.303149605399994
 21
-16.6732300134406408
 31
0.0
  0
ARC
  5
1A4E2
  8
0
 10
-2.303134875251089
 20
-16.7519842975268212
 30
0.0
 40
0.0787548898158799
 50
90.0112962223605706
 51
179.9897221855034104
  0
LINE
  5
1A4E3
  8
0
 10
-2.3818897637997898
 20
-16.7519701703406483
 30
0.0
 11
-2.3819674487890552
 21
-17.1850410301730108
 31
0.0
  0
LINE
  5
1A4E4
  8
0
 10
-2.3819674487890552
 20
-17.1850410301730108
 30
0.0
 11
-3.3661417323000928
 21
-17.1850410301730108
 31
0.0
  0
LINE
  5
1A4E5
  8
0
 10
-3.3661417323000928
 20
-17.1850410301730108
 30
0.0
 11
-3.3661417323000928
 21
-16.7519701709406483
 31
0.0
  0
ARC
  5
1A4E6
  8
0
 10
-3.444881889799944
 20
-16.7519701709406483
 30
0.0
 40
0.0787401575000004
 50
0.0
 51
89.9999999272280888
  0
LINE
  5
1A4E7
  8
0
 10
-3.4448818896999001
 20
-16.6732300134406408
 30
0.0
 11
-3.6062992125998781
 21
-16.6732300132356386
 31
0.0
  0
LINE
  5
1A4E8
  8
0
 10
-3.6062992125998781
 20
-16.6732300132356386
 30
0.0
 11
-3.6062992125998781
 21
-15.1771670213406509
 31
0.0
  0
LINE
  5
1A4E9
  8
0
 10
-3.6062992125998781
 20
-15.1771670213406509
 30
0.0
 11
-3.2283464564998212
 21
-15.1771675284406502
 31
0.0
  0
ARC
  5
1A4EA
  8
0
 10
-3.22834635085428
 20
-15.0984274767840194
 30
0.0
 40
0.0787400516566946
 50
269.9999231261353998
 51
0.0004460127708554
  0
LINE
  5
1A4EB
  8
0
 10
-3.149606299200058
 20
-15.0984268638406398
 30
0.0
 11
-3.149606299200058
 21
-14.8228363127406393
 31
0.0
  0
LINE
  5
1A4EC
  8
0
 10
-3.0314960629998491
 20
-14.7637811945406394
 30
0.0
 11
-3.0314960629998491
 21
-14.8228363127406393
 31
0.0
  0
LINE
  5
1A4ED
  8
0
 10
-1.8503937007999409
 20
-14.7637811945406394
 30
0.0
 11
-1.8503937007999409
 21
-14.8228363127406393
 31
0.0
  0
ARC
  5
1A4EE
  8
0
 10
-20.1000910800203201
 20
-31.7378879106288103
 30
0.0
 40
23.7513807256404306
 50
43.7989302623203685
 51
44.4663303864693873
  0
ARC
  5
1A4EF
  8
0
 10
-0.162072387936405
 20
-12.6187299757170308
 30
0.0
 40
3.8722828530014151
 50
223.7989302623203969
 51
227.9477399921194944
  0
ARC
  5
1A4F0
  8
0
 10
-1.694022814585878
 20
-14.3170156215164308
 30
0.0
 40
1.585134793858872
 50
227.9477399921194944
 51
234.8184771539372946
  0
ARC
  5
1A4F1
  8
0
 10
-2.3923249471254162
 20
-15.3076000413397697
 30
0.0
 40
0.3731598101623394
 50
234.8184771539372946
 51
250.6269000708367969
  0
ARC
  5
1A4F2
  8
0
 10
-2.4402526879703141
 20
-15.4439024587779006
 30
0.0
 40
0.2286765331300813
 50
250.6269000708367969
 51
297.0145037126508214
  0
ARC
  5
1A4F3
  8
0
 10
-2.7271848011746438
 20
-14.8811187091494901
 30
0.0
 40
0.8603849994606312
 50
297.0145037126508214
 51
316.7597310638141153
  0
ARC
  5
1A4F4
  8
0
 10
-6.585020204767261
 20
-10.7039029619529007
 30
0.0
 40
6.5446571734073258
 50
313.2539329026664063
 51
316.3631446127212143
  0
ARC
  5
1A4F5
  8
0
 10
3.427001780908085
 20
-20.2175268667204797
 30
0.0
 40
7.266575113114496
 50
135.2348320654500924
 51
136.5513665299783099
  0
LINE
  5
1A4F6
  8
0
 10
-3.6220472441000311
 20
-15.1771670213406509
 30
0.0
 11
-3.6220472441000311
 21
-16.6732300134406408
 31
0.0
  0
LINE
  5
1A4F7
  8
0
 10
-3.6220472441000311
 20
-16.6732300134406408
 30
0.0
 11
-4.7834645668999647
 21
-16.6732300134406408
 31
0.0
  0
ARC
  5
1A4F8
  8
0
 10
-4.7834645668999647
 20
-16.6535449740406385
 30
0.0
 40
0.0196850393999988
 50
180.0000002910566934
 51
270.0
  0
LINE
  5
1A4F9
  8
0
 10
-4.8031496062999386
 20
-16.6535449741406403
 30
0.0
 11
-4.8031496137000431
 21
-15.1968520607406408
 31
0.0
  0
ARC
  5
1A4FA
  8
0
 10
-4.783464574399658
 20
-15.1968520606406496
 30
0.0
 40
0.0196850393000006
 50
89.9999781706951865
 51
180.0000002910533965
  0
LINE
  5
1A4FB
  8
0
 10
-4.7834645668999647
 20
-15.1771670213406509
 30
0.0
 11
-4.375984251999852
 21
-15.1771671765879006
 31
0.0
  0
ARC
  5
1A4FC
  8
0
 10
-4.2125984249528301
 20
-14.4361600168855109
 30
0.0
 40
0.7588058440536252
 50
257.5657199375476125
 51
282.4342825130436836
  0
LINE
  5
1A4FD
  8
0
 10
-4.0492125984001168
 20
-15.1771670213406509
 30
0.0
 11
-3.6220472441000311
 21
-15.1771670213406509
 31
0.0
  0
LINE
  5
1A4FE
  8
0
 10
-4.370078740199915
 20
-15.1784374077406401
 30
0.0
 11
-4.370078740199915
 21
-14.4173245016406497
 31
0.0
  0
ARC
  5
1A4FF
  8
0
 10
-4.3503937008999847
 20
-14.4173245016406497
 30
0.0
 40
0.0196850393000041
 50
89.9999906860038266
 51
180.0000000000048885
  0
LINE
  5
1A500
  8
0
 10
-4.3503936976999276
 20
-14.3976394623406492
 30
0.0
 11
-4.075443947376697
 21
-14.3976395070364305
 31
0.0
  0
ARC
  5
1A501
  8
0
 10
-4.0748202103345639
 20
-14.4173317327638006
 30
0.0
 40
0.0197021014614003
 50
0.021028865763745
 51
91.8141959369215783
  0
LINE
  5
1A502
  8
0
 10
-4.0551181102000546
 20
-14.4173245016406497
 30
0.0
 11
-4.0551181103032832
 21
-15.1784372154413507
 31
0.0
  0
LINE
  5
1A503
  8
0
 10
-3.6220472441000311
 20
-16.3976394623406492
 30
0.0
 11
-3.6062992125998781
 21
-16.3976394623406492
 31
0.0
  0
LINE
  5
1A504
  8
0
 10
-3.6220472441000311
 20
-15.4527575724406407
 30
0.0
 11
-3.6062992125998781
 21
-15.4527575724406407
 31
0.0
  0
LINE
  5
1A505
  8
0
 10
-3.6220472441000311
 20
-15.8594554866406394
 30
0.0
 11
-3.6062992125998781
 21
-15.8594554866406394
 31
0.0
  0
LINE
  5
1A506
  8
0
 10
-3.6220472441000311
 20
-15.9909415481406398
 30
0.0
 11
-3.6062992125998781
 21
-15.9909415481406505
 31
0.0
  0
ARC
  5
1A507
  8
0
 10
-2.2592718055761898
 20
-18.1189139649893711
 30
0.0
 40
1.75889066481502
 50
122.4268820647989031
 51
128.9984979819103046
  0
ARC
  5
1A508
  8
0
 10
-2.7350019956993492
 20
-17.3700599748031195
 30
0.0
 40
0.8717032480802981
 50
110.573685093435401
 51
122.4268820647989031
  0
ARC
  5
1A509
  8
0
 10
-2.8778954714043721
 20
-16.9893672470273991
 30
0.0
 40
0.4650762711341589
 50
101.104224064389399
 51
110.573685093435401
  0
ARC
  5
1A50A
  8
0
 10
-2.8744682834576452
 20
-17.0068289556619412
 30
0.0
 40
0.482871126729499
 50
70.7430693353816906
 51
101.104224064389399
  0
ARC
  5
1A50B
  8
0
 10
-2.971595527030785
 20
-17.2848506165133813
 30
0.0
 40
0.777370269931501
 50
57.8007154494387692
 51
70.7430693353816906
  0
ARC
  5
1A50C
  8
0
 10
-3.5988495931860589
 20
-18.2809407538432502
 30
0.0
 40
1.9545037480018559
 50
53.3147919062674802
 51
57.8007154494387692
  0
ARC
  5
1A50D
  8
0
 10
-3.3001433608783368
 20
-17.8799796069306609
 30
0.0
 40
1.4545084934713599
 50
50.8527635508290814
 51
53.3147919062674802
  0
LINE
  5
1A50E
  8
0
 10
-3.1889763780000062
 20
-17.1850410301730108
 30
0.0
 11
-3.1889763780000062
 21
-17.6574819819406486
 31
0.0
  0
LINE
  5
1A50F
  8
0
 10
-2.5590551180998768
 20
-17.1850410301730108
 30
0.0
 11
-2.5590551180998768
 21
-17.6574819819406486
 31
0.0
  0
LINE
  5
1A510
  8
0
 10
-2.442913385899828
 20
-17.6574819819406486
 30
0.0
 11
-3.3051181102000551
 21
-17.6574819819406486
 31
0.0
  0
ARC
  5
1A511
  8
0
 10
-3.3051181102000551
 20
-17.6692930055406485
 30
0.0
 40
0.0118110236
 50
90.0
 51
180.0000004850955122
  0
LINE
  5
1A512
  8
0
 10
-3.3169291337999312
 20
-17.6692930056406396
 30
0.0
 11
-3.3169291287167648
 21
-18.2696867064406305
 31
0.0
  0
ARC
  5
1A513
  8
0
 10
-3.2874015693669199
 20
-18.2696867061906509
 30
0.0
 40
0.0295275593499938
 50
180.0000004851004007
 51
269.9999894572450785
  0
LINE
  5
1A514
  8
0
 10
-3.2874015747997869
 20
-18.2992142655406482
 30
0.0
 11
-2.4606299213000962
 21
-18.2992144176713509
 31
0.0
  0
ARC
  5
1A515
  8
0
 10
-2.4606299158667748
 20
-18.2696868640041608
 30
0.0
 40
0.0295275536671978
 50
269.9999894572450785
 51
0.000305738984386
  0
LINE
  5
1A516
  8
0
 10
-2.4311023621999079
 20
-18.2696867064406305
 30
0.0
 11
-2.431102792873844
 21
-18.1889780449417913
 31
0.0
  0
LINE
  5
1A517
  8
0
 10
-2.4311023621999079
 20
-17.8937024544406391
 30
0.0
 11
-2.4311023621999079
 21
-17.6692930056406396
 31
0.0
  0
ARC
  5
1A518
  8
0
 10
-2.442913385799784
 20
-17.6692930056406396
 30
0.0
 40
0.0118110235999964
 50
0.0000000000179129
 51
90.0000000000260485
  0
LINE
  5
1A519
  8
0
 10
-3.3296534332998808
 20
-17.8937024544406391
 30
0.0
 11
-2.4178453591998732
 21
-17.8937024544406391
 31
0.0
  0
LINE
  5
1A51A
  8
0
 10
-2.4178453591998732
 20
-17.8937024544406391
 30
0.0
 11
-2.4178453591998732
 21
-18.1889780449406508
 31
0.0
  0
LINE
  5
1A51B
  8
0
 10
-2.4178453591998732
 20
-18.1889780449406508
 30
0.0
 11
-3.3296534332998808
 21
-18.1889780449406508
 31
0.0
  0
LINE
  5
1A51C
  8
0
 10
-3.3296534332998808
 20
-18.1889780449406508
 30
0.0
 11
-3.3296534332998808
 21
-17.8937024544406391
 31
0.0
  0
LINE
  5
1A51D
  8
0
 10
-3.3253992670001931
 20
-17.8937024544406391
 30
0.0
 11
-3.3253992670001931
 21
-18.1889780449406508
 31
0.0
  0
LINE
  5
1A51E
  8
0
 10
-3.304326664700056
 20
-17.8937024544406391
 30
0.0
 11
-3.304326664700056
 21
-18.1889780449406402
 31
0.0
  0
LINE
  5
1A51F
  8
0
 10
-3.2877049777998759
 20
-17.8937024544406391
 30
0.0
 11
-3.2877049777998759
 21
-18.1889780449406402
 31
0.0
  0
LINE
  5
1A520
  8
0
 10
-3.267220786100097
 20
-17.8937024544406391
 30
0.0
 11
-3.267220786100097
 21
-18.1889780449406402
 31
0.0
  0
LINE
  5
1A521
  8
0
 10
-3.2444995689997991
 20
-17.8937024544406391
 30
0.0
 11
-3.2444995689997991
 21
-18.1889780449406402
 31
0.0
  0
LINE
  5
1A522
  8
0
 10
-3.2430653449000602
 20
-17.8937024544406391
 30
0.0
 11
-3.2430653449000602
 21
-18.1889780449406402
 31
0.0
  0
LINE
  5
1A523
  8
0
 10
-3.219343956000102
 20
-17.8937024544406391
 30
0.0
 11
-3.219343956000102
 21
-18.1889780449406402
 31
0.0
  0
LINE
  5
1A524
  8
0
 10
-3.2154641871002241
 20
-17.8937024544406391
 30
0.0
 11
-3.2154641871002241
 21
-18.1889780449406402
 31
0.0
  0
LINE
  5
1A525
  8
0
 10
-3.190964106599949
 20
-17.8937024544406391
 30
0.0
 11
-3.190964106599949
 21
-18.1889780449406402
 31
0.0
  0
LINE
  5
1A526
  8
0
 10
-3.1846750170998339
 20
-17.8937024544406391
 30
0.0
 11
-3.1846750170998339
 21
-18.1889780449406402
 31
0.0
  0
LINE
  5
1A527
  8
0
 10
-3.1596249958001859
 20
-17.8937024544406391
 30
0.0
 11
-3.1596249958001859
 21
-18.1889780449406402
 31
0.0
  0
LINE
  5
1A528
  8
0
 10
-3.1509853052998551
 20
-17.8937024544406391
 30
0.0
 11
-3.1509853052998551
 21
-18.1889780449406402
 31
0.0
  0
LINE
  5
1A529
  8
0
 10
-3.1256192283999549
 20
-17.8937024544406391
 30
0.0
 11
-3.1256192283999549
 21
-18.1889780449406402
 31
0.0
  0
LINE
  5
1A52A
  8
0
 10
-3.1147096033000699
 20
-17.8937024544406391
 30
0.0
 11
-3.1147096033000699
 21
-18.1889780449406402
 31
0.0
  0
LINE
  5
1A52B
  8
0
 10
-3.0892643071001649
 20
-17.8937024544406391
 30
0.0
 11
-3.0892643071001649
 21
-18.1889780449406402
 31
0.0
  0
LINE
  5
1A52C
  8
0
 10
-3.0761866077000368
 20
-17.8937024544406391
 30
0.0
 11
-3.0761866077000368
 21
-18.1889780449406402
 31
0.0
  0
LINE
  5
1A52D
  8
0
 10
-3.0508996679000111
 20
-17.8937024544406391
 30
0.0
 11
-3.0508996679000111
 21
-18.1889780449406402
 31
0.0
  0
LINE
  5
1A52E
  8
0
 10
-3.0357759971998339
 20
-17.8937024544406391
 30
0.0
 11
-3.0357759971998339
 21
-18.1889780449406402
 31
0.0
  0
LINE
  5
1A52F
  8
0
 10
-3.0108835113001069
 20
-17.8937024544406391
 30
0.0
 11
-3.0108835113001069
 21
-18.1889780449406402
 31
0.0
  0
LINE
  5
1A530
  8
0
 10
-2.9938550748997841
 20
-17.8937024544406391
 30
0.0
 11
-2.9938550748997841
 21
-18.1889780449406402
 31
0.0
  0
LINE
  5
1A531
  8
0
 10
-2.9695894572000721
 20
-17.8937024544406391
 30
0.0
 11
-2.9695894572000721
 21
-18.1889780449406402
 31
0.0
  0
LINE
  5
1A532
  8
0
 10
-2.950815245099875
 20
-17.8937024544406391
 30
0.0
 11
-2.950815245099875
 21
-18.1889780449406402
 31
0.0
  0
LINE
  5
1A533
  8
0
 10
-2.9274030572000811
 20
-17.8937024544406391
 30
0.0
 11
-2.9274030572000811
 21
-18.1889780449406402
 31
0.0
  0
LINE
  5
1A534
  8
0
 10
-2.9070583590000751
 20
-17.8937024544406391
 30
0.0
 11
-2.9070583590000751
 21
-18.1889780449406402
 31
0.0
  0
LINE
  5
1A535
  8
0
 10
-2.8847181943001479
 20
-17.8937024544406391
 30
0.0
 11
-2.8847181943001479
 21
-18.1889780449406402
 31
0.0
  0
LINE
  5
1A536
  8
0
 10
-2.8629929630001238
 20
-17.8937024544406391
 30
0.0
 11
-2.8629929630001238
 21
-18.1889780449406402
 31
0.0
  0
LINE
  5
1A537
  8
0
 10
-2.841933405500185
 20
-17.8937024544406391
 30
0.0
 11
-2.841933405500185
 21
-18.1889780449406402
 31
0.0
  0
LINE
  5
1A538
  8
0
 10
-2.8190304836998621
 20
-17.8937024544406391
 30
0.0
 11
-2.8190304836998621
 21
-18.1889780449406402
 31
0.0
  0
LINE
  5
1A539
  8
0
 10
-2.7994481607997841
 20
-17.8937024544406391
 30
0.0
 11
-2.7994481607997841
 21
-18.1889780449406402
 31
0.0
  0
LINE
  5
1A53A
  8
0
 10
-2.7755813870999191
 20
-17.8937024544406391
 30
0.0
 11
-2.7755813870999191
 21
-18.1889780449406402
 31
0.0
  0
LINE
  5
1A53B
  8
0
 10
-2.7576591337001441
 20
-17.8937024544406391
 30
0.0
 11
-2.7576591337001441
 21
-18.1889780449406508
 31
0.0
  0
LINE
  5
1A53C
  8
0
 10
-2.7330513455999599
 20
-17.8937024544406391
 30
0.0
 11
-2.7330513455999599
 21
-18.1889780449406402
 31
0.0
  0
LINE
  5
1A53D
  8
0
 10
-2.7169564968999111
 20
-17.8937024544406391
 30
0.0
 11
-2.7169564968999111
 21
-18.1889780449406402
 31
0.0
  0
LINE
  5
1A53E
  8
0
 10
-2.691837450699949
 20
-17.8937024544406391
 30
0.0
 11
-2.691837450699949
 21
-18.1889780449406402
 31
0.0
  0
LINE
  5
1A53F
  8
0
 10
-2.6777202799999031
 20
-17.8937024544406391
 30
0.0
 11
-2.6777202799999031
 21
-18.1889780449406402
 31
0.0
  0
LINE
  5
1A540
  8
0
 10
-2.652324505500018
 20
-17.8937024544406391
 30
0.0
 11
-2.652324505500018
 21
-18.1889780449406402
 31
0.0
  0
LINE
  5
1A541
  8
0
 10
-2.6403168209999421
 20
-17.8937024544406391
 30
0.0
 11
-2.6403168209999421
 21
-18.1889780449406402
 31
0.0
  0
LINE
  5
1A542
  8
0
 10
-2.6148814316998141
 20
-17.8937024544406391
 30
0.0
 11
-2.6148814316998141
 21
-18.1889780449406402
 31
0.0
  0
LINE
  5
1A543
  8
0
 10
-2.60509534599987
 20
-17.8937024544406391
 30
0.0
 11
-2.60509534599987
 21
-18.1889780449406402
 31
0.0
  0
LINE
  5
1A544
  8
0
 10
-2.5798578251001341
 20
-17.8937024544406391
 30
0.0
 11
-2.5798578251001341
 21
-18.1889780449406402
 31
0.0
  0
LINE
  5
1A545
  8
0
 10
-2.5723847081999329
 20
-17.8937024544406391
 30
0.0
 11
-2.5723847081999329
 21
-18.1889780449406402
 31
0.0
  0
LINE
  5
1A546
  8
0
 10
-2.5475806918998378
 20
-17.8937024544406391
 30
0.0
 11
-2.5475806918998378
 21
-18.1889780449406402
 31
0.0
  0
LINE
  5
1A547
  8
0
 10
-2.542490318200179
 20
-17.8937024544406391
 30
0.0
 11
-2.542490318200179
 21
-18.1889780449406402
 31
0.0
  0
LINE
  5
1A548
  8
0
 10
-2.5183513947999918
 20
-17.8937024544406391
 30
0.0
 11
-2.5183513947999918
 21
-18.1889780449406402
 31
0.0
  0
LINE
  5
1A549
  8
0
 10
-2.5156912919001111
 20
-17.8937024544406391
 30
0.0
 11
-2.5156912919001111
 21
-18.1889780449406402
 31
0.0
  0
LINE
  5
1A54A
  8
0
 10
-2.4922378443998241
 20
-17.8937024544406391
 30
0.0
 11
-2.4922378443998241
 21
-18.1889780449406402
 31
0.0
  0
LINE
  5
1A54B
  8
0
 10
-2.4700969286000141
 20
-17.8937024544406391
 30
0.0
 11
-2.4700969286000141
 21
-18.1889780449406402
 31
0.0
  0
LINE
  5
1A54C
  8
0
 10
-2.4515222983000049
 20
-17.8937024544406391
 30
0.0
 11
-2.4515222983000049
 21
-18.1889780449406402
 31
0.0
  0
LINE
  5
1A54D
  8
0
 10
-2.4368923756001091
 20
-17.8937024544406391
 30
0.0
 11
-2.4368923756001091
 21
-18.1889780449406402
 31
0.0
  0
LINE
  5
1A54E
  8
0
 10
-2.4263437559998229
 20
-17.8937024544406391
 30
0.0
 11
-2.4263437559998229
 21
-18.1889780449406402
 31
0.0
  0
LINE
  5
1A54F
  8
0
 10
-2.4199749292001789
 20
-17.8937024544406391
 30
0.0
 11
-2.4199749292001789
 21
-18.1889780449406402
 31
0.0
  0
LINE
  5
1A550
  8
0
 10
-1.104330708700217
 20
-16.9094504858406509
 30
0.0
 11
-1.96653543299999
 21
-16.9094504858406509
 31
0.0
  0
ARC
  5
1A551
  8
0
 10
-1.96653543299999
 20
-16.9212615094406509
 30
0.0
 40
0.0118110236
 50
90.0
 51
180.0000004850955122
  0
LINE
  5
1A552
  8
0
 10
-1.978346456599865
 20
-16.9212615095406385
 30
0.0
 11
-1.9783464515166991
 21
-17.52165521034064
 31
0.0
  0
ARC
  5
1A553
  8
0
 10
-1.948818892166855
 20
-17.5216552100906604
 30
0.0
 40
0.0295275593499938
 50
180.0000004851004007
 51
269.9999894572450785
  0
LINE
  5
1A554
  8
0
 10
-1.9488188976001759
 20
-17.5511827694406399
 30
0.0
 11
-1.1220472441000311
 21
-17.5511829215713497
 31
0.0
  0
ARC
  5
1A555
  8
0
 10
-1.1220472386667091
 20
-17.5216553679041596
 30
0.0
 40
0.0295275536671978
 50
269.9999894572450785
 51
0.000305738984386
  0
LINE
  5
1A556
  8
0
 10
-1.092519684999842
 20
-17.52165521034064
 30
0.0
 11
-1.092520115673778
 21
-17.4409465488417901
 31
0.0
  0
LINE
  5
1A557
  8
0
 10
-1.092519684999842
 20
-17.1456709583406415
 30
0.0
 11
-1.092519684999842
 21
-16.9212615095406385
 31
0.0
  0
ARC
  5
1A558
  8
0
 10
-1.104330708600173
 20
-16.9212615095406385
 30
0.0
 40
0.0118110235999964
 50
0.0000000000179129
 51
90.0000000000260485
  0
LINE
  5
1A559
  8
0
 10
-1.991070756099816
 20
-17.1456709583406415
 30
0.0
 11
-1.079262681999807
 21
-17.1456709583406415
 31
0.0
  0
LINE
  5
1A55A
  8
0
 10
-1.079262681999807
 20
-17.1456709583406415
 30
0.0
 11
-1.079262681999807
 21
-17.440946548840639
 31
0.0
  0
LINE
  5
1A55B
  8
0
 10
-1.079262681999807
 20
-17.440946548840639
 30
0.0
 11
-1.991070756099816
 21
-17.440946548840639
 31
0.0
  0
LINE
  5
1A55C
  8
0
 10
-1.991070756099816
 20
-17.440946548840639
 30
0.0
 11
-1.991070756099816
 21
-17.1456709583406415
 31
0.0
  0
LINE
  5
1A55D
  8
0
 10
-1.9868165898001271
 20
-17.1456709583406415
 30
0.0
 11
-1.9868165898001271
 21
-17.440946548840639
 31
0.0
  0
LINE
  5
1A55E
  8
0
 10
-1.96574398749999
 20
-17.1456709583406415
 30
0.0
 11
-1.96574398749999
 21
-17.440946548840639
 31
0.0
  0
LINE
  5
1A55F
  8
0
 10
-1.94912230059981
 20
-17.1456709583406415
 30
0.0
 11
-1.94912230059981
 21
-17.440946548840639
 31
0.0
  0
LINE
  5
1A560
  8
0
 10
-1.9286381089000311
 20
-17.1456709583406415
 30
0.0
 11
-1.9286381089000311
 21
-17.440946548840639
 31
0.0
  0
LINE
  5
1A561
  8
0
 10
-1.9059168918001881
 20
-17.1456709583406415
 30
0.0
 11
-1.9059168918001881
 21
-17.440946548840639
 31
0.0
  0
LINE
  5
1A562
  8
0
 10
-1.904482667699994
 20
-17.1456709583406415
 30
0.0
 11
-1.904482667699994
 21
-17.440946548840639
 31
0.0
  0
LINE
  5
1A563
  8
0
 10
-1.8807612788000361
 20
-17.1456709583406415
 30
0.0
 11
-1.8807612788000361
 21
-17.440946548840639
 31
0.0
  0
LINE
  5
1A564
  8
0
 10
-1.8768815099001579
 20
-17.1456709583406415
 30
0.0
 11
-1.8768815099001579
 21
-17.440946548840639
 31
0.0
  0
LINE
  5
1A565
  8
0
 10
-1.852381429399883
 20
-17.1456709583406415
 30
0.0
 11
-1.852381429399883
 21
-17.440946548840639
 31
0.0
  0
LINE
  5
1A566
  8
0
 10
-1.846092339900224
 20
-17.1456709583406415
 30
0.0
 11
-1.8460923398997691
 21
-17.440946548840639
 31
0.0
  0
LINE
  5
1A567
  8
0
 10
-1.8210423186001199
 20
-17.1456709583406415
 30
0.0
 11
-1.8210423186001199
 21
-17.440946548840639
 31
0.0
  0
LINE
  5
1A568
  8
0
 10
-1.8124026280997889
 20
-17.1456709583406415
 30
0.0
 11
-1.8124026280997889
 21
-17.440946548840639
 31
0.0
  0
LINE
  5
1A569
  8
0
 10
-1.7870365511998889
 20
-17.1456709583406415
 30
0.0
 11
-1.7870365511998889
 21
-17.440946548840639
 31
0.0
  0
LINE
  5
1A56A
  8
0
 10
-1.776126926100005
 20
-17.1456709583406415
 30
0.0
 11
-1.776126926100005
 21
-17.440946548840639
 31
0.0
  0
LINE
  5
1A56B
  8
0
 10
-1.7506816299001
 20
-17.1456709583406415
 30
0.0
 11
-1.7506816299001
 21
-17.440946548840639
 31
0.0
  0
LINE
  5
1A56C
  8
0
 10
-1.737603930499972
 20
-17.1456709583406415
 30
0.0
 11
-1.737603930499972
 21
-17.440946548840639
 31
0.0
  0
LINE
  5
1A56D
  8
0
 10
-1.712316990699946
 20
-17.1456709583406415
 30
0.0
 11
-1.712316990699946
 21
-17.440946548840639
 31
0.0
  0
LINE
  5
1A56E
  8
0
 10
-1.697193320000224
 20
-17.1456709583406415
 30
0.0
 11
-1.697193320000224
 21
-17.440946548840639
 31
0.0
  0
LINE
  5
1A56F
  8
0
 10
-1.672300834100042
 20
-17.1456709583406415
 30
0.0
 11
-1.672300834100042
 21
-17.440946548840639
 31
0.0
  0
LINE
  5
1A570
  8
0
 10
-1.6552723977001731
 20
-17.1456709583406415
 30
0.0
 11
-1.6552723977001731
 21
-17.440946548840639
 31
0.0
  0
LINE
  5
1A571
  8
0
 10
-1.6310067800000061
 20
-17.1456709583406415
 30
0.0
 11
-1.6310067800000061
 21
-17.440946548840639
 31
0.0
  0
LINE
  5
1A572
  8
0
 10
-1.6122325678998091
 20
-17.1456709583406415
 30
0.0
 11
-1.6122325678998091
 21
-17.440946548840639
 31
0.0
  0
LINE
  5
1A573
  8
0
 10
-1.5888203800000149
 20
-17.1456709583406415
 30
0.0
 11
-1.5888203800000149
 21
-17.440946548840639
 31
0.0
  0
LINE
  5
1A574
  8
0
 10
-1.568475681800009
 20
-17.1456709583406415
 30
0.0
 11
-1.568475681800009
 21
-17.440946548840639
 31
0.0
  0
LINE
  5
1A575
  8
0
 10
-1.546135517100083
 20
-17.1456709583406415
 30
0.0
 11
-1.546135517100083
 21
-17.440946548840639
 31
0.0
  0
LINE
  5
1A576
  8
0
 10
-1.5244102858000581
 20
-17.1456709583406415
 30
0.0
 11
-1.5244102858000581
 21
-17.440946548840639
 31
0.0
  0
LINE
  5
1A577
  8
0
 10
-1.5033507283001191
 20
-17.1456709583406415
 30
0.0
 11
-1.5033507283001191
 21
-17.440946548840639
 31
0.0
  0
LINE
  5
1A578
  8
0
 10
-1.4804478064997959
 20
-17.1456709583406415
 30
0.0
 11
-1.4804478064997959
 21
-17.440946548840639
 31
0.0
  0
LINE
  5
1A579
  8
0
 10
-1.4608654836001731
 20
-17.1456709583406415
 30
0.0
 11
-1.4608654836001731
 21
-17.440946548840639
 31
0.0
  0
LINE
  5
1A57A
  8
0
 10
-1.4369987098998529
 20
-17.1456709583406415
 30
0.0
 11
-1.4369987098998529
 21
-17.440946548840639
 31
0.0
  0
LINE
  5
1A57B
  8
0
 10
-1.4190764565000791
 20
-17.1456709583406415
 30
0.0
 11
-1.4190764565000791
 21
-17.4409465489406408
 31
0.0
  0
LINE
  5
1A57C
  8
0
 10
-1.394468668399895
 20
-17.1456709583406415
 30
0.0
 11
-1.394468668399895
 21
-17.440946548840639
 31
0.0
  0
LINE
  5
1A57D
  8
0
 10
-1.378373819699845
 20
-17.1456709583406415
 30
0.0
 11
-1.378373819699845
 21
-17.440946548840639
 31
0.0
  0
LINE
  5
1A57E
  8
0
 10
-1.3532547734998841
 20
-17.1456709583406415
 30
0.0
 11
-1.3532547734998841
 21
-17.440946548840639
 31
0.0
  0
LINE
  5
1A57F
  8
0
 10
-1.339137602799837
 20
-17.1456709583406415
 30
0.0
 11
-1.339137602799837
 21
-17.440946548840639
 31
0.0
  0
LINE
  5
1A580
  8
0
 10
-1.3137418282999529
 20
-17.1456709583406415
 30
0.0
 11
-1.3137418282999529
 21
-17.440946548840639
 31
0.0
  0
LINE
  5
1A581
  8
0
 10
-1.301734143799876
 20
-17.1456709583406415
 30
0.0
 11
-1.301734143799876
 21
-17.440946548840639
 31
0.0
  0
LINE
  5
1A582
  8
0
 10
-1.2762987545002029
 20
-17.1456709583406415
 30
0.0
 11
-1.2762987545002029
 21
-17.440946548840639
 31
0.0
  0
LINE
  5
1A583
  8
0
 10
-1.266512668799805
 20
-17.1456709583406415
 30
0.0
 11
-1.266512668799805
 21
-17.440946548840639
 31
0.0
  0
LINE
  5
1A584
  8
0
 10
-1.2412751479000681
 20
-17.1456709583406415
 30
0.0
 11
-1.2412751479000681
 21
-17.440946548840639
 31
0.0
  0
LINE
  5
1A585
  8
0
 10
-1.2338020309998681
 20
-17.1456709583406415
 30
0.0
 11
-1.2338020309998681
 21
-17.440946548840639
 31
0.0
  0
LINE
  5
1A586
  8
0
 10
-1.208998014699773
 20
-17.1456709583406415
 30
0.0
 11
-1.2089980147002271
 21
-17.440946548840639
 31
0.0
  0
LINE
  5
1A587
  8
0
 10
-1.2039076410001139
 20
-17.1456709583406415
 30
0.0
 11
-1.2039076410001139
 21
-17.440946548840639
 31
0.0
  0
LINE
  5
1A588
  8
0
 10
-1.179768717599927
 20
-17.1456709583406415
 30
0.0
 11
-1.179768717599927
 21
-17.440946548840639
 31
0.0
  0
LINE
  5
1A589
  8
0
 10
-1.177108614700046
 20
-17.1456709583406415
 30
0.0
 11
-1.177108614700046
 21
-17.440946548840639
 31
0.0
  0
LINE
  5
1A58A
  8
0
 10
-1.1536551672002131
 20
-17.1456709583406415
 30
0.0
 11
-1.1536551672002131
 21
-17.440946548840639
 31
0.0
  0
LINE
  5
1A58B
  8
0
 10
-1.1315142513999481
 20
-17.1456709583406415
 30
0.0
 11
-1.1315142513999481
 21
-17.440946548840639
 31
0.0
  0
LINE
  5
1A58C
  8
0
 10
-1.11293962109994
 20
-17.1456709583406415
 30
0.0
 11
-1.11293962109994
 21
-17.440946548840639
 31
0.0
  0
LINE
  5
1A58D
  8
0
 10
-1.0983096984000431
 20
-17.1456709583406415
 30
0.0
 11
-1.0983096984000431
 21
-17.440946548840639
 31
0.0
  0
LINE
  5
1A58E
  8
0
 10
-1.0877610788002119
 20
-17.1456709583406415
 30
0.0
 11
-1.0877610788002119
 21
-17.440946548840639
 31
0.0
  0
LINE
  5
1A58F
  8
0
 10
-1.081392252000114
 20
-17.1456709583406415
 30
0.0
 11
-1.081392252000114
 21
-17.440946548840639
 31
0.0
  0
LINE
  5
1A590
  8
0
 10
-1.791338582700063
 20
-16.9094504858406509
 30
0.0
 11
-1.791338582700063
 21
-16.6732300134406408
 31
0.0
  0
LINE
  5
1A591
  8
0
 10
-1.279527559100188
 20
-16.9094504858406509
 30
0.0
 11
-1.279527559100188
 21
-16.6732300134406408
 31
0.0
  0
LINE
  5
1A592
  8
0
 10
-1.8110236221000371
 20
-17.5511827693406417
 30
0.0
 11
-1.8072666879002091
 21
-22.4788762349406603
 31
0.0
  0
LINE
  5
1A593
  8
0
 10
-1.2521746134711971
 20
-22.6822343823874597
 30
0.0
 11
-1.2598425197002141
 21
-17.5511827693406417
 31
0.0
  0
LINE
  5
1A594
  8
0
 10
-2.5984251968998251
 20
-18.2992142654406393
 30
0.0
 11
-2.5984251968998251
 21
-20.2199299599761488
 31
0.0
  0
LINE
  5
1A595
  8
0
 10
-3.1490250413999088
 20
-18.2992135775406517
 30
0.0
 11
-3.149441089130959
 21
-20.1311793990332184
 31
0.0
  0
ARC
  5
1A596
  8
0
 10
612.1977865933795329
 20
-20.2709275399369311
 30
0.0
 40
615.3472435512273933
 50
179.9869878693345129
 51
180.0130121306654871
  0
ARC
  5
1A597
  8
0
 10
-4.9230798377675447
 20
-20.4110784822292111
 30
0.0
 40
1.773638794375662
 50
327.5355810246251735
 51
0.0130121306654821
  0
ARC
  5
1A598
  8
0
 10
-6.1244647864527897
 20
-19.6467603100485597
 30
0.0
 40
3.1975447123537362
 50
309.0973144135211896
 51
327.5355810246251735
  0
ARC
  5
1A599
  8
0
 10
-16.1278284058580503
 20
-4.9622294315418847
 30
0.0
 40
20.9559293585569399
 50
298.3518936580405239
 51
305.0001138751957797
  0
ARC
  5
1A59A
  8
0
 10
-5.203030354913607
 20
-25.0641553285224994
 30
0.0
 40
1.923960478787837
 50
120.3842083984590943
 51
148.1907967538687956
  0
ARC
  5
1A59B
  8
0
 10
-6.0108986590976201
 20
-24.4477596820460086
 30
0.0
 40
0.9177769632771436
 50
154.3203120326209046
 51
216.5782658617848142
  0
ARC
  5
1A59C
  8
0
 10
-3.9212906475213449
 20
-22.8971093169286384
 30
0.0
 40
3.5198872985400951
 50
216.5782658617848142
 51
247.5988333225851932
  0
ARC
  5
1A59D
  8
0
 10
-2.8563712929030771
 20
-21.3123445756039409
 30
0.0
 40
5.4043123576690544
 50
243.5601877993572089
 51
263.2204490703513216
  0
ARC
  5
1A59E
  8
0
 10
-3.1587253714051249
 20
-24.9225034664324312
 30
0.0
 40
1.7881443673560371
 50
259.1818035471173971
 51
315.4559198686774266
  0
ARC
  5
1A59F
  8
0
 10
-3.7727634573498099
 20
-24.6458237369450295
 30
0.0
 40
2.4310975125469301
 50
320.9682022022890919
 51
349.1711996648155036
  0
ARC
  5
1A5A0
  8
0
 10
-11.9283436420009803
 20
-23.3103363992108186
 30
0.0
 40
10.6946293656801501
 50
350.3527252188582111
 51
3.366953092496618
  0
ARC
  5
1A5A1
  8
0
 10
-23.0150693021219013
 20
-23.2430424002644607
 30
0.0
 40
21.2215654853313715
 50
357.6378553674168757
 51
2.0636066462290481
  0
ARC
  5
1A5A2
  8
0
 10
-6.4993935555016833
 20
-23.9243235188553989
 30
0.0
 40
4.6918440923358906
 50
342.7054106957652948
 51
357.6378553674168757
  0
ARC
  5
1A5A3
  8
0
 10
-3.2918635019291278
 20
-24.923025604185721
 30
0.0
 40
1.3324312121118871
 50
313.6734707182059765
 51
342.7054106957668864
  0
ARC
  5
1A5A4
  8
0
 10
-3.0498319391840591
 20
-25.0914281812260391
 30
0.0
 40
1.0451470808700329
 50
271.7269081226177718
 51
310.4500474992250929
  0
ARC
  5
1A5A5
  8
0
 10
-3.1138377590427799
 20
-22.2798442589695718
 30
0.0
 40
3.8574387110377439
 50
247.2296384766609947
 51
271.4186673161178192
  0
ARC
  5
1A5A6
  8
0
 10
-3.108331527031623
 20
-21.6869912039448209
 30
0.0
 40
4.411927395525117
 50
228.707858437676208
 51
250.1448208891287095
  0
ARC
  5
1A5A7
  8
0
 10
-5.0441911842899572
 20
-23.8911436392768906
 30
0.0
 40
1.478356095764334
 50
211.3586461978727016
 51
228.707858437676208
  0
ARC
  5
1A5A8
  8
0
 10
-5.9511185866908809
 20
-24.4438364093130396
 30
0.0
 40
0.416288955101223
 50
155.4642511828513989
 51
211.3586461978727016
  0
ARC
  5
1A5A9
  8
0
 10
-5.3443213054406442
 20
-24.9697480919564896
 30
0.0
 40
1.2080963510187051
 50
124.6365689881606045
 51
144.6609092860755084
  0
ARC
  5
1A5AA
  8
0
 10
-0.1826881740594217
 20
-32.5402807005922412
 30
0.0
 40
10.3707954757359104
 50
117.2788594462221994
 51
124.3271849610052016
  0
ARC
  5
1A5AB
  8
0
 10
-8.2761655736726425
 20
-16.9323121833961103
 30
0.0
 40
7.2108809984372018
 50
297.5959182689285853
 51
309.4520012563788782
  0
ARC
  5
1A5AC
  8
0
 10
-6.1648445753630758
 20
-19.6181819245743405
 30
0.0
 40
3.7961365396528639
 50
310.6054214467822021
 51
328.8053525578209246
  0
ARC
  5
1A5AD
  8
0
 10
-5.6201844863057877
 20
-20.1499043018004187
 30
0.0
 40
3.0597032089214111
 50
332.0417325518640155
 51
347.0095865223008786
  0
ARC
  5
1A5AE
  8
0
 10
-4.8705880989646166
 20
-20.41140490109456
 30
0.0
 40
2.272148323836598
 50
349.1864992615901997
 51
357.938085668404824
  0
ARC
  5
1A5AF
  8
0
 10
-15.1658392682165903
 20
-20.2882086749290202
 30
0.0
 40
12.5675995489530106
 50
359.065604508294598
 51
0.3112846990069329
  0
LINE
  5
1A5B0
  8
0
 62
     1
 10
-0.0
 20
0.0
 30
0.0
 11
3406.2409287560622033
 21
0.0
 31
0.0
  0
LINE
  5
1A5B1
  8
0
 62
     1
 10
0.0
 20
15.9251985100406692
 30
0.0
 11
0.0
 21
167.4693819217473845
 31
0.0
  0
ATTDEF
  5
1A5B2
  8
DEFPOINTS
 10
0.0005310395818015
 20
0.001331590652228
 30
0.0
 40
0.001
  1
SHOWER COLUMN
  3

  2
PRODUCT
 70
     0
1001
ACDBATTR
1070
     0
1070
     1
  0
ATTDEF
  5
1A5B3
  8
DEFPOINTS
 10
0.0005310395818015
 20
0.0029982573188931
 30
0.0
 40
0.001
  1
KATALYST
  3

  2
TRADENAME
 70
     0
1001
ACDBATTR
1070
     0
1070
     1
  0
ATTDEF
  5
1A5B4
  8
DEFPOINTS
 10
0.0005310395818015
 20
0.0046649239855583
 30
0.0
 40
0.001
  1
K-12967T
  3

  2
MODELNUMBER
 70
     0
1001
ACDBATTR
1070
     0
1070
     1
  0
ENDBLK
  5
1A5B8
  8
0
  0
BLOCK
  8
0
  2
_FILLED
 70
     0
 10
0.0
 20
0.0
 30
0.0
  3
_FILLED
  1

  0
SOLID
  5
1AA48
  8
0
  6
BYBLOCK
 62
     0
 10
0.0
 20
0.0
 30
0.0
 11
-1.0
 21
0.1666666667
 31
0.0
 12
-1.0
 22
-0.1666666667
 32
0.0
 13
-1.0
 23
-0.1666666667
 33
0.0
  0
ENDBLK
  5
1AA49
  8
0
  6
BYBLOCK
 62
     0
  0
ENDSEC
  0
SECTION
  2
ENTITIES
  0
ATTDEF
  5
1952E
  8
DEFPOINTS
 10
3404.6460127076788922
 20
134.0141915156578136
 30
0.0
 40
0.001
  1
K-12967T
  3

  2
MODELNUMBER
 70
     0
1001
ACDBATTR
1070
     0
1070
     1
  0
ATTDEF
  5
1952F
  8
DEFPOINTS
 10
3404.6460127076788922
 20
134.0125248489912053
 30
0.0
 40
0.001
  1
KATALYST
  3

  2
TRADENAME
 70
     0
1001
ACDBATTR
1070
     0
1070
     1
  0
ATTDEF
  5
19530
  8
DEFPOINTS
 10
3404.6460127076788922
 20
134.0108581823245117
 30
0.0
 40
0.001
  1
SHOWER COLUMN
  3

  2
PRODUCT
 70
     0
1001
ACDBATTR
1070
     0
1070
     1
  0
LINE
  5
1AC71
  8
0
 10
3382.460374649953792
 20
156.4372621465080044
 30
0.0
 11
3390.4525006342541928
 21
156.4372621465080044
 31
0.0
  0
LINE
  5
1AC72
  8
0
 10
3382.4902959098540123
 20
155.9648212016080038
 30
0.0
 11
3390.4225793743539725
 21
155.9648212016080038
 31
0.0
  0
LINE
  5
1AC73
  8
0
 10
3382.460374649953792
 20
156.4372621465080044
 30
0.0
 11
3382.4603746500538364
 21
155.9947424615079967
 31
0.0
  0
ARC
  5
1AC74
  8
0
 10
3382.4902959099599684
 20
155.9947424615147895
 30
0.0
 40
0.0299212599067617
 50
180.0000000129477087
 51
269.9999997955716253
  0
LINE
  5
1AC75
  8
0
 10
3390.4525006342541928
 20
156.4372621465080044
 30
0.0
 11
3390.4525006342541928
 21
155.9947424615079967
 31
0.0
  0
ARC
  5
1AC76
  8
0
 10
3390.4225793743539725
 20
155.9947424615079967
 30
0.0
 40
0.0299212599000001
 50
270.0
 51
0.0
  0
LINE
  5
1AC77
  8
0
 10
3383.1465295600542049
 20
155.9648212016080038
 30
0.0
 11
3383.1509682929031442
 21
155.9234592347916077
 31
0.0
  0
ARC
  5
1AC78
  8
0
 10
3383.1587973564528511
 20
155.9242994057080125
 30
0.0
 40
0.0078740156999995
 50
186.1252180547934074
 51
268.0000000523988888
  0
LINE
  5
1AC79
  8
0
 10
3383.1585225572757736
 20
155.9164301866454139
 30
0.0
 11
3383.2506731099610988
 21
155.9132122185208971
 31
0.0
  0
ARC
  5
1AC7A
  8
0
 10
3383.2509479110572101
 20
155.9210814925266106
 30
0.0
 40
0.0078740706765504
 50
268.0000000523988888
 51
349.8744339065813165
  0
LINE
  5
1AC7B
  8
0
 10
3383.2586993417539816
 20
155.9196971836080081
 30
0.0
 11
3383.2608538949821195
 21
155.9317615933688899
 31
0.0
  0
LINE
  5
1AC7C
  8
0
 10
3383.2572661090539441
 20
155.9648212016080038
 30
0.0
 11
3383.2617618324538853
 21
155.9233945855079924
 31
0.0
  0
ARC
  5
1AC7D
  8
0
 10
3383.269541307228792
 20
155.9242388342080119
 30
0.0
 40
0.0078251507108568
 50
186.1936473966217136
 51
271.0189113791250861
  0
LINE
  5
1AC7E
  8
0
 10
3383.2696804573538429
 20
155.9164149208079948
 30
0.0
 11
3383.3599240358539646
 21
155.91321221830799
 31
0.0
  0
ARC
  5
1AC7F
  8
0
 10
3383.3612001836117997
 20
155.9216098180592951
 30
0.0
 40
0.0084940116954613
 50
261.3591140716059158
 51
347.4269321068732097
  0
LINE
  5
1AC80
  8
0
 10
3383.3694905020538499
 20
155.9197608035080123
 30
0.0
 11
3383.3774891903540265
 21
155.9648212016080038
 31
0.0
  0
LINE
  5
1AC81
  8
0
 10
3383.5819287436538616
 20
155.9648212016080038
 30
0.0
 11
3383.5869488678940797
 21
155.9233042508483038
 31
0.0
  0
ARC
  5
1AC82
  8
0
 10
3383.5950118259761439
 20
155.9242792032611078
 30
0.0
 40
0.0081216885716093
 50
186.8945881570946028
 51
264.1749298282555856
  0
LINE
  5
1AC83
  8
0
 10
3383.5941875427711238
 20
155.9161994518755137
 30
0.0
 11
3383.6836924111939879
 21
155.9132288537120132
 31
0.0
  0
ARC
  5
1AC84
  8
0
 10
3383.6854096760521315
 20
155.9223035419140047
 30
0.0
 40
0.0092357438550738
 50
259.2842439634165999
 51
345.2147421251900141
  0
LINE
  5
1AC85
  8
0
 10
3383.6943396159531403
 20
155.9199466079080025
 30
0.0
 11
3383.7021381507529441
 21
155.9648212016080038
 31
0.0
  0
LINE
  5
1AC86
  8
0
 10
3383.796956058753949
 20
155.9648212016080038
 30
0.0
 11
3383.8023256950850737
 21
155.9225075878075017
 31
0.0
  0
ARC
  5
1AC87
  8
0
 10
3383.8101370655281244
 20
155.9234988578683954
 30
0.0
 40
0.0078740157812446
 50
187.2322299719633918
 51
269.0003460494316982
  0
LINE
  5
1AC88
  8
0
 10
3383.8099996925539017
 20
155.9156260405079877
 30
0.0
 11
3383.9022180793749612
 21
155.9140169197196997
 31
0.0
  0
ARC
  5
1AC89
  8
0
 10
3383.9023555029239105
 20
155.9218926355397912
 30
0.0
 40
0.0078769146821632
 50
269.0003460494316982
 51
305.1259134893059013
  0
LINE
  5
1AC8A
  8
0
 10
3383.8855258229541505
 20
155.9648212016080038
 30
0.0
 11
3383.8909318120540775
 21
155.9224752677079948
 31
0.0
  0
ARC
  5
1AC8B
  8
0
 10
3383.8987531874199703
 20
155.9234737642833011
 30
0.0
 40
0.0078848530762646
 50
187.2751716392633057
 51
267.1659534289028102
  0
LINE
  5
1AC8C
  8
0
 10
3383.8983633344491864
 20
155.9155985549085983
 30
0.0
 11
3383.989268139754131
 21
155.9140163627079971
 31
0.0
  0
ARC
  5
1AC8D
  8
0
 10
3383.9896256447082123
 20
155.9235652161816006
 30
0.0
 40
0.0095555435455562
 50
267.8558721869208057
 51
342.2859925952603248
  0
LINE
  5
1AC8E
  8
0
 10
3383.9987281324529249
 20
155.9206577896079864
 30
0.0
 11
3384.0069885814718873
 21
155.9648212016080038
 31
0.0
  0
LINE
  5
1AC8F
  8
0
 10
3384.0983369959258198
 20
155.9648212016080038
 30
0.0
 11
3384.1033248156550144
 21
155.9229044468754921
 31
0.0
  0
ARC
  5
1AC90
  8
0
 10
3384.1111172796449864
 20
155.9238316991371107
 30
0.0
 40
0.0078474385496222
 50
186.7859149031056063
 51
268.887139619941081
  0
ARC
  5
1AC91
  8
0
 10
3384.1960715971081299
 20
157.4776136135826903
 30
0.0
 40
1.563945257501471
 50
266.8805389607351231
 51
270.2585224853349928
  0
ARC
  5
1AC92
  8
0
 10
3384.20336685587381
 20
155.9215040931921976
 30
0.0
 40
0.0078234580660355
 50
268.251921826108628
 51
350.7241836809022857
  0
LINE
  5
1AC93
  8
0
 10
3384.2110880131431259
 20
155.9202430513456932
 30
0.0
 11
3384.2183686462090009
 21
155.9648212016080038
 31
0.0
  0
LINE
  5
1AC94
  8
0
 10
3384.2655495169528876
 20
155.9648212016080038
 30
0.0
 11
3384.2582614585039664
 21
155.9207858229079875
 31
0.0
  0
ARC
  5
1AC95
  8
0
 10
3384.2508962464339675
 20
155.9215234073151919
 30
0.0
 40
0.0074020523905562
 50
267.6715964835962041
 51
354.2812179762460119
  0
ARC
  5
1AC96
  8
0
 10
3384.2395548792760565
 20
156.4221579203785097
 30
0.0
 40
0.5081504089803146
 50
266.4075332380498935
 51
271.2449700331433746
  0
ARC
  5
1AC97
  8
0
 10
3384.1447697356888966
 20
155.477184080414105
 30
0.0
 40
0.4389653942178622
 50
84.727905692285276
 51
91.9422749612405852
  0
ARC
  5
1AC98
  8
0
 10
3384.1952195408530315
 20
157.2128622015513884
 30
0.0
 40
1.2986091353573179
 50
267.1164767500567905
 51
269.5537039034667828
  0
ARC
  5
1AC99
  8
0
 10
3384.2048592698879474
 20
155.1619841285192081
 30
0.0
 40
0.7528992850923178
 50
87.9758220149790588
 51
89.6060355591135931
  0
ARC
  5
1AC9A
  8
0
 10
3384.2238548767509201
 20
156.2605820670794117
 30
0.0
 40
0.3462518217840854
 50
269.5530867856064106
 51
271.2573276684871075
  0
LINE
  5
1AC9B
  8
0
 10
3384.4473661790539154
 20
155.9648212016080038
 30
0.0
 11
3384.4536999579668191
 21
155.9215546969975037
 31
0.0
  0
ARC
  5
1AC9C
  8
0
 10
3384.4614909396718758
 20
155.9226952179635077
 30
0.0
 40
0.0078740195579257
 50
188.3283668559907937
 51
269.9483246420683145
  0
LINE
  5
1AC9D
  8
0
 10
3384.4614838380539368
 20
155.9148212016079924
 30
0.0
 11
3384.5537465530528607
 21
155.9148212016079924
 31
0.0
  0
ARC
  5
1AC9E
  8
0
 10
3384.5537465526072083
 20
155.9226952178076999
 30
0.0
 40
0.0078740161996507
 50
270.0000032488109127
 51
351.6716307123572278
  0
LINE
  5
1AC9F
  8
0
 10
3384.5615375309412229
 20
155.9215546969975037
 30
0.0
 11
3384.5628293593567832
 21
155.9303792682925121
 31
0.0
  0
LINE
  5
1ACA0
  8
0
 10
3384.5582792639647778
 20
155.9648212016080038
 30
0.0
 11
3384.5639058358538023
 21
155.9222308827079928
 31
0.0
  0
LINE
  5
1ACA1
  8
0
 10
3384.6786249953529477
 20
155.9648212016080038
 30
0.0
 11
3384.671715764352939
 21
155.9209002284079872
 31
0.0
  0
ARC
  5
1ACA2
  8
0
 10
3384.6639296930388809
 20
155.9221250593116963
 30
0.0
 40
0.0078818219505056
 50
269.298659017677096
 51
351.0600354378651105
  0
ARC
  5
1ACA3
  8
0
 10
3384.6411124402238784
 20
157.7951168448607859
 30
0.0
 40
1.88101024447625
 50
267.882635586547508
 51
270.6920941774295102
  0
ARC
  5
1ACA4
  8
0
 10
3384.5717151207381903
 20
155.9232681113574017
 30
0.0
 40
0.0078778660610993
 50
187.5657392358262996
 51
269.2759051654609834
  0
ARC
  5
1ACA5
  8
0
 10
3384.6105562351172011
 20
155.3345340555476923
 30
0.0
 40
0.5809571167764391
 50
86.631375115766204
 51
91.9525643086238063
  0
ARC
  5
1ACA6
  8
0
 10
3384.628997060781785
 20
156.8267409802595012
 30
0.0
 40
0.9123886338071832
 50
267.5982167025196077
 51
270.9857227218482763
  0
LINE
  5
1ACA7
  8
0
 10
3384.708500696387091
 20
155.9648212016080038
 30
0.0
 11
3384.7148344752999947
 21
155.9215546969975037
 31
0.0
  0
ARC
  5
1ACA8
  8
0
 10
3384.7226254570050514
 20
155.9226952179635077
 30
0.0
 40
0.0078740195579257
 50
188.3283668559907937
 51
269.9483246420683145
  0
LINE
  5
1ACA9
  8
0
 10
3384.7226183553871124
 20
155.9148212016079924
 30
0.0
 11
3384.7646370478369136
 21
155.9148212016079924
 31
0.0
  0
ARC
  5
1ACAA
  8
0
 10
3384.7646370473908064
 20
155.9226952178076999
 30
0.0
 40
0.0078740161996507
 50
270.0000032488109127
 51
351.6716307123572278
  0
LINE
  5
1ACAB
  8
0
 10
3384.7724280257248211
 20
155.9215546969975037
 30
0.0
 11
3384.7737198541408361
 21
155.9303792682925121
 31
0.0
  0
LINE
  5
1ACAC
  8
0
 10
3384.7691697587479212
 20
155.9648212016080038
 30
0.0
 11
3384.7747963306378551
 21
155.9222308827079928
 31
0.0
  0
LINE
  5
1ACAD
  8
0
 10
3384.8895154901379101
 20
155.9648212016080038
 30
0.0
 11
3384.8826062591379014
 21
155.9209002284079872
 31
0.0
  0
ARC
  5
1ACAE
  8
0
 10
3384.8748201878220243
 20
155.9221250593116963
 30
0.0
 40
0.0078818219505056
 50
269.298659017677096
 51
351.0600354378651105
  0
ARC
  5
1ACAF
  8
0
 10
3384.8520029350088407
 20
157.7951168448607859
 30
0.0
 40
1.88101024447625
 50
267.882635586547508
 51
270.6920941774295102
  0
ARC
  5
1ACB0
  8
0
 10
3384.7826056155217884
 20
155.9232681113574017
 30
0.0
 40
0.0078778660610993
 50
187.5657392358262996
 51
269.2759051654609834
  0
ARC
  5
1ACB1
  8
0
 10
3384.8214467298998898
 20
155.3345340555476923
 30
0.0
 40
0.5809571167764391
 50
86.631375115766204
 51
91.9525643086238063
  0
ARC
  5
1ACB2
  8
0
 10
3384.8398875555649283
 20
156.8267409802595012
 30
0.0
 40
0.9123886338071832
 50
267.5982167025196077
 51
270.9857227218482763
  0
LINE
  5
1ACB3
  8
0
 10
3385.0966150961598942
 20
155.9648212016080038
 30
0.0
 11
3385.1024251593539702
 21
155.922035436507997
 31
0.0
  0
ARC
  5
1ACB4
  8
0
 10
3385.1102145650888815
 20
155.9230931934386888
 30
0.0
 40
0.0078608963510552
 50
187.7331387439741093
 51
269.6613727598704031
  0
ARC
  5
1ACB5
  8
0
 10
3385.1789394575048391
 20
158.4889801215927037
 30
0.0
 40
2.574666319390559
 50
268.469402870673207
 51
270.5217240081706791
  0
ARC
  5
1ACB6
  8
0
 10
3385.2024754757489973
 20
155.9222797507727023
 30
0.0
 40
0.0078597470444828
 50
269.3297541189739945
 51
348.6312625662540086
  0
LINE
  5
1ACB7
  8
0
 10
3385.2101810057329203
 20
155.9207304182496046
 30
0.0
 11
3385.2174776091528656
 21
155.9648212016080038
 31
0.0
  0
ARC
  5
1ACB8
  8
0
 10
3385.1483157872439733
 20
155.1063375630311896
 30
0.0
 40
0.8092970734782872
 50
87.2813170766996933
 51
91.3532426457030908
  0
ARC
  5
1ACB9
  8
0
 10
3385.1738103945867806
 20
157.245816241257188
 30
0.0
 40
1.3311549299573091
 50
268.0796484218665228
 51
270.5549121543202773
  0
LINE
  5
1ACBA
  8
0
 10
3385.2710339614541226
 20
155.9648212016080038
 30
0.0
 11
3385.2768748826701994
 21
155.9249214446080032
 31
0.0
  0
ARC
  5
1ACBB
  8
0
 10
3385.28856134960688
 20
155.9266322252696
 30
0.0
 40
0.0118110236615611
 50
188.3283670258580003
 51
269.9999997418980797
  0
LINE
  5
1ACBC
  8
0
 10
3385.2885613495541293
 20
155.9148212016079924
 30
0.0
 11
3385.3740117043539612
 21
155.9148212012231056
 31
0.0
  0
ARC
  5
1ACBD
  8
0
 10
3385.3740117044071667
 20
155.9266322246963057
 30
0.0
 40
0.0118110234732392
 50
269.9999997418980797
 51
351.6716356509103889
  0
LINE
  5
1ACBE
  8
0
 10
3385.3856981712369816
 20
155.9249214446080032
 30
0.0
 11
3385.3915390905499407
 21
155.9648212016080038
 31
0.0
  0
LINE
  5
1ACBF
  8
0
 10
3385.4217756278280831
 20
155.9648212016080038
 30
0.0
 11
3385.4281094067541744
 21
155.9215546970079913
 31
0.0
  0
ARC
  5
1ACC0
  8
0
 10
3385.4359003846520864
 20
155.9226952174194025
 30
0.0
 40
0.0078740157113467
 50
188.3283668746034891
 51
270.0000007390790984
  0
LINE
  5
1ACC1
  8
0
 10
3385.4359003847539498
 20
155.9148212017080084
 30
0.0
 11
3385.528156001852949
 21
155.9148212028981106
 31
0.0
  0
ARC
  5
1ACC2
  8
0
 10
3385.5281560017529046
 20
155.9226952189171129
 30
0.0
 40
0.0078740160190876
 50
270.0000007390790984
 51
351.6716223608422069
  0
LINE
  5
1ACC3
  8
0
 10
3385.5359469797408565
 20
155.9215546969975037
 30
0.0
 11
3385.5422807669710892
 21
155.9648212016080038
 31
0.0
  0
LINE
  5
1ACC4
  8
0
 10
3385.5574633651558543
 20
155.9648212016080038
 30
0.0
 11
3385.5632734283508398
 21
155.922035436507997
 31
0.0
  0
ARC
  5
1ACC5
  8
0
 10
3385.5710628340871153
 20
155.9230931934386888
 30
0.0
 40
0.0078608963510552
 50
187.7331387439741093
 51
269.6613727598704031
  0
ARC
  5
1ACC6
  8
0
 10
3385.6397877265021634
 20
158.4889801215927037
 30
0.0
 40
2.574666319390559
 50
268.469402870673207
 51
270.5217240081706791
  0
ARC
  5
1ACC7
  8
0
 10
3385.6633237447458669
 20
155.9222797507727023
 30
0.0
 40
0.0078597470444828
 50
269.3297541189739945
 51
348.6312625662540086
  0
LINE
  5
1ACC8
  8
0
 10
3385.6710292747297899
 20
155.9207304182496046
 30
0.0
 11
3385.6783258781510995
 21
155.9648212016080038
 31
0.0
  0
ARC
  5
1ACC9
  8
0
 10
3385.6091640562408429
 20
155.1063375630311896
 30
0.0
 40
0.8092970734782872
 50
87.2813170766996933
 51
91.3532426457030908
  0
ARC
  5
1ACCA
  8
0
 10
3385.6346586635850144
 20
157.245816241257188
 30
0.0
 40
1.3311549299573091
 50
268.0796484218665228
 51
270.5549121543202773
  0
LINE
  5
1ACCB
  8
0
 10
3385.7235194389540993
 20
155.9648212016080038
 30
0.0
 11
3385.7298733791681116
 21
155.9219088005613969
 31
0.0
  0
ARC
  5
1ACCC
  8
0
 10
3385.7378851257140013
 20
155.923095081387487
 30
0.0
 40
0.0080990953139998
 50
188.4224582170243139
 51
265.978785284521507
  0
ARC
  5
1ACCD
  8
0
 10
3385.7938316197109998
 20
158.3045923152081116
 30
0.0
 40
2.3902445917969408
 50
268.6451841641950864
 51
270.855876736844607
  0
ARC
  5
1ACCE
  8
0
 10
3385.8290104162801981
 20
155.9231441630537063
 30
0.0
 40
0.0085459084858642
 50
273.5222756165401279
 51
347.6819547015646776
  0
LINE
  5
1ACCF
  8
0
 10
3385.8373595845541786
 20
155.9213209952079922
 30
0.0
 11
3385.8438578180398508
 21
155.9648212016080038
 31
0.0
  0
LINE
  5
1ACD0
  8
0
 10
3385.8671636481331007
 20
155.9648212016080038
 30
0.0
 11
3385.8612429872368921
 21
155.9249214446080032
 31
0.0
  0
ARC
  5
1ACD1
  8
0
 10
3385.8495333654059323
 20
155.9266590165958917
 30
0.0
 40
0.0118378376336188
 50
270.1120712802094204
 51
351.5595619520303217
  0
LINE
  5
1ACD2
  8
0
 10
3385.8495565203538717
 20
155.9148212016079924
 30
0.0
 11
3385.8307847651958582
 21
155.9147844837671073
 31
0.0
  0
LINE
  5
1ACD3
  8
0
 10
3385.8495565203538717
 20
155.9148212016079924
 30
0.0
 11
3385.9399898931537791
 21
155.9148212016079924
 31
0.0
  0
ARC
  5
1ACD4
  8
0
 10
3385.9399898928700168
 20
155.9226952176321959
 30
0.0
 40
0.0078740160241182
 50
270.0000020621051249
 51
351.6716318438286066
  0
LINE
  5
1ACD5
  8
0
 10
3385.9477808710530553
 20
155.9215546970011985
 30
0.0
 11
3385.9541146509682221
 21
155.9648212016080038
 31
0.0
  0
LINE
  5
1ACD6
  8
0
 10
3386.396360965653912
 20
155.9648212016080038
 30
0.0
 11
3386.402518855553808
 21
155.9215546970079913
 31
0.0
  0
ARC
  5
1ACD7
  8
0
 10
3386.4107185127809316
 20
155.9229039911683969
 30
0.0
 40
0.0083099322128987
 50
189.3445594929133904
 51
255.6437059684510871
  0
ARC
  5
1ACD8
  8
0
 10
3386.4577678843179456
 20
156.5844932097317042
 30
0.0
 40
0.6714380389011372
 50
265.805568760078927
 51
273.8269042400003173
  0
ARC
  5
1ACD9
  8
0
 10
3386.5000271264711955
 20
155.9256421937905088
 30
0.0
 40
0.0111086503923341
 50
283.0727313471462026
 51
338.4103740719916118
  0
LINE
  5
1ACDA
  8
0
 10
3386.5103564286541769
 20
155.9215546970079913
 30
0.0
 11
3386.5166902075538928
 21
155.9648212016080038
 31
0.0
  0
ARC
  5
1ACDB
  8
0
 10
3386.4562437927179417
 20
155.5928746384211934
 30
0.0
 40
0.3235555716448667
 50
84.9098264241746534
 51
94.8040725485765847
  0
ARC
  5
1ACDC
  8
0
 10
3386.4577689796578852
 20
156.2037513281595977
 30
0.0
 40
0.2898743710568822
 50
264.3333134937661839
 51
275.3805842715718768
  0
LINE
  5
1ACDD
  8
0
 10
3389.7624087163540025
 20
155.9648212016080038
 30
0.0
 11
3389.7579699835041538
 21
155.9234592347916077
 31
0.0
  0
ARC
  5
1ACDE
  8
0
 10
3389.7501409199539921
 20
155.9242994057080125
 30
0.0
 40
0.0078740156999995
 50
271.9999999476009975
 51
353.874781945206621
  0
LINE
  5
1ACDF
  8
0
 10
3389.7504157191310696
 20
155.9164301866454139
 30
0.0
 11
3389.6582651664461991
 21
155.9132122185208971
 31
0.0
  0
ARC
  5
1ACE0
  8
0
 10
3389.6579903653500878
 20
155.9210814925266106
 30
0.0
 40
0.0078740706765504
 50
190.1255660934187119
 51
271.9999999476009975
  0
LINE
  5
1ACE1
  8
0
 10
3389.6502389346542259
 20
155.9196971836080081
 30
0.0
 11
3389.6480843814260879
 21
155.9317615933688899
 31
0.0
  0
LINE
  5
1ACE2
  8
0
 10
3389.6516721673528991
 20
155.9648212016080038
 30
0.0
 11
3389.6471764439529579
 21
155.9233945855079924
 31
0.0
  0
ARC
  5
1ACE3
  8
0
 10
3389.6393969691780512
 20
155.9242388342080119
 30
0.0
 40
0.0078251507108568
 50
268.9810886208749139
 51
353.8063526033781727
  0
LINE
  5
1ACE4
  8
0
 10
3389.6392578190539098
 20
155.9164149208079948
 30
0.0
 11
3389.5490142405537881
 21
155.91321221830799
 31
0.0
  0
ARC
  5
1ACE5
  8
0
 10
3389.547738092795953
 20
155.9216098180592951
 30
0.0
 40
0.0084940116954613
 50
192.573067893126705
 51
278.6408859283940842
  0
LINE
  5
1ACE6
  8
0
 10
3389.5394477743539028
 20
155.9197608035080123
 30
0.0
 11
3389.5314490860528167
 21
155.9648212016080038
 31
0.0
  0
LINE
  5
1ACE7
  8
0
 10
3389.3270095327538911
 20
155.9648212016080038
 30
0.0
 11
3389.3219894085141277
 21
155.9233042508483038
 31
0.0
  0
ARC
  5
1ACE8
  8
0
 10
3389.3139264504311541
 20
155.9242792032611078
 30
0.0
 40
0.0081216885716093
 50
275.8250701717444144
 51
353.1054118429054256
  0
LINE
  5
1ACE9
  8
0
 10
3389.3147507336361741
 20
155.9161994518755137
 30
0.0
 11
3389.2252458652142195
 21
155.9132288537120132
 31
0.0
  0
ARC
  5
1ACEA
  8
0
 10
3389.2235286003560759
 20
155.9223035419140047
 30
0.0
 40
0.0092357438550738
 50
194.7852578748099006
 51
280.7157560365834001
  0
LINE
  5
1ACEB
  8
0
 10
3389.2145986604541577
 20
155.9199466079080025
 30
0.0
 11
3389.2068001256529897
 21
155.9648212016080038
 31
0.0
  0
LINE
  5
1ACEC
  8
0
 10
3389.1119822176538037
 20
155.9648212016080038
 30
0.0
 11
3389.1066125813222243
 21
155.9225075878075017
 31
0.0
  0
ARC
  5
1ACED
  8
0
 10
3389.0988012108800831
 20
155.9234988578683954
 30
0.0
 40
0.0078740157812446
 50
270.9996539505683018
 51
352.7677700280365798
  0
LINE
  5
1ACEE
  8
0
 10
3389.098938583853851
 20
155.9156260405079877
 30
0.0
 11
3389.0067201970327915
 21
155.9140169197196997
 31
0.0
  0
ARC
  5
1ACEF
  8
0
 10
3389.0065827734829327
 20
155.9218926355397912
 30
0.0
 40
0.0078769146821632
 50
234.8740865106940987
 51
270.9996539505683018
  0
LINE
  5
1ACF0
  8
0
 10
3389.023412453454057
 20
155.9648212016080038
 30
0.0
 11
3389.01800646435413
 21
155.9224752677079948
 31
0.0
  0
ARC
  5
1ACF1
  8
0
 10
3389.0101850889868729
 20
155.9234737642833011
 30
0.0
 40
0.0078848530762646
 50
272.8340465710971898
 51
352.7248283607366943
  0
LINE
  5
1ACF2
  8
0
 10
3389.0105749419581116
 20
155.9155985549085983
 30
0.0
 11
3388.9196701366540765
 21
155.9140163627079971
 31
0.0
  0
ARC
  5
1ACF3
  8
0
 10
3388.9193126316999951
 20
155.9235652161816006
 30
0.0
 40
0.0095555435455562
 50
197.7140074047397036
 51
272.144127813079308
  0
LINE
  5
1ACF4
  8
0
 10
3388.9102101439530088
 20
155.9206577896079864
 30
0.0
 11
3388.9019496949349559
 21
155.9648212016080038
 31
0.0
  0
LINE
  5
1ACF5
  8
0
 10
3388.8106012804810234
 20
155.9648212016080038
 30
0.0
 11
3388.8056134607518288
 21
155.9229044468754921
 31
0.0
  0
ARC
  5
1ACF6
  8
0
 10
3388.7978209967618568
 20
155.9238316991371107
 30
0.0
 40
0.0078474385496222
 50
271.112860380058919
 51
353.21408509689428
  0
ARC
  5
1ACF7
  8
0
 10
3388.7128666792978038
 20
157.4776136135826903
 30
0.0
 40
1.563945257501471
 50
269.7414775146650072
 51
273.1194610392648769
  0
ARC
  5
1ACF8
  8
0
 10
3388.7055714205339427
 20
155.9215040931921976
 30
0.0
 40
0.0078234580660355
 50
189.2758163190976859
 51
271.748078173891372
  0
LINE
  5
1ACF9
  8
0
 10
3388.6978502632650816
 20
155.9202430513456932
 30
0.0
 11
3388.6905696301978423
 21
155.9648212016080038
 31
0.0
  0
LINE
  5
1ACFA
  8
0
 10
3388.6433887594539556
 20
155.9648212016080038
 30
0.0
 11
3388.6506768179028768
 21
155.9207858229079875
 31
0.0
  0
ARC
  5
1ACFB
  8
0
 10
3388.6580420299737852
 20
155.9215234073151919
 30
0.0
 40
0.0074020523905562
 50
185.7187820237539881
 51
272.3284035164037959
  0
ARC
  5
1ACFC
  8
0
 10
3388.6693833971307868
 20
156.4221579203785097
 30
0.0
 40
0.5081504089803146
 50
268.7550299668566254
 51
273.5924667619499928
  0
ARC
  5
1ACFD
  8
0
 10
3388.7641685407179466
 20
155.477184080414105
 30
0.0
 40
0.4389653942178622
 50
88.0577250387594148
 51
95.2720943077147666
  0
ARC
  5
1ACFE
  8
0
 10
3388.713718735555176
 20
157.2128622015513884
 30
0.0
 40
1.2986091353573179
 50
270.4462960965332172
 51
272.8835232499432095
  0
ARC
  5
1ACFF
  8
0
 10
3388.7040790065198053
 20
155.1619841285192081
 30
0.0
 40
0.7528992850923178
 50
90.3939644408863927
 51
92.0241779850209554
  0
ARC
  5
1AD00
  8
0
 10
3388.6850833996559231
 20
156.2605820670794117
 30
0.0
 40
0.3462518217840854
 50
268.7426723315128925
 51
270.4469132143935894
  0
LINE
  5
1AD01
  8
0
 10
3388.4615720973538373
 20
155.9648212016080038
 30
0.0
 11
3388.4552383184409337
 21
155.9215546969975037
 31
0.0
  0
ARC
  5
1AD02
  8
0
 10
3388.4474473367358769
 20
155.9226952179635077
 30
0.0
 40
0.0078740195579257
 50
270.0516753579315719
 51
351.6716331440092063
  0
LINE
  5
1AD03
  8
0
 10
3388.4474544383538159
 20
155.9148212016079924
 30
0.0
 11
3388.355191723353073
 21
155.9148212016079924
 31
0.0
  0
ARC
  5
1AD04
  8
0
 10
3388.3551917238000897
 20
155.9226952178076999
 30
0.0
 40
0.0078740161996507
 50
188.3283692876428006
 51
269.9999967511890873
  0
LINE
  5
1AD05
  8
0
 10
3388.3474007454669845
 20
155.9215546969975037
 30
0.0
 11
3388.34610891705006
 21
155.9303792682925121
 31
0.0
  0
LINE
  5
1AD06
  8
0
 10
3388.3506590124438844
 20
155.9648212016080038
 30
0.0
 11
3388.3450324405539504
 21
155.9222308827079928
 31
0.0
  0
LINE
  5
1AD07
  8
0
 10
3388.2303132810538955
 20
155.9648212016080038
 30
0.0
 11
3388.2372225120529947
 21
155.9209002284079872
 31
0.0
  0
ARC
  5
1AD08
  8
0
 10
3388.2450085833679623
 20
155.9221250593116963
 30
0.0
 40
0.0078818219505056
 50
188.9399645621350032
 51
270.701340982322904
  0
ARC
  5
1AD09
  8
0
 10
3388.2678258361829648
 20
157.7951168448607859
 30
0.0
 40
1.88101024447625
 50
269.3079058225704898
 51
272.117364413452492
  0
ARC
  5
1AD0A
  8
0
 10
3388.3372231556691077
 20
155.9232681113574017
 30
0.0
 40
0.0078778660610993
 50
270.7240948345390166
 51
352.4342607641737004
  0
ARC
  5
1AD0B
  8
0
 10
3388.2983820412900968
 20
155.3345340555476923
 30
0.0
 40
0.5809571167764391
 50
88.0474356913761937
 51
93.3686248842338102
  0
ARC
  5
1AD0C
  8
0
 10
3388.2799412156250582
 20
156.8267409802595012
 30
0.0
 40
0.9123886338071832
 50
269.0142772781517237
 51
272.4017832974803923
  0
LINE
  5
1AD0D
  8
0
 10
3388.200437580020207
 20
155.9648212016080038
 30
0.0
 11
3388.1941038011068486
 21
155.9215546969975037
 31
0.0
  0
ARC
  5
1AD0E
  8
0
 10
3388.1863128194017918
 20
155.9226952179635077
 30
0.0
 40
0.0078740195579257
 50
270.0516753579315719
 51
351.6716331440092063
  0
LINE
  5
1AD0F
  8
0
 10
3388.1863199210201856
 20
155.9148212016079924
 30
0.0
 11
3388.1443012285699297
 21
155.9148212016079924
 31
0.0
  0
ARC
  5
1AD10
  8
0
 10
3388.1443012290160368
 20
155.9226952178076999
 30
0.0
 40
0.0078740161996507
 50
188.3283692876428006
 51
269.9999967511890873
  0
LINE
  5
1AD11
  8
0
 10
3388.1365102506829317
 20
155.9215546969975037
 30
0.0
 11
3388.1352184222669166
 21
155.9303792682925121
 31
0.0
  0
LINE
  5
1AD12
  8
0
 10
3388.1397685176589221
 20
155.9648212016080038
 30
0.0
 11
3388.1341419457698976
 21
155.9222308827079928
 31
0.0
  0
LINE
  5
1AD13
  8
0
 10
3388.0194227862698426
 20
155.9648212016080038
 30
0.0
 11
3388.0263320172698513
 21
155.9209002284079872
 31
0.0
  0
ARC
  5
1AD14
  8
0
 10
3388.0341180885839094
 20
155.9221250593116963
 30
0.0
 40
0.0078818219505056
 50
188.9399645621350032
 51
270.701340982322904
  0
ARC
  5
1AD15
  8
0
 10
3388.056935341398912
 20
157.7951168448607859
 30
0.0
 40
1.88101024447625
 50
269.3079058225704898
 51
272.117364413452492
  0
ARC
  5
1AD16
  8
0
 10
3388.1263326608850548
 20
155.9232681113574017
 30
0.0
 40
0.0078778660610993
 50
270.7240948345390166
 51
352.4342607641737004
  0
ARC
  5
1AD17
  8
0
 10
3388.0874915465069535
 20
155.3345340555476923
 30
0.0
 40
0.5809571167764391
 50
88.0474356913761937
 51
93.3686248842338102
  0
ARC
  5
1AD18
  8
0
 10
3388.0690507208419149
 20
156.8267409802595012
 30
0.0
 40
0.9123886338071832
 50
269.0142772781517237
 51
272.4017832974803923
  0
LINE
  5
1AD19
  8
0
 10
3387.8123231802478585
 20
155.9648212016080038
 30
0.0
 11
3387.8065131170537825
 21
155.922035436507997
 31
0.0
  0
ARC
  5
1AD1A
  8
0
 10
3387.7987237113179617
 20
155.9230931934386888
 30
0.0
 40
0.0078608963510552
 50
270.3386272401297106
 51
352.266861256025777
  0
ARC
  5
1AD1B
  8
0
 10
3387.7299988189020041
 20
158.4889801215927037
 30
0.0
 40
2.574666319390559
 50
269.4782759918293209
 51
271.5305971293266794
  0
ARC
  5
1AD1C
  8
0
 10
3387.7064628006592102
 20
155.9222797507727023
 30
0.0
 40
0.0078597470444828
 50
191.3687374337459914
 51
270.6702458810258918
  0
LINE
  5
1AD1D
  8
0
 10
3387.6987572706748324
 20
155.9207304182496046
 30
0.0
 11
3387.6914606672539776
 21
155.9648212016080038
 31
0.0
  0
ARC
  5
1AD1E
  8
0
 10
3387.7606224891628699
 20
155.1063375630311896
 30
0.0
 40
0.8092970734782872
 50
88.646757354296895
 51
92.7186829233003067
  0
ARC
  5
1AD1F
  8
0
 10
3387.7351278818200626
 20
157.245816241257188
 30
0.0
 40
1.3311549299573091
 50
269.4450878456797227
 51
271.9203515781334772
  0
LINE
  5
1AD20
  8
0
 10
3387.6379043149531753
 20
155.9648212016080038
 30
0.0
 11
3387.6320633937370985
 21
155.9249214446080032
 31
0.0
  0
ARC
  5
1AD21
  8
0
 10
3387.6203769267999633
 20
155.9266322252696
 30
0.0
 40
0.0118110236615611
 50
270.0000002581019203
 51
351.6716329741420282
  0
LINE
  5
1AD22
  8
0
 10
3387.6203769268540782
 20
155.9148212016079924
 30
0.0
 11
3387.5349265720537915
 21
155.9148212012231056
 31
0.0
  0
ARC
  5
1AD23
  8
0
 10
3387.5349265720001313
 20
155.9266322246963057
 30
0.0
 40
0.0118110234732392
 50
188.3283643490896111
 51
270.0000002581019203
  0
LINE
  5
1AD24
  8
0
 10
3387.5232401051698616
 20
155.9249214446080032
 30
0.0
 11
3387.517399185857812
 21
155.9648212016080038
 31
0.0
  0
LINE
  5
1AD25
  8
0
 10
3387.4871626485792149
 20
155.9648212016080038
 30
0.0
 11
3387.480828869654033
 21
155.9215546970079913
 31
0.0
  0
ARC
  5
1AD26
  8
0
 10
3387.4730378917552116
 20
155.9226952174194025
 30
0.0
 40
0.0078740157113467
 50
269.9999992609209016
 51
351.6716331253963972
  0
LINE
  5
1AD27
  8
0
 10
3387.4730378916528934
 20
155.9148212017080084
 30
0.0
 11
3387.3807822745529847
 21
155.9148212028981106
 31
0.0
  0
ARC
  5
1AD28
  8
0
 10
3387.3807822746562124
 20
155.9226952189171129
 30
0.0
 40
0.0078740160190876
 50
188.3283776391579067
 51
269.9999992609209016
  0
LINE
  5
1AD29
  8
0
 10
3387.3729912966668962
 20
155.9215546969975037
 30
0.0
 11
3387.3666575094362088
 21
155.9648212016080038
 31
0.0
  0
LINE
  5
1AD2A
  8
0
 10
3387.351474911250989
 20
155.9648212016080038
 30
0.0
 11
3387.3456648480560034
 21
155.922035436507997
 31
0.0
  0
ARC
  5
1AD2B
  8
0
 10
3387.3378754423210921
 20
155.9230931934386888
 30
0.0
 40
0.0078608963510552
 50
270.3386272401297106
 51
352.266861256025777
  0
ARC
  5
1AD2C
  8
0
 10
3387.2691505499051345
 20
158.4889801215927037
 30
0.0
 40
2.574666319390559
 50
269.4782759918293209
 51
271.5305971293266794
  0
ARC
  5
1AD2D
  8
0
 10
3387.2456145316609764
 20
155.9222797507727023
 30
0.0
 40
0.0078597470444828
 50
191.3687374337459914
 51
270.6702458810258918
  0
LINE
  5
1AD2E
  8
0
 10
3387.2379090016770533
 20
155.9207304182496046
 30
0.0
 11
3387.2306123982561985
 21
155.9648212016080038
 31
0.0
  0
ARC
  5
1AD2F
  8
0
 10
3387.2997742201660003
 20
155.1063375630311896
 30
0.0
 40
0.8092970734782872
 50
88.646757354296895
 51
92.7186829233003067
  0
ARC
  5
1AD30
  8
0
 10
3387.274279612823193
 20
157.245816241257188
 30
0.0
 40
1.3311549299573091
 50
269.4450878456797227
 51
271.9203515781334772
  0
LINE
  5
1AD31
  8
0
 10
3387.1854188374541081
 20
155.9648212016080038
 30
0.0
 11
3387.1790648972391864
 21
155.9219088005613969
 31
0.0
  0
ARC
  5
1AD32
  8
0
 10
3387.1710531506942061
 20
155.923095081387487
 30
0.0
 40
0.0080990953139998
 50
274.021214715478493
 51
351.5775417829755725
  0
ARC
  5
1AD33
  8
0
 10
3387.1151066566972077
 20
158.3045923152081116
 30
0.0
 40
2.3902445917969408
 50
269.144123263155393
 51
271.3548158358049136
  0
ARC
  5
1AD34
  8
0
 10
3387.0799278601270998
 20
155.9231441630537063
 30
0.0
 40
0.0085459084858642
 50
192.3180452984352087
 51
266.4777243834598721
  0
LINE
  5
1AD35
  8
0
 10
3387.0715786918540289
 20
155.9213209952079922
 30
0.0
 11
3387.0650804583679019
 21
155.9648212016080038
 31
0.0
  0
LINE
  5
1AD36
  8
0
 10
3387.0417746282741973
 20
155.9648212016080038
 30
0.0
 11
3387.0476952891699511
 21
155.9249214446080032
 31
0.0
  0
ARC
  5
1AD37
  8
0
 10
3387.0594049110009109
 20
155.9266590165958917
 30
0.0
 40
0.0118378376336188
 50
188.4404380479695931
 51
269.8879287197905796
  0
LINE
  5
1AD38
  8
0
 10
3387.0593817560529715
 20
155.9148212016079924
 30
0.0
 11
3387.078153511210985
 21
155.9147844837671073
 31
0.0
  0
LINE
  5
1AD39
  8
0
 10
3387.0593817560529715
 20
155.9148212016079924
 30
0.0
 11
3386.9689483832539736
 21
155.9148212016079924
 31
0.0
  0
ARC
  5
1AD3A
  8
0
 10
3386.9689483835368264
 20
155.9226952176321959
 30
0.0
 40
0.0078740160241182
 50
188.3283681561713934
 51
269.9999979378948751
  0
LINE
  5
1AD3B
  8
0
 10
3386.9611574053551522
 20
155.9215546970011985
 30
0.0
 11
3386.9548236254390758
 21
155.9648212016080038
 31
0.0
  0
LINE
  5
1AD3C
  8
0
 10
3385.7379337050529102
 20
156.4372621465080044
 30
0.0
 11
3385.7379337050529102
 21
157.027813327607987
 31
0.0
  0
LINE
  5
1AD3D
  8
0
 10
3385.7379337050529102
 20
157.027813327607987
 30
0.0
 11
3385.7674612641540079
 21
157.027813327607987
 31
0.0
  0
LINE
  5
1AD3E
  8
0
 10
3385.7674612641540079
 20
157.027813327607987
 30
0.0
 11
3385.7674612641540079
 21
157.5002542725079877
 31
0.0
  0
LINE
  5
1AD3F
  8
0
 10
3385.7674612641540079
 20
157.5002542725079877
 30
0.0
 11
3387.1454140200539769
 21
157.5002542725079877
 31
0.0
  0
LINE
  5
1AD40
  8
0
 10
3387.1454140200539769
 20
157.5002542725079877
 30
0.0
 11
3387.1454140200539769
 21
157.027813327607987
 31
0.0
  0
LINE
  5
1AD41
  8
0
 10
3387.1454140200539769
 20
157.027813327607987
 30
0.0
 11
3387.1749415790541207
 21
157.027813327607987
 31
0.0
  0
LINE
  5
1AD42
  8
0
 10
3387.1749415790541207
 20
157.027813327607987
 30
0.0
 11
3387.1749415790541207
 21
156.4372621465080044
 31
0.0
  0
LINE
  5
1AD43
  8
0
 10
3386.0193212472709092
 20
157.5002110649541862
 30
0.0
 11
3386.0017132326320279
 21
157.5222962981532078
 31
0.0
  0
LINE
  5
1AD44
  8
0
 10
3386.0017132326320279
 20
157.5222962981532078
 30
0.0
 11
3386.0017132326538558
 21
158.0208916020079926
 31
0.0
  0
LINE
  5
1AD45
  8
0
 10
3386.0017132326538558
 20
158.0208916020079926
 30
0.0
 11
3385.9603746499528825
 21
158.0622301847079996
 31
0.0
  0
LINE
  5
1AD46
  8
0
 10
3385.9603746499528825
 20
158.0622301847079996
 30
0.0
 11
3385.9603746499528825
 21
158.1701829406079867
 31
0.0
  0
ARC
  5
1AD47
  8
0
 10
3385.9803746499537738
 20
158.1701829406079867
 30
0.0
 40
0.0199999999999996
 50
90.0
 51
180.0
  0
LINE
  5
1AD48
  8
0
 10
3385.9803746499537738
 20
158.1901829406079969
 30
0.0
 11
3386.932500634254211
 21
158.1901829406079969
 31
0.0
  0
ARC
  5
1AD49
  8
0
 10
3386.932500634254211
 20
158.1701829406079867
 30
0.0
 40
0.019999999999996
 50
359.9999999999902229
 51
90.0
  0
LINE
  5
1AD4A
  8
0
 10
3386.9525006342541928
 20
158.1701829406079867
 30
0.0
 11
3386.9525006342541928
 21
158.0622301847079996
 31
0.0
  0
LINE
  5
1AD4B
  8
0
 10
3386.9525006342541928
 20
158.0622301847079996
 30
0.0
 11
3386.911162051554129
 21
158.0208916020079926
 31
0.0
  0
LINE
  5
1AD4C
  8
0
 10
3386.911162051554129
 20
158.0208916020079926
 30
0.0
 11
3386.9111620515750474
 21
157.5222962981532078
 31
0.0
  0
LINE
  5
1AD4D
  8
0
 10
3386.9111620515750474
 20
157.5222962981532078
 30
0.0
 11
3386.8935540369361661
 21
157.5002110649541862
 31
0.0
  0
LINE
  5
1AD4E
  8
0
 10
3386.0430518153539197
 20
158.1901829406079969
 30
0.0
 11
3386.0430517966528896
 21
158.2326711217079946
 31
0.0
  0
LINE
  5
1AD4F
  8
0
 10
3386.0430517966528896
 20
158.2326711217079946
 30
0.0
 11
3386.0922644137540374
 21
158.2818837375079966
 31
0.0
  0
LINE
  5
1AD50
  8
0
 10
3386.0922644137540374
 20
158.2818837375079966
 30
0.0
 11
3386.0922644137540374
 21
158.3999939642079937
 31
0.0
  0
LINE
  5
1AD51
  8
0
 10
3386.8206108704530379
 20
158.3999939642079937
 30
0.0
 11
3386.8206108704530379
 21
158.2818837375079966
 31
0.0
  0
LINE
  5
1AD52
  8
0
 10
3386.8206108704530379
 20
158.2818837375079966
 30
0.0
 11
3386.8698234688540651
 21
158.2326711404080015
 31
0.0
  0
LINE
  5
1AD53
  8
0
 10
3386.8698234688540651
 20
158.2326711404080015
 30
0.0
 11
3386.8698234688540651
 21
158.1901829406079969
 31
0.0
  0
LINE
  5
1AD54
  8
0
 10
3386.0922644137540374
 20
158.2818837375079966
 30
0.0
 11
3386.8206108704530379
 21
158.2818837375079966
 31
0.0
  0
LINE
  5
1AD55
  8
0
 10
3386.0430518153539197
 20
158.2326711217079946
 30
0.0
 11
3386.8698234688540651
 21
158.2326711217079946
 31
0.0
  0
LINE
  5
1AD56
  8
0
 10
3386.8501384294540912
 20
158.3999939642079937
 30
0.0
 11
3386.0627368546529397
 21
158.3999939642079937
 31
0.0
  0
LINE
  5
1AD57
  8
0
 10
3386.0627368546529397
 20
158.3999939642079937
 30
0.0
 11
3386.0627368546529397
 21
159.1873955390080084
 31
0.0
  0
LINE
  5
1AD58
  8
0
 10
3386.8501384294540912
 20
158.3999939642079937
 30
0.0
 11
3386.8501384295532262
 21
159.1873955390080084
 31
0.0
  0
ARC
  5
1AD59
  8
0
 10
3394.3304533901541618
 20
159.1873955380580128
 30
0.0
 40
7.4803149606000012
 50
0.0000000072758878
 51
179.9999999927240992
  0
ARC
  5
1AD5A
  8
0
 10
3394.3304533901041395
 20
159.1873955386473938
 30
0.0
 40
8.2677165354500026
 50
0.0000000024996615
 51
179.9999999975003107
  0
LINE
  5
1AD5B
  8
0
 10
3402.5981699255539752
 20
159.1873955390080084
 30
0.0
 11
3402.5981699259050401
 21
151.0377892358523866
 31
0.0
  0
LINE
  5
1AD5C
  8
0
 10
3401.8107683507541878
 20
151.0377892358523866
 30
0.0
 11
3401.8107683507541878
 21
159.1873955380580128
 31
0.0
  0
ARC
  5
1AD5D
  8
0
 10
3401.6139179501919898
 20
151.0181042033144934
 30
0.0
 40
0.0196850325379619
 50
89.9999800271734642
 51
180.0000081684819122
  0
LINE
  5
1AD5E
  8
0
 10
3401.6139179570541273
 20
151.0377892358523866
 30
0.0
 11
3402.7950203192522167
 21
151.0377892358523866
 31
0.0
  0
ARC
  5
1AD5F
  8
0
 10
3402.7950203146911008
 20
151.0181041918901883
 30
0.0
 40
0.0196850439622712
 50
0.0000247923433376
 51
89.9999867257843533
  0
LINE
  5
1AD60
  8
0
 10
3402.8147053586540096
 20
151.0181042004080041
 30
0.0
 11
3402.8147055054841985
 21
150.5850333343080933
 31
0.0
  0
ARC
  5
1AD61
  8
0
 10
3402.7950204730000223
 20
150.5850333276339086
 30
0.0
 40
0.0196850324848666
 50
270.0896035772848904
 51
0.0000194258859395
  0
LINE
  5
1AD62
  8
0
 10
3402.7950512579650422
 20
150.5653483192209876
 30
0.0
 11
3401.6139209089078577
 21
150.5653482949080058
 31
0.0
  0
ARC
  5
1AD63
  8
0
 10
3401.6139179575848175
 20
150.5850333345989043
 30
0.0
 40
0.0196850399319225
 50
180.000000846772906
 51
270.0089656218059986
  0
LINE
  5
1AD64
  8
0
 10
3401.5942329176541534
 20
150.5850333343080081
 30
0.0
 11
3401.5942329176541534
 21
151.0181042005079917
 31
0.0
  0
ARC
  5
1AD65
  8
0
 10
3401.5745478783542239
 20
150.5062931768081
 30
0.0
 40
0.0196850393999846
 50
89.9999999999739515
 51
180.0000000000406999
  0
LINE
  5
1AD66
  8
0
 10
3401.5548628389528858
 20
150.5062931768079864
 30
0.0
 11
3401.5548628389551595
 21
149.3645608934079974
 31
0.0
  0
ARC
  5
1AD67
  8
0
 10
3401.5745478783542239
 20
149.3645608934079974
 30
0.0
 40
0.0196850394000165
 50
180.0000000000422915
 51
270.0000357982538048
  0
LINE
  5
1AD68
  8
0
 10
3401.574547890652866
 20
149.344875854007995
 30
0.0
 11
3402.8343903855538883
 21
149.344875854007995
 31
0.0
  0
ARC
  5
1AD69
  8
0
 10
3402.834389029401791
 20
149.3645622619604865
 30
0.0
 40
0.019686407999167
 50
270.0039469744129974
 51
359.9960169331092175
  0
LINE
  5
1AD6A
  8
0
 10
3402.854075437353913
 20
149.3645608934079974
 30
0.0
 11
3402.8540811188090629
 21
149.5023180246938068
 31
0.0
  0
ARC
  5
1AD6B
  8
0
 10
3402.8934909933918789
 20
149.5023163993301125
 30
0.0
 40
0.0394098746172923
 50
90.0661167906776825
 51
179.9976369760539114
  0
LINE
  5
1AD6C
  8
0
 10
3402.8934455161529513
 20
149.5417262477079987
 30
0.0
 11
3403.1493508575699707
 21
149.5420215512635025
 31
0.0
  0
LINE
  5
1AD6D
  8
0
 10
3403.1493510279528891
 20
149.3843836014079898
 30
0.0
 11
3403.1493510279528891
 21
150.4864704689080099
 31
0.0
  0
ARC
  5
1AD6E
  8
0
 10
3403.1887211073540129
 20
150.4864704689080099
 30
0.0
 40
0.0393700793999941
 50
90.000001018702477
 51
179.9999999999951115
  0
ARC
  5
1AD6F
  8
0
 10
3403.1887247167778696
 20
-52.5208429371437475
 30
0.0
 40
203.0466834854518083
 50
89.6000183718045378
 51
90.000001018702477
  0
ARC
  5
1AD70
  8
0
 10
3404.6059055539149085
 20
150.4813851542697023
 30
0.0
 40
0.0395087068164505
 50
0.1999903052427913
 51
89.6000183718045378
  0
LINE
  5
1AD71
  8
0
 10
3404.6454140200539769
 20
150.4815230587080066
 30
0.0
 11
3404.6454140200539769
 21
149.3893376648705953
 31
0.0
  0
ARC
  5
1AD72
  8
0
 10
3404.6060439410571234
 20
149.3893310110476875
 30
0.0
 40
0.0393700789966332
 50
270.2000003997371778
 51
359.9999996511904783
  0
LINE
  5
1AD73
  8
0
 10
3404.6061813685541892
 20
149.3499611719080065
 30
0.0
 11
3403.8973825245329863
 21
149.3474869871099884
 31
0.0
  0
ARC
  5
1AD74
  8
0
 10
3403.7813016586478625
 20
148.7657051756308135
 30
0.0
 40
0.593249394093818
 50
78.7161581591998356
 51
101.6838418166335032
  0
ARC
  5
1AD75
  8
0
 10
3403.560766565285121
 20
174.4822865592734047
 30
0.0
 40
25.1358246370476301
 50
269.9571245212064241
 51
270.2288467962667937
  0
ARC
  5
1AD76
  8
0
 10
3403.4283809921089414
 20
148.778365533198496
 30
0.0
 40
0.5793453256406541
 50
78.6944031045470211
 51
102.0829217570497036
  0
ARC
  5
1AD77
  8
0
 10
3403.1889571150732081
 20
149.3844813585924101
 30
0.0
 40
0.03960620776286
 50
180.1414192391588927
 51
269.6585796233433143
  0
ARC
  5
1AD78
  8
0
 10
3403.2479147097042187
 20
142.4971924024974044
 30
0.0
 40
6.8479392911104631
 50
89.5047289817502048
 51
90.4952710182498095
  0
LINE
  5
1AD79
  8
0
 10
3403.3265174975849732
 20
149.3491490342696864
 30
0.0
 11
3403.3265174975849732
 21
149.3409388461080027
 31
0.0
  0
LINE
  5
1AD7A
  8
0
 10
3403.3265174975849732
 20
149.3409388461080027
 30
0.0
 11
3403.3422644137540374
 21
149.3251908146079927
 31
0.0
  0
LINE
  5
1AD7B
  8
0
 10
3403.3422644137540374
 20
149.3251908146079927
 30
0.0
 11
3403.5076187444528841
 21
149.3251908146079927
 31
0.0
  0
LINE
  5
1AD7C
  8
0
 10
3403.5076187444528841
 20
149.3251908146079927
 30
0.0
 11
3403.5233667759530363
 21
149.3409388461080027
 31
0.0
  0
LINE
  5
1AD7D
  8
0
 10
3403.5233667759530363
 20
149.3409388461080027
 30
0.0
 11
3403.5233667759530363
 21
149.3498302492523919
 31
0.0
  0
LINE
  5
1AD7E
  8
0
 10
3403.3265163822538852
 20
149.3409388461080027
 30
0.0
 11
3403.5233667759530363
 21
149.3409388461080027
 31
0.0
  0
LINE
  5
1AD7F
  8
0
 10
3403.6809006852490711
 20
149.3503714965594042
 30
0.0
 11
3403.6809006852490711
 21
149.3408852518126935
 31
0.0
  0
LINE
  5
1AD80
  8
0
 10
3403.6809006852490711
 20
149.3409388461080027
 30
0.0
 11
3403.6966476014181353
 21
149.3251908146079927
 31
0.0
  0
LINE
  5
1AD81
  8
0
 10
3403.6966476014181353
 20
149.3251908146079927
 30
0.0
 11
3403.8620019321169821
 21
149.3251908146079927
 31
0.0
  0
LINE
  5
1AD82
  8
0
 10
3403.8620019321169821
 20
149.3251908146079927
 30
0.0
 11
3403.8777499636180437
 21
149.3409388461080027
 31
0.0
  0
LINE
  5
1AD83
  8
0
 10
3403.8777499636180437
 20
149.3409388461080027
 30
0.0
 11
3403.8777499636180437
 21
149.3510450433572032
 31
0.0
  0
LINE
  5
1AD84
  8
0
 10
3403.6808995699179832
 20
149.3409388461080027
 30
0.0
 11
3403.8777499636180437
 21
149.3409388461080027
 31
0.0
  0
LINE
  5
1AD85
  8
0
 10
3401.5745478783542239
 20
150.5259782162079887
 30
0.0
 11
3402.8343903979530296
 21
150.5259782162079887
 31
0.0
  0
ARC
  5
1AD86
  8
0
 10
3402.8343903979530296
 20
150.5062931768081
 30
0.0
 40
0.0196850393999952
 50
359.9999999999789111
 51
90.0
  0
LINE
  5
1AD87
  8
0
 10
3402.854075437353913
 20
150.5062931768079864
 30
0.0
 11
3402.854075437353913
 21
150.3684979363279126
 31
0.0
  0
ARC
  5
1AD88
  8
0
 10
3402.8934455511739543
 20
150.3684979363279126
 30
0.0
 40
0.0393701138198495
 50
179.9999999999820943
 51
269.9999491808225116
  0
LINE
  5
1AD89
  8
0
 10
3402.8934455162539052
 20
150.3291278225080134
 30
0.0
 11
3403.1493510279528891
 21
150.3291275955295134
 31
0.0
  0
ARC
  5
1AD8A
  8
0
 10
3403.4261987111881353
 20
149.935437329751494
 30
0.0
 40
0.6624457583468014
 50
143.5373627657137092
 51
216.4648511872597965
  0
LINE
  5
1AD8B
  8
0
 10
3401.6532880357540307
 20
150.5653482949080058
 30
0.0
 11
3401.6532880357540307
 21
150.5259782162079887
 31
0.0
  0
LINE
  5
1AD8C
  8
0
 10
3402.7556502405541323
 20
150.5653483184100025
 30
0.0
 11
3402.7556502405541323
 21
150.5259782162079887
 31
0.0
  0
LINE
  5
1AD8D
  8
0
 10
3401.712343153853908
 20
149.344875854007995
 30
0.0
 11
3401.712343153853908
 21
146.3327835580477085
 31
0.0
  0
LINE
  5
1AD8E
  8
0
 10
3402.6965951223542106
 20
149.344875854007995
 30
0.0
 11
3402.6965951223542106
 21
146.3327835581191039
 31
0.0
  0
CIRCLE
  5
1AD8F
  8
0
 10
3402.2044691381038319
 20
145.6440884525079866
 30
0.0
 40
0.7874015748687933
  0
LINE
  5
1AD90
  8
0
 10
3402.7871463033529835
 20
145.0891596506579901
 30
0.0
 11
3402.7871463033529835
 21
145.0389574491399003
 31
0.0
  0
ARC
  5
1AD91
  8
0
 10
3402.767074917077025
 20
145.0387890625185889
 30
0.0
 40
0.020072092600285
 50
313.3800933473443138
 51
0.4806651747271957
  0
LINE
  5
1AD92
  8
0
 10
3402.7536817363529735
 20
145.0590516092782991
 30
0.0
 11
3402.7536817363529735
 21
145.0799118906579963
 31
0.0
  0
ARC
  5
1AD93
  8
0
 10
3402.2044691344981402
 20
145.703143575871195
 30
0.0
 40
0.8464566991437671
 50
300.2152207364680976
 51
313.5013835989449262
  0
ARC
  5
1AD94
  8
0
 10
3402.2133857175022058
 20
145.6817883343724134
 30
0.0
 40
0.8235211079787752
 50
277.3951244892688806
 51
300.4268538729598959
  0
LINE
  5
1AD95
  8
0
 10
3401.6623426254850528
 20
146.1405637502714967
 30
0.0
 11
3402.1445785672840429
 21
144.8589678505487939
 31
0.0
  0
LINE
  5
1AD96
  8
0
 10
3402.3006940110658434
 20
146.3728701955159011
 30
0.0
 11
3402.7550194954569633
 21
145.0811536924121867
 31
0.0
  0
ARC
  5
1AD97
  8
0
 10
3402.3399759996909779
 20
146.3795580558820859
 30
0.0
 40
0.0398472346167809
 50
86.711749633387555
 51
189.6621106556551126
  0
ARC
  5
1AD98
  8
0
 10
3401.6274327639071089
 20
146.119874027853399
 30
0.0
 40
0.0405803283524209
 50
30.6535795299973515
 51
126.9500379434847019
  0
CIRCLE
  5
1AD99
  8
0
 10
3402.2044691381038319
 20
145.6440884525079866
 30
0.0
 40
0.1968503936335753
  0
LINE
  5
1AD9A
  8
0
 10
3401.6217919728528614
 20
145.0891596506579901
 30
0.0
 11
3401.6217919728528614
 21
145.0389574491399003
 31
0.0
  0
ARC
  5
1AD9B
  8
0
 10
3401.6418633591310936
 20
145.0387890625185889
 30
0.0
 40
0.020072092600285
 50
179.5193348252728072
 51
226.6199066526556862
  0
LINE
  5
1AD9C
  8
0
 10
3401.6552565398537809
 20
145.0590516092782991
 30
0.0
 11
3401.6552565398537809
 21
145.0799118906579963
 31
0.0
  0
ARC
  5
1AD9D
  8
0
 10
3402.2044691417090689
 20
145.703143575871195
 30
0.0
 40
0.8464566991437671
 50
226.4986164010551022
 51
239.7847792635319024
  0
ARC
  5
1AD9E
  8
0
 10
3402.1955525587050033
 20
145.6817883343724134
 30
0.0
 40
0.8235211079787752
 50
239.5731461270401041
 51
262.6048755107311194
  0
LINE
  5
1AD9F
  8
0
 10
3402.7871463033529835
 20
146.1990172543580115
 30
0.0
 11
3402.7871463033529835
 21
146.2492194558761867
 31
0.0
  0
ARC
  5
1ADA0
  8
0
 10
3402.767074917077025
 20
146.249387842497498
 30
0.0
 40
0.020072092600285
 50
359.5193348252727787
 51
46.6199066526556791
  0
LINE
  5
1ADA1
  8
0
 10
3402.7536817363529735
 20
146.2291252957377026
 30
0.0
 11
3402.7536817363529735
 21
146.2082650143580054
 31
0.0
  0
ARC
  5
1ADA2
  8
0
 10
3402.2044691344981402
 20
145.5850333291448919
 30
0.0
 40
0.8464566991437671
 50
46.4986164010550667
 51
59.7847792635319166
  0
ARC
  5
1ADA3
  8
0
 10
3402.2133857175022058
 20
145.606388570643702
 30
0.0
 40
0.8235211079787752
 50
59.5731461270401113
 51
82.6048755107310768
  0
LINE
  5
1ADA4
  8
0
 10
3401.6217919728528614
 20
146.1990172543580115
 30
0.0
 11
3401.6217919728528614
 21
146.2492194558761867
 31
0.0
  0
ARC
  5
1ADA5
  8
0
 10
3401.6418633591310936
 20
146.249387842497498
 30
0.0
 40
0.020072092600285
 50
133.3800933473443138
 51
180.4806651747271928
  0
LINE
  5
1ADA6
  8
0
 10
3401.6552565398537809
 20
146.2291252957377026
 30
0.0
 11
3401.6552565398537809
 21
146.2082650143580054
 31
0.0
  0
ARC
  5
1ADA7
  8
0
 10
3402.2044691417090689
 20
145.5850333291448919
 30
0.0
 40
0.8464566991437671
 50
120.2152207364680976
 51
133.5013835989448978
  0
ARC
  5
1ADA8
  8
0
 10
3402.1955525587050033
 20
145.606388570643702
 30
0.0
 40
0.8235211079787752
 50
97.3951244892689516
 51
120.4268538729598959
  0
ARC
  5
1ADA9
  8
0
 10
3402.2044691381038319
 20
145.6440884528396111
 30
0.0
 40
0.8464566925184586
 50
47.0823245151215986
 51
132.9176754848784014
  0
ARC
  5
1ADAA
  8
0
 10
3402.2044691381038319
 20
145.6440884518027872
 30
0.0
 40
0.8464566922447871
 50
227.0823244978990942
 51
312.9176755020998257
  0
LINE
  5
1ADAB
  8
0
 10
3401.712343153853908
 20
144.9553933467684033
 30
0.0
 11
3401.712343153853908
 21
120.0141671926079994
 31
0.0
  0
LINE
  5
1ADAC
  8
0
 10
3402.6965951223542106
 20
144.9553933466970079
 30
0.0
 11
3402.6965951223542106
 21
120.0141671926079994
 31
0.0
  0
LINE
  5
1ADAD
  8
0
 10
3401.712343153853908
 20
120.0141671926079994
 30
0.0
 11
3402.6965951223542106
 21
120.0141671926079994
 31
0.0
  0
LINE
  5
1ADAE
  8
0
 10
3401.5351778006797758
 20
119.9826711296079935
 30
0.0
 11
3402.8737604756279325
 21
119.9826711296079935
 31
0.0
  0
ARC
  5
1ADAF
  8
0
 10
3402.8737604756279325
 20
119.9629860890824062
 30
0.0
 40
0.0196850405256033
 50
0.0000032762078534
 51
90.0
  0
LINE
  5
1ADB0
  8
0
 10
3402.8934455161529513
 20
119.9629860902080054
 30
0.0
 11
3402.8934455211060595
 21
119.8763719394080027
 31
0.0
  0
LINE
  5
1ADB1
  8
0
 10
3402.8934455211060595
 20
119.8763719394080027
 30
0.0
 11
3402.854075437353913
 21
119.837001838307998
 31
0.0
  0
LINE
  5
1ADB2
  8
0
 10
3402.854075437353913
 20
119.837001838307998
 30
0.0
 11
3402.854075437353913
 21
119.2464506572080012
 31
0.0
  0
LINE
  5
1ADB3
  8
0
 10
3402.854075437353913
 20
119.2464506572080012
 30
0.0
 11
3401.5548628389528858
 21
119.2464506572080012
 31
0.0
  0
LINE
  5
1ADB4
  8
0
 10
3401.5548628389528858
 20
119.2464506572080012
 30
0.0
 11
3401.5548628389528858
 21
119.837001838307998
 31
0.0
  0
LINE
  5
1ADB5
  8
0
 10
3401.5548628389528858
 20
119.837001838307998
 30
0.0
 11
3401.5154927487537861
 21
119.8763719284080054
 31
0.0
  0
LINE
  5
1ADB6
  8
0
 10
3401.5154927487537861
 20
119.8763719284080054
 30
0.0
 11
3401.5154927487537861
 21
119.9629860902080054
 31
0.0
  0
ARC
  5
1ADB7
  8
0
 10
3401.5351777881528506
 20
119.9629860902080054
 30
0.0
 40
0.0196850394000059
 50
89.9999668188772262
 51
180.0000000000065086
  0
LINE
  5
1ADB8
  8
0
 10
3401.8895085082531295
 20
120.0141671926079994
 30
0.0
 11
3401.8895085082531295
 21
119.9826711296079935
 31
0.0
  0
LINE
  5
1ADB9
  8
0
 10
3402.519429768054124
 20
120.0141671926079994
 30
0.0
 11
3402.519429768054124
 21
119.9826711296079935
 31
0.0
  0
LINE
  5
1ADBA
  8
0
 10
3401.4958077208530085
 20
119.1873955390079942
 30
0.0
 11
3402.9131305554537903
 21
119.1873955390079942
 31
0.0
  0
LINE
  5
1ADBB
  8
0
 10
3402.9131305554537903
 20
119.1873955390079942
 30
0.0
 11
3402.9131305554537903
 21
118.9118049874080043
 31
0.0
  0
ARC
  5
1ADBC
  8
0
 10
3402.9918707124538741
 20
118.9118049874080043
 30
0.0
 40
0.0787401569999986
 50
180.0000000000015916
 51
270.0000005093511959
  0
LINE
  5
1ADBD
  8
0
 10
3402.9918707131541851
 20
118.8330648304080057
 30
0.0
 11
3404.6454140200539769
 21
118.8330648451079981
 31
0.0
  0
LINE
  5
1ADBE
  8
0
 10
3404.6454140200539769
 20
118.8330648451079981
 30
0.0
 11
3404.6454140200539769
 21
117.337001838307998
 31
0.0
  0
LINE
  5
1ADBF
  8
0
 10
3404.6454140200539769
 20
117.337001838307998
 30
0.0
 11
3403.3658864609528791
 21
117.337001838307998
 31
0.0
  0
ARC
  5
1ADC0
  8
0
 10
3403.1099809491538508
 20
116.6324921613060042
 30
0.0
 40
0.7495475408265316
 50
70.036995642676672
 51
109.9630043573232996
  0
LINE
  5
1ADC1
  8
0
 10
3402.854075437353913
 20
117.337001838307998
 30
0.0
 11
3402.3422644146539824
 21
117.337001838307998
 31
0.0
  0
ARC
  5
1ADC2
  8
0
 10
3402.3422791448028875
 20
117.2582475542218958
 30
0.0
 40
0.0787548898158799
 50
90.0112962223605706
 51
179.9897221855034104
  0
LINE
  5
1ADC3
  8
0
 10
3402.2635242562541862
 20
117.2582616814080012
 30
0.0
 11
3402.2634465712640122
 21
116.8251908215757027
 31
0.0
  0
LINE
  5
1ADC4
  8
0
 10
3402.2634465712640122
 20
116.8251908215757027
 30
0.0
 11
3401.2792722877538836
 21
116.8251908215757027
 31
0.0
  0
LINE
  5
1ADC5
  8
0
 10
3401.2792722877538836
 20
116.8251908215757027
 30
0.0
 11
3401.2792722877538836
 21
117.2582616808080047
 31
0.0
  0
ARC
  5
1ADC6
  8
0
 10
3401.2005321302540324
 20
117.2582616808080047
 30
0.0
 40
0.0787401575000004
 50
0.0
 51
89.9999999272280888
  0
LINE
  5
1ADC7
  8
0
 10
3401.2005321303531673
 20
117.337001838307998
 30
0.0
 11
3401.0391148074540979
 21
117.3370018385130038
 31
0.0
  0
LINE
  5
1ADC8
  8
0
 10
3401.0391148074540979
 20
117.3370018385130038
 30
0.0
 11
3401.0391148074540979
 21
118.8330648304080057
 31
0.0
  0
LINE
  5
1ADC9
  8
0
 10
3401.0391148074540979
 20
118.8330648304080057
 30
0.0
 11
3401.4170675635541556
 21
118.833064323307994
 31
0.0
  0
ARC
  5
1ADCA
  8
0
 10
3401.4170676691987865
 20
118.9118043749646034
 30
0.0
 40
0.0787400516566946
 50
269.9999231261353998
 51
0.0004460127708554
  0
LINE
  5
1ADCB
  8
0
 10
3401.4958077208530085
 20
118.911804987907999
 30
0.0
 11
3401.4958077208530085
 21
119.1873955390079942
 31
0.0
  0
LINE
  5
1ADCC
  8
0
 10
3401.6139179570541273
 20
119.2464506572080012
 30
0.0
 11
3401.6139179570541273
 21
119.1873955390079942
 31
0.0
  0
LINE
  5
1ADCD
  8
0
 10
3402.7950203192540357
 20
119.2464506572080012
 30
0.0
 11
3402.7950203192540357
 21
119.1873955390079942
 31
0.0
  0
ARC
  5
1ADCE
  8
0
 10
3384.545322940033202
 20
102.2723439411198996
 30
0.0
 40
23.7513807256404306
 50
43.7989302623238927
 51
44.4663303864670567
  0
ARC
  5
1ADCF
  8
0
 10
3404.4833416321171171
 20
121.3915018760315974
 30
0.0
 40
3.8722828530014151
 50
223.7989302623238927
 51
227.947739992117306
  0
ARC
  5
1ADD0
  8
0
 10
3402.9513912054680986
 20
119.6932162302322951
 30
0.0
 40
1.585134793858872
 50
227.947739992117306
 51
234.8184771539391988
  0
ARC
  5
1ADD1
  8
0
 10
3402.2530890729281055
 20
118.7026318104089029
 30
0.0
 40
0.3731598101623394
 50
234.8184771539391988
 51
250.6269000708373937
  0
ARC
  5
1ADD2
  8
0
 10
3402.205161332084117
 20
118.5663293929708004
 30
0.0
 40
0.2286765331300813
 50
250.6269000708373937
 51
297.0145037126508214
  0
ARC
  5
1ADD3
  8
0
 10
3401.9182292188788779
 20
119.1291131425991949
 30
0.0
 40
0.8603849994606312
 50
297.0145037126508214
 51
316.7597310638129215
  0
ARC
  5
1ADD4
  8
0
 10
3398.0603938152858063
 20
123.3063288897957932
 30
0.0
 40
6.5446571734073258
 50
313.2539329026641894
 51
316.3631446127247955
  0
ARC
  5
1ADD5
  8
0
 10
3408.0724158009620623
 20
113.7927049850281946
 30
0.0
 40
7.266575113114496
 50
135.2348320654512008
 51
136.5513665299829995
  0
LINE
  5
1ADD6
  8
0
 10
3401.0233667759539458
 20
118.8330648304080057
 30
0.0
 11
3401.0233667759539458
 21
117.337001838307998
 31
0.0
  0
LINE
  5
1ADD7
  8
0
 10
3401.0233667759539458
 20
117.337001838307998
 30
0.0
 11
3399.8619494531540113
 21
117.337001838307998
 31
0.0
  0
ARC
  5
1ADD8
  8
0
 10
3399.8619494531540113
 20
117.3566868777080003
 30
0.0
 40
0.0196850393999988
 50
180.0000002910566934
 51
270.0
  0
LINE
  5
1ADD9
  8
0
 10
3399.8422644137540374
 20
117.3566868776079986
 30
0.0
 11
3399.8422644063539337
 21
118.8133797910080034
 31
0.0
  0
ARC
  5
1ADDA
  8
0
 10
3399.8619494456538632
 20
118.8133797911080052
 30
0.0
 40
0.0196850393000006
 50
89.9999781706951865
 51
180.0000002910533965
  0
LINE
  5
1ADDB
  8
0
 10
3399.8619494531540113
 20
118.8330648304080057
 30
0.0
 11
3400.269429768054124
 21
118.8330646751607986
 31
0.0
  0
ARC
  5
1ADDC
  8
0
 10
3400.4328155951011468
 20
119.5740718348632043
 30
0.0
 40
0.7588058440536252
 50
257.5657199375476125
 51
282.4342825130440815
  0
LINE
  5
1ADDD
  8
0
 10
3400.5962014216538591
 20
118.8330648304080057
 30
0.0
 11
3401.0233667759539458
 21
118.8330648304080057
 31
0.0
  0
LINE
  5
1ADDE
  8
0
 10
3400.2753352798540618
 20
118.831794444007997
 30
0.0
 11
3400.2753352798540618
 21
119.5929073501080069
 31
0.0
  0
ARC
  5
1ADDF
  8
0
 10
3400.2950203191539913
 20
119.5929073501080069
 30
0.0
 40
0.0196850393000041
 50
89.9999906860038266
 51
180.0000000000048885
  0
LINE
  5
1ADE0
  8
0
 10
3400.2950203223531389
 20
119.6125923894079932
 30
0.0
 11
3400.5699700726768242
 21
119.6125923447121977
 31
0.0
  0
ARC
  5
1ADE1
  8
0
 10
3400.5705938097198668
 20
119.5929001189849004
 30
0.0
 40
0.0197021014614003
 50
0.021028865763745
 51
91.8141959369215783
  0
LINE
  5
1ADE2
  8
0
 10
3400.5902959098539213
 20
119.5929073501080069
 30
0.0
 11
3400.5902959097511484
 21
118.8317946363072934
 31
0.0
  0
LINE
  5
1ADE3
  8
0
 10
3401.0233667759539458
 20
117.6125923894079932
 30
0.0
 11
3401.0391148074540979
 21
117.6125923894079932
 31
0.0
  0
LINE
  5
1ADE4
  8
0
 10
3401.0233667759539458
 20
118.5574742793079963
 30
0.0
 11
3401.0391148074540979
 21
118.5574742793079963
 31
0.0
  0
LINE
  5
1ADE5
  8
0
 10
3401.0233667759539458
 20
118.1507763651080012
 30
0.0
 11
3401.0391148074540979
 21
118.1507763651080012
 31
0.0
  0
LINE
  5
1ADE6
  8
0
 10
3401.0233667759539458
 20
118.0192903036080025
 30
0.0
 11
3401.0391148074540979
 21
118.0192903036080025
 31
0.0
  0
ARC
  5
1ADE7
  8
0
 10
3402.3861422144777862
 20
115.8913178867592961
 30
0.0
 40
1.75889066481502
 50
122.4268820648016032
 51
128.9984979819072919
  0
ARC
  5
1ADE8
  8
0
 10
3401.9104120243541729
 20
116.6401718769455016
 30
0.0
 40
0.8717032480802981
 50
110.5736850934359978
 51
122.4268820648006937
  0
ARC
  5
1ADE9
  8
0
 10
3401.76751854864915
 20
117.0208646047212966
 30
0.0
 40
0.4650762711341589
 50
101.1042240643890011
 51
110.5736850934359978
  0
ARC
  5
1ADEA
  8
0
 10
3401.770945736595877
 20
117.0034028960866976
 30
0.0
 40
0.482871126729499
 50
70.7430693353827564
 51
101.1042240643890011
  0
ARC
  5
1ADEB
  8
0
 10
3401.673818493023191
 20
116.7253812352353037
 30
0.0
 40
0.777370269931501
 50
57.8007154494387692
 51
70.7430693353827564
  0
ARC
  5
1ADEC
  8
0
 10
3401.0465644268679171
 20
115.7292910979054028
 30
0.0
 40
1.9545037480018559
 50
53.3147919062655191
 51
57.8007154494387692
  0
ARC
  5
1ADED
  8
0
 10
3401.3452706591751848
 20
116.1302522448179957
 30
0.0
 40
1.4545084934713599
 50
50.8527635508280511
 51
53.3147919062655191
  0
LINE
  5
1ADEE
  8
0
 10
3401.4564376420539702
 20
116.8251908215757027
 30
0.0
 11
3401.4564376420539702
 21
116.3527498697475977
 31
0.0
  0
LINE
  5
1ADEF
  8
0
 10
3402.0863589019540996
 20
116.8251908215757027
 30
0.0
 11
3402.0863589019540996
 21
116.3527498697475977
 31
0.0
  0
LINE
  5
1ADF0
  8
0
 10
3402.2025006342541928
 20
116.3527498697475977
 30
0.0
 11
3401.3402959098539213
 21
116.3527498697475977
 31
0.0
  0
ARC
  5
1ADF1
  8
0
 10
3401.3402959097511484
 20
116.3409388462507934
 30
0.0
 40
0.0118110234968221
 50
89.9999994994553845
 51
180.0000006924078093
  0
LINE
  5
1ADF2
  8
0
 10
3401.3284848862540457
 20
116.3409388461080027
 30
0.0
 11
3401.3284848913372116
 21
115.7405451453080047
 31
0.0
  0
ARC
  5
1ADF3
  8
0
 10
3401.3580124485079068
 20
115.7405451446555986
 30
0.0
 40
0.029527557171253
 50
179.9999987339434142
 51
269.9999936849201845
  0
LINE
  5
1ADF4
  8
0
 10
3401.3580124452541895
 20
115.7110175874843065
 30
0.0
 11
3402.1847840987538802
 21
115.7110175874843065
 31
0.0
  0
ARC
  5
1ADF5
  8
0
 10
3402.184784366067106
 20
115.7405448792717948
 30
0.0
 40
0.0295272917886663
 50
269.9994812974919114
 51
0.0005162259786762
  0
LINE
  5
1ADF6
  8
0
 10
3402.2143116578540685
 20
115.7405451453080047
 30
0.0
 11
3402.2143112271801328
 21
115.8212538068068937
 31
0.0
  0
LINE
  5
1ADF7
  8
0
 10
3402.2143116578540685
 20
116.1165293973079997
 30
0.0
 11
3402.2143116578540685
 21
116.3409388461080027
 31
0.0
  0
ARC
  5
1ADF8
  8
0
 10
3402.2025006341859807
 20
116.3409388460799931
 30
0.0
 40
0.0118110236675335
 50
0.0000001357210365
 51
89.9999996724091744
  0
LINE
  5
1ADF9
  8
0
 10
3401.3157605867531856
 20
116.1165293973079997
 30
0.0
 11
3402.2275686608541037
 21
116.1165293973079997
 31
0.0
  0
LINE
  5
1ADFA
  8
0
 10
3402.2275686608541037
 20
116.1165293973079997
 30
0.0
 11
3402.2275686608541037
 21
115.8212538068080022
 31
0.0
  0
LINE
  5
1ADFB
  8
0
 10
3402.2275686608541037
 20
115.8212538068080022
 30
0.0
 11
3401.3157605867531856
 21
115.8212538068080022
 31
0.0
  0
LINE
  5
1ADFC
  8
0
 10
3401.3157605867531856
 20
115.8212538068080022
 30
0.0
 11
3401.3157605867531856
 21
116.1165293973079997
 31
0.0
  0
LINE
  5
1ADFD
  8
0
 10
3401.3200147530537834
 20
116.1165293973079997
 30
0.0
 11
3401.3200147530537834
 21
115.8212538068080022
 31
0.0
  0
LINE
  5
1ADFE
  8
0
 10
3401.3410873553539204
 20
116.1165293973079997
 30
0.0
 11
3401.3410873553539204
 21
115.8212538068080022
 31
0.0
  0
LINE
  5
1ADFF
  8
0
 10
3401.3577090422541005
 20
116.1165293973079997
 30
0.0
 11
3401.3577090422541005
 21
115.8212538068080022
 31
0.0
  0
LINE
  5
1AE00
  8
0
 10
3401.3781932339529703
 20
116.1165293973079997
 30
0.0
 11
3401.3781932339529703
 21
115.8212538068080022
 31
0.0
  0
LINE
  5
1AE01
  8
0
 10
3401.4009144510541773
 20
116.1165293973079997
 30
0.0
 11
3401.4009144510541773
 21
115.8212538068080022
 31
0.0
  0
LINE
  5
1AE02
  8
0
 10
3401.4023486751539167
 20
116.1165293973079997
 30
0.0
 11
3401.4023486751539167
 21
115.8212538068080022
 31
0.0
  0
LINE
  5
1AE03
  8
0
 10
3401.4260700640529649
 20
116.1165293973079997
 30
0.0
 11
3401.4260700640529649
 21
115.8212538068080022
 31
0.0
  0
LINE
  5
1AE04
  8
0
 10
3401.4299498329542075
 20
116.1165293973079997
 30
0.0
 11
3401.4299498329542075
 21
115.8212538068080022
 31
0.0
  0
LINE
  5
1AE05
  8
0
 10
3401.4544499134540274
 20
116.1165293973079997
 30
0.0
 11
3401.4544499134540274
 21
115.8212538068080022
 31
0.0
  0
LINE
  5
1AE06
  8
0
 10
3401.4607390029541421
 20
116.1165293973079997
 30
0.0
 11
3401.4607390029541421
 21
115.8212538068080022
 31
0.0
  0
LINE
  5
1AE07
  8
0
 10
3401.4857890242528811
 20
116.1165293973079997
 30
0.0
 11
3401.4857890242528811
 21
115.8212538068080022
 31
0.0
  0
LINE
  5
1AE08
  8
0
 10
3401.4944287147541218
 20
116.1165293973079997
 30
0.0
 11
3401.4944287147541218
 21
115.8212538068080022
 31
0.0
  0
LINE
  5
1AE09
  8
0
 10
3401.519794791653112
 20
116.1165293973079997
 30
0.0
 11
3401.519794791653112
 21
115.8212538068080022
 31
0.0
  0
LINE
  5
1AE0A
  8
0
 10
3401.5307044167529966
 20
116.1165293973079997
 30
0.0
 11
3401.5307044167529966
 21
115.8212538068080022
 31
0.0
  0
LINE
  5
1AE0B
  8
0
 10
3401.5561497129529016
 20
116.1165293973079997
 30
0.0
 11
3401.5561497129529016
 21
115.8212538068080022
 31
0.0
  0
LINE
  5
1AE0C
  8
0
 10
3401.5692274123539391
 20
116.1165293973079997
 30
0.0
 11
3401.5692274123539391
 21
115.8212538068080022
 31
0.0
  0
LINE
  5
1AE0D
  8
0
 10
3401.5945143521530554
 20
116.1165293973079997
 30
0.0
 11
3401.5945143521530554
 21
115.8212538068080022
 31
0.0
  0
LINE
  5
1AE0E
  8
0
 10
3401.609638022854142
 20
116.1165293973079997
 30
0.0
 11
3401.609638022854142
 21
115.8212538068080022
 31
0.0
  0
LINE
  5
1AE0F
  8
0
 10
3401.6345305087529596
 20
116.1165293973079997
 30
0.0
 11
3401.6345305087529596
 21
115.8212538068080022
 31
0.0
  0
LINE
  5
1AE10
  8
0
 10
3401.6515589451541928
 20
116.1165293973079997
 30
0.0
 11
3401.6515589451541928
 21
115.8212538068080022
 31
0.0
  0
LINE
  5
1AE11
  8
0
 10
3401.6758245628539044
 20
116.1165293973079997
 30
0.0
 11
3401.6758245628539044
 21
115.8212538068080022
 31
0.0
  0
LINE
  5
1AE12
  8
0
 10
3401.6945987749541018
 20
116.1165293973079997
 30
0.0
 11
3401.6945987749541018
 21
115.8212538068080022
 31
0.0
  0
LINE
  5
1AE13
  8
0
 10
3401.7180109628529863
 20
116.1165293973079997
 30
0.0
 11
3401.7180109628529863
 21
115.8212538068080022
 31
0.0
  0
LINE
  5
1AE14
  8
0
 10
3401.7383556610529922
 20
116.1165293973079997
 30
0.0
 11
3401.7383556610529922
 21
115.8212538068080022
 31
0.0
  0
LINE
  5
1AE15
  8
0
 10
3401.7606958257529186
 20
116.1165293973079997
 30
0.0
 11
3401.7606958257529186
 21
115.8212538068080022
 31
0.0
  0
LINE
  5
1AE16
  8
0
 10
3401.7824210570538526
 20
116.1165293973079997
 30
0.0
 11
3401.7824210570538526
 21
115.8212538068080022
 31
0.0
  0
LINE
  5
1AE17
  8
0
 10
3401.8034806145537914
 20
116.1165293973079997
 30
0.0
 11
3401.8034806145537914
 21
115.8212538068080022
 31
0.0
  0
LINE
  5
1AE18
  8
0
 10
3401.8263835363541148
 20
116.1165293973079997
 30
0.0
 11
3401.8263835363541148
 21
115.8212538068080022
 31
0.0
  0
LINE
  5
1AE19
  8
0
 10
3401.8459658592541928
 20
116.1165293973079997
 30
0.0
 11
3401.8459658592541928
 21
115.8212538068080022
 31
0.0
  0
LINE
  5
1AE1A
  8
0
 10
3401.8698326329540578
 20
116.1165293973079997
 30
0.0
 11
3401.8698326329540578
 21
115.8212538068080022
 31
0.0
  0
LINE
  5
1AE1B
  8
0
 10
3401.8877548863538323
 20
116.1165293973079997
 30
0.0
 11
3401.8877548863538323
 21
115.8212538068080022
 31
0.0
  0
LINE
  5
1AE1C
  8
0
 10
3401.9123626744540161
 20
116.1165293973079997
 30
0.0
 11
3401.9123626744540161
 21
115.8212538068080022
 31
0.0
  0
LINE
  5
1AE1D
  8
0
 10
3401.9284575231540657
 20
116.1165293973079997
 30
0.0
 11
3401.9284575231540657
 21
115.8212538068080022
 31
0.0
  0
LINE
  5
1AE1E
  8
0
 10
3401.9535765693531175
 20
116.1165293973079997
 30
0.0
 11
3401.9535765693531175
 21
115.8212538068080022
 31
0.0
  0
LINE
  5
1AE1F
  8
0
 10
3401.9676937400540737
 20
116.1165293973079997
 30
0.0
 11
3401.9676937400540737
 21
115.8212538068080022
 31
0.0
  0
LINE
  5
1AE20
  8
0
 10
3401.993089514553958
 20
116.1165293973079997
 30
0.0
 11
3401.993089514553958
 21
115.8212538068080022
 31
0.0
  0
LINE
  5
1AE21
  8
0
 10
3402.0050971990540347
 20
116.1165293973079997
 30
0.0
 11
3402.0050971990540347
 21
115.8212538068080022
 31
0.0
  0
LINE
  5
1AE22
  8
0
 10
3402.0305325883541627
 20
116.1165293973079997
 30
0.0
 11
3402.0305325883541627
 21
115.8212538068080022
 31
0.0
  0
LINE
  5
1AE23
  8
0
 10
3402.0403186740541059
 20
116.1165293973079997
 30
0.0
 11
3402.0403186740541059
 21
115.8212538068080022
 31
0.0
  0
LINE
  5
1AE24
  8
0
 10
3402.0655561949529329
 20
116.1165293973079997
 30
0.0
 11
3402.0655561949529329
 21
115.8212538068080022
 31
0.0
  0
LINE
  5
1AE25
  8
0
 10
3402.073029311854043
 20
116.1165293973079997
 30
0.0
 11
3402.073029311854043
 21
115.8212538068080022
 31
0.0
  0
LINE
  5
1AE26
  8
0
 10
3402.0978333281541381
 20
116.1165293973079997
 30
0.0
 11
3402.0978333281541381
 21
115.8212538068080022
 31
0.0
  0
LINE
  5
1AE27
  8
0
 10
3402.1029237018528875
 20
116.1165293973079997
 30
0.0
 11
3402.1029237018528875
 21
115.8212538068080022
 31
0.0
  0
LINE
  5
1AE28
  8
0
 10
3402.1270626252539842
 20
116.1165293973079997
 30
0.0
 11
3402.1270626252539842
 21
115.8212538068080022
 31
0.0
  0
LINE
  5
1AE29
  8
0
 10
3402.1297227281538653
 20
116.1165293973079997
 30
0.0
 11
3402.1297227281538653
 21
115.8212538068080022
 31
0.0
  0
LINE
  5
1AE2A
  8
0
 10
3402.1531761756541528
 20
116.1165293973079997
 30
0.0
 11
3402.1531761756541528
 21
115.8212538068080022
 31
0.0
  0
LINE
  5
1AE2B
  8
0
 10
3402.1753170914539623
 20
116.1165293973079997
 30
0.0
 11
3402.1753170914539623
 21
115.8212538068080022
 31
0.0
  0
LINE
  5
1AE2C
  8
0
 10
3402.1938917217530616
 20
116.1165293973079997
 30
0.0
 11
3402.1938917217530616
 21
115.8212538068080022
 31
0.0
  0
LINE
  5
1AE2D
  8
0
 10
3402.2085216444538673
 20
116.1165293973079997
 30
0.0
 11
3402.2085216444538673
 21
115.8212538068080022
 31
0.0
  0
LINE
  5
1AE2E
  8
0
 10
3402.2190702640541531
 20
116.1165293973079997
 30
0.0
 11
3402.2190702640541531
 21
115.8212538068080022
 31
0.0
  0
LINE
  5
1AE2F
  8
0
 10
3402.2254390908537971
 20
116.1165293973079997
 30
0.0
 11
3402.2254390908537971
 21
115.8212538068080022
 31
0.0
  0
LINE
  5
1AE30
  8
0
 10
3403.5410833113528497
 20
117.1007813659080057
 30
0.0
 11
3402.6788785870539868
 21
117.1007813659080057
 31
0.0
  0
ARC
  5
1AE31
  8
0
 10
3402.6788785870539868
 20
117.0889703423080022
 30
0.0
 40
0.0118110236
 50
90.0
 51
180.0000004850955122
  0
LINE
  5
1AE32
  8
0
 10
3402.6670675634541112
 20
117.0889703422080004
 30
0.0
 11
3402.6670675685368224
 21
116.4885766414080024
 31
0.0
  0
ARC
  5
1AE33
  8
0
 10
3402.6965951278871216
 20
116.4885766416579997
 30
0.0
 40
0.0295275593499938
 50
180.0000004851004007
 51
269.9999894572450785
  0
LINE
  5
1AE34
  8
0
 10
3402.6965951224528908
 20
116.4590490823079989
 30
0.0
 11
3403.5233667759530363
 21
116.4590489301773033
 31
0.0
  0
ARC
  5
1AE35
  8
0
 10
3403.5233667813868124
 20
116.488576483844497
 30
0.0
 40
0.0295275536671978
 50
269.9999894572450785
 51
0.000305738984386
  0
LINE
  5
1AE36
  8
0
 10
3403.5528943350532245
 20
116.4885766414080024
 30
0.0
 11
3403.5528939043801984
 21
116.5692853029069056
 31
0.0
  0
LINE
  5
1AE37
  8
0
 10
3403.5528943350532245
 20
116.8645608934079974
 30
0.0
 11
3403.5528943350532245
 21
117.0889703422080004
 31
0.0
  0
ARC
  5
1AE38
  8
0
 10
3403.5410833114528941
 20
117.0889703422080004
 30
0.0
 40
0.0118110235999964
 50
0.0000000000179129
 51
90.0000000000260485
  0
LINE
  5
1AE39
  8
0
 10
3402.6543432639541606
 20
116.8645608934079974
 30
0.0
 11
3403.5661513380541692
 21
116.8645608934079974
 31
0.0
  0
LINE
  5
1AE3A
  8
0
 10
3403.5661513380541692
 20
116.8645608934079974
 30
0.0
 11
3403.5661513380541692
 21
116.5692853029079998
 31
0.0
  0
LINE
  5
1AE3B
  8
0
 10
3403.5661513380541692
 20
116.5692853029079998
 30
0.0
 11
3402.6543432639541606
 21
116.5692853029079998
 31
0.0
  0
LINE
  5
1AE3C
  8
0
 10
3402.6543432639541606
 20
116.5692853029079998
 30
0.0
 11
3402.6543432639541606
 21
116.8645608934079974
 31
0.0
  0
LINE
  5
1AE3D
  8
0
 10
3402.6585974302529394
 20
116.8645608934079974
 30
0.0
 11
3402.6585974302529394
 21
116.5692853029079998
 31
0.0
  0
LINE
  5
1AE3E
  8
0
 10
3402.6796700325530765
 20
116.8645608934079974
 30
0.0
 11
3402.6796700325530765
 21
116.5692853029079998
 31
0.0
  0
LINE
  5
1AE3F
  8
0
 10
3402.696291719454166
 20
116.8645608934079974
 30
0.0
 11
3402.696291719454166
 21
116.5692853029079998
 31
0.0
  0
LINE
  5
1AE40
  8
0
 10
3402.7167759111539453
 20
116.8645608934079974
 30
0.0
 11
3402.7167759111539453
 21
116.5692853029079998
 31
0.0
  0
LINE
  5
1AE41
  8
0
 10
3402.7394971282537881
 20
116.8645608934079974
 30
0.0
 11
3402.7394971282537881
 21
116.5692853029079998
 31
0.0
  0
LINE
  5
1AE42
  8
0
 10
3402.7409313523539822
 20
116.8645608934079974
 30
0.0
 11
3402.7409313523539822
 21
116.5692853029079998
 31
0.0
  0
LINE
  5
1AE43
  8
0
 10
3402.7646527412539399
 20
116.8645608934079974
 30
0.0
 11
3402.7646527412539399
 21
116.5692853029079998
 31
0.0
  0
LINE
  5
1AE44
  8
0
 10
3402.7685325101538183
 20
116.8645608934079974
 30
0.0
 11
3402.7685325101538183
 21
116.5692853029079998
 31
0.0
  0
LINE
  5
1AE45
  8
0
 10
3402.7930325906540929
 20
116.8645608934079974
 30
0.0
 11
3402.7930325906540929
 21
116.5692853029079998
 31
0.0
  0
LINE
  5
1AE46
  8
0
 10
3402.7993216801528433
 20
116.8645608934079974
 30
0.0
 11
3402.7993216801528433
 21
116.5692853029079998
 31
0.0
  0
LINE
  5
1AE47
  8
0
 10
3402.8243717014529466
 20
116.8645608934079974
 30
0.0
 11
3402.8243717014529466
 21
116.5692853029079998
 31
0.0
  0
LINE
  5
1AE48
  8
0
 10
3402.8330113919541873
 20
116.8645608934079974
 30
0.0
 11
3402.8330113919541873
 21
116.5692853029079998
 31
0.0
  0
LINE
  5
1AE49
  8
0
 10
3402.8583774688540871
 20
116.8645608934079974
 30
0.0
 11
3402.8583774688540871
 21
116.5692853029079998
 31
0.0
  0
LINE
  5
1AE4A
  8
0
 10
3402.8692870939539716
 20
116.8645608934079974
 30
0.0
 11
3402.8692870939539716
 21
116.5692853029079998
 31
0.0
  0
LINE
  5
1AE4B
  8
0
 10
3402.8947323901538766
 20
116.8645608934079974
 30
0.0
 11
3402.8947323901538766
 21
116.5692853029079998
 31
0.0
  0
LINE
  5
1AE4C
  8
0
 10
3402.9078100895540047
 20
116.8645608934079974
 30
0.0
 11
3402.9078100895540047
 21
116.5692853029079998
 31
0.0
  0
LINE
  5
1AE4D
  8
0
 10
3402.9330970293540304
 20
116.8645608934079974
 30
0.0
 11
3402.9330970293540304
 21
116.5692853029079998
 31
0.0
  0
LINE
  5
1AE4E
  8
0
 10
3402.9482207000542076
 20
116.8645608934079974
 30
0.0
 11
3402.9482207000542076
 21
116.5692853029079998
 31
0.0
  0
LINE
  5
1AE4F
  8
0
 10
3402.9731131859539346
 20
116.8645608934079974
 30
0.0
 11
3402.9731131859539346
 21
116.5692853029079998
 31
0.0
  0
LINE
  5
1AE50
  8
0
 10
3402.990141622352894
 20
116.8645608934079974
 30
0.0
 11
3402.990141622352894
 21
116.5692853029079998
 31
0.0
  0
LINE
  5
1AE51
  8
0
 10
3403.0144072400539699
 20
116.8645608934079974
 30
0.0
 11
3403.0144072400539699
 21
116.5692853029079998
 31
0.0
  0
LINE
  5
1AE52
  8
0
 10
3403.0331814521541673
 20
116.8645608934079974
 30
0.0
 11
3403.0331814521541673
 21
116.5692853029079998
 31
0.0
  0
LINE
  5
1AE53
  8
0
 10
3403.0565936400539613
 20
116.8645608934079974
 30
0.0
 11
3403.0565936400539613
 21
116.5692853029079998
 31
0.0
  0
LINE
  5
1AE54
  8
0
 10
3403.0769383382539672
 20
116.8645608934079974
 30
0.0
 11
3403.0769383382539672
 21
116.5692853029079998
 31
0.0
  0
LINE
  5
1AE55
  8
0
 10
3403.0992785029529841
 20
116.8645608934079974
 30
0.0
 11
3403.0992785029529841
 21
116.5692853029079998
 31
0.0
  0
LINE
  5
1AE56
  8
0
 10
3403.1210037342530086
 20
116.8645608934079974
 30
0.0
 11
3403.1210037342530086
 21
116.5692853029079998
 31
0.0
  0
LINE
  5
1AE57
  8
0
 10
3403.1420632917538569
 20
116.8645608934079974
 30
0.0
 11
3403.1420632917538569
 21
116.5692853029079998
 31
0.0
  0
LINE
  5
1AE58
  8
0
 10
3403.1649662135541803
 20
116.8645608934079974
 30
0.0
 11
3403.1649662135541803
 21
116.5692853029079998
 31
0.0
  0
LINE
  5
1AE59
  8
0
 10
3403.1845485364538035
 20
116.8645608934079974
 30
0.0
 11
3403.1845485364538035
 21
116.5692853029079998
 31
0.0
  0
LINE
  5
1AE5A
  8
0
 10
3403.2084153101541233
 20
116.8645608934079974
 30
0.0
 11
3403.2084153101541233
 21
116.5692853029079998
 31
0.0
  0
LINE
  5
1AE5B
  8
0
 10
3403.2263375635538978
 20
116.8645608934079974
 30
0.0
 11
3403.2263375635538978
 21
116.5692853028079981
 31
0.0
  0
LINE
  5
1AE5C
  8
0
 10
3403.2509453516540816
 20
116.8645608934079974
 30
0.0
 11
3403.2509453516540816
 21
116.5692853029079998
 31
0.0
  0
LINE
  5
1AE5D
  8
0
 10
3403.2670402003541312
 20
116.8645608934079974
 30
0.0
 11
3403.2670402003541312
 21
116.5692853029079998
 31
0.0
  0
LINE
  5
1AE5E
  8
0
 10
3403.2921592465540925
 20
116.8645608934079974
 30
0.0
 11
3403.2921592465540925
 21
116.5692853029079998
 31
0.0
  0
LINE
  5
1AE5F
  8
0
 10
3403.3062764172541392
 20
116.8645608934079974
 30
0.0
 11
3403.3062764172541392
 21
116.5692853029079998
 31
0.0
  0
LINE
  5
1AE60
  8
0
 10
3403.3316721917540235
 20
116.8645608934079974
 30
0.0
 11
3403.3316721917540235
 21
116.5692853029079998
 31
0.0
  0
LINE
  5
1AE61
  8
0
 10
3403.3436798762541002
 20
116.8645608934079974
 30
0.0
 11
3403.3436798762541002
 21
116.5692853029079998
 31
0.0
  0
LINE
  5
1AE62
  8
0
 10
3403.3691152655537735
 20
116.8645608934079974
 30
0.0
 11
3403.3691152655537735
 21
116.5692853029079998
 31
0.0
  0
LINE
  5
1AE63
  8
0
 10
3403.3789013512541715
 20
116.8645608934079974
 30
0.0
 11
3403.3789013512541715
 21
116.5692853029079998
 31
0.0
  0
LINE
  5
1AE64
  8
0
 10
3403.4041388721529984
 20
116.8645608934079974
 30
0.0
 11
3403.4041388721529984
 21
116.5692853029079998
 31
0.0
  0
LINE
  5
1AE65
  8
0
 10
3403.4116119890531991
 20
116.8645608934079974
 30
0.0
 11
3403.4116119890531991
 21
116.5692853029079998
 31
0.0
  0
LINE
  5
1AE66
  8
0
 10
3403.4364160053542037
 20
116.8645608934079974
 30
0.0
 11
3403.4364160053542037
 21
116.5692853029079998
 31
0.0
  0
LINE
  5
1AE67
  8
0
 10
3403.441506379052953
 20
116.8645608934079974
 30
0.0
 11
3403.441506379052953
 21
116.5692853029079998
 31
0.0
  0
LINE
  5
1AE68
  8
0
 10
3403.4656453024540497
 20
116.8645608934079974
 30
0.0
 11
3403.4656453024540497
 21
116.5692853029079998
 31
0.0
  0
LINE
  5
1AE69
  8
0
 10
3403.4683054053539308
 20
116.8645608934079974
 30
0.0
 11
3403.4683054053539308
 21
116.5692853029079998
 31
0.0
  0
LINE
  5
1AE6A
  8
0
 10
3403.4917588528542183
 20
116.8645608934079974
 30
0.0
 11
3403.4917588528542183
 21
116.5692853029079998
 31
0.0
  0
LINE
  5
1AE6B
  8
0
 10
3403.5138997686540279
 20
116.8645608934079974
 30
0.0
 11
3403.5138997686540279
 21
116.5692853029079998
 31
0.0
  0
LINE
  5
1AE6C
  8
0
 10
3403.5324743989540366
 20
116.8645608934079974
 30
0.0
 11
3403.5324743989540366
 21
116.5692853029079998
 31
0.0
  0
LINE
  5
1AE6D
  8
0
 10
3403.5471043216530234
 20
116.8645608934079974
 30
0.0
 11
3403.5471043216530234
 21
116.5692853029079998
 31
0.0
  0
LINE
  5
1AE6E
  8
0
 10
3403.5576529412528544
 20
116.8645608934079974
 30
0.0
 11
3403.5576529412528544
 21
116.5692853029079998
 31
0.0
  0
LINE
  5
1AE6F
  8
0
 10
3403.5640217680538626
 20
116.8645608934079974
 30
0.0
 11
3403.5640217680538626
 21
116.5692853029079998
 31
0.0
  0
LINE
  5
1AE70
  8
0
 10
3402.854075437353913
 20
117.1007813659080057
 30
0.0
 11
3402.854075437353913
 21
117.337001838307998
 31
0.0
  0
LINE
  5
1AE71
  8
0
 10
3403.3658864609528791
 20
117.1007813659080057
 30
0.0
 11
3403.3658864609528791
 21
117.337001838307998
 31
0.0
  0
LINE
  5
1AE72
  8
0
 10
3402.8343903979530296
 20
116.4590490824080007
 30
0.0
 11
3402.8381473321528574
 21
111.5313556168079998
 31
0.0
  0
LINE
  5
1AE73
  8
0
 10
3403.3932394065818698
 20
111.3279974693611933
 30
0.0
 11
3403.385571500352853
 21
116.4590490824080007
 31
0.0
  0
LINE
  5
1AE74
  8
0
 10
3402.0469888231541518
 20
115.7110175874843065
 30
0.0
 11
3402.0469888231541518
 21
113.7903018917725007
 31
0.0
  0
LINE
  5
1AE75
  8
0
 10
3401.4963809165979001
 20
115.7110175874843065
 30
0.0
 11
3401.495972930923017
 21
113.8790524527154986
 31
0.0
  0
ARC
  5
1AE76
  8
0
 10
4016.8432006134321455
 20
113.7393043118116935
 30
0.0
 40
615.3472435512273933
 50
179.9869878693345129
 51
180.0130121306654871
  0
ARC
  5
1AE77
  8
0
 10
3399.7223341822859766
 20
113.5991533695194988
 30
0.0
 40
1.773638794375662
 50
327.5355810246265946
 51
0.0130121306654821
  0
ARC
  5
1AE78
  8
0
 10
3398.5209492336011863
 20
114.3634715417000933
 30
0.0
 40
3.1975447123537362
 50
309.0973144135252824
 51
327.5355810246265946
  0
ARC
  5
1AE79
  8
0
 10
3388.517585614195923
 20
129.0480024202068137
 30
0.0
 40
20.9559293585569399
 50
298.3518936580413197
 51
305.0001138751968028
  0
ARC
  5
1AE7A
  8
0
 10
3399.4423836651399142
 20
108.9460765232261963
 30
0.0
 40
1.923960478787837
 50
120.3842083984590943
 51
148.1907967538701882
  0
ARC
  5
1AE7B
  8
0
 10
3398.634515360955902
 20
109.5624721697027013
 30
0.0
 40
0.9177769632771436
 50
154.3203120326209046
 51
216.5782658617862069
  0
ARC
  5
1AE7C
  8
0
 10
3400.7241233725321763
 20
111.1131225348199933
 30
0.0
 40
3.5198872985400951
 50
216.5782658617862069
 51
247.5988333225851932
  0
ARC
  5
1AE7D
  8
0
 10
3401.8487203931149452
 20
113.0884069469779973
 30
0.0
 40
5.7818113072927817
 50
244.7538555367617903
 51
266.6981148547483258
  0
ARC
  5
1AE7E
  8
0
 10
3401.4940839729638355
 20
109.1262640600689053
 30
0.0
 40
1.8101993021850029
 50
270.6843931555869744
 51
314.4223646952191871
  0
ARC
  5
1AE7F
  8
0
 10
3400.8726505627041661
 20
109.3644081148036946
 30
0.0
 40
2.4310975125469301
 50
320.9682022022927868
 51
349.1711996648172089
  0
ARC
  5
1AE80
  8
0
 10
3392.7170703780529948
 20
110.6998954525378025
 30
0.0
 40
10.6946293656801501
 50
350.3527252188566194
 51
3.366953092496618
  0
ARC
  5
1AE81
  8
0
 10
3381.6303447179320756
 20
110.7671894514841995
 30
0.0
 40
21.2215654853313715
 50
357.6378553674168757
 51
2.0636066462290481
  0
ARC
  5
1AE82
  8
0
 10
3398.1460204645518388
 20
110.0859083328932968
 30
0.0
 40
4.6918440923358906
 50
342.7054106957622253
 51
357.6378553674168757
  0
ARC
  5
1AE83
  8
0
 10
3401.3535505181248482
 20
109.0872062475630031
 30
0.0
 40
1.3324312121118871
 50
313.6734707182059765
 51
342.7054106957637032
  0
ARC
  5
1AE84
  8
0
 10
3401.5955820808690078
 20
108.9188036705226068
 30
0.0
 40
1.0451470808700329
 50
271.7269081226177718
 51
310.4500474992250929
  0
ARC
  5
1AE85
  8
0
 10
3401.531576261011196
 20
111.7303875927790955
 30
0.0
 40
3.8574387110377439
 50
247.2296384766603978
 51
271.4186673161178192
  0
ARC
  5
1AE86
  8
0
 10
3401.5370824930218987
 20
112.3232406478038996
 30
0.0
 40
4.411927395525117
 50
228.7078584376793913
 51
250.1448208891291927
  0
ARC
  5
1AE87
  8
0
 10
3399.6012228357640197
 20
110.1190882124717945
 30
0.0
 40
1.478356095764334
 50
211.358646197874009
 51
228.7078584376793913
  0
ARC
  5
1AE88
  8
0
 10
3398.6942954333630951
 20
109.5663954424356064
 30
0.0
 40
0.416288955101223
 50
155.4642511828469083
 51
211.358646197874009
  0
ARC
  5
1AE89
  8
0
 10
3399.3010927146128779
 20
109.0404837597921954
 30
0.0
 40
1.2080963510187051
 50
124.6365689881587997
 51
144.6609092860728083
  0
ARC
  5
1AE8A
  8
0
 10
3404.4627258459941004
 20
101.4699511511563941
 30
0.0
 40
10.3707954757359104
 50
117.2788594462229952
 51
124.327184961002402
  0
ARC
  5
1AE8B
  8
0
 10
3396.3692484463808796
 20
117.0779196683526067
 30
0.0
 40
7.2108809984372018
 50
297.5959182689293812
 51
309.4520012563830846
  0
ARC
  5
1AE8C
  8
0
 10
3398.4805694446909001
 20
114.3920499271742983
 30
0.0
 40
3.7961365396528639
 50
310.6054214467841916
 51
328.8053525578209246
  0
ARC
  5
1AE8D
  8
0
 10
3399.0252295337481883
 20
113.8603275499482947
 30
0.0
 40
3.0597032089214111
 50
332.0417325518682787
 51
347.0095865223008786
  0
ARC
  5
1AE8E
  8
0
 10
3399.7748259210889046
 20
113.5988269506541002
 30
0.0
 40
2.272148323836598
 50
349.1864992615901997
 51
357.938085668404824
  0
ARC
  5
1AE8F
  8
0
 10
3389.4795747518369353
 20
113.7220231768196044
 30
0.0
 40
12.5675995489530106
 50
359.065604508294598
 51
0.3112846990069329
  0
ENDSEC
  0
EOF
