  0
SECTION
  2
HEADER
  9
$ACADVER
  1
AC1009
  9
$INSBASE
 10
3374.6894192461832063
 20
134.0096468302346864
 30
0.0
  9
$EXTMIN
 10
3370.5391941540651715
 20
107.3112520009034938
 30
-0.0015258207003583
  9
$EXTMAX
 10
3378.7879324552409344
 20
167.4595175072651045
 30
0.0000000349246037
  9
$LIMMIN
 10
0.0
 20
0.0
  9
$LIMMAX
 10
11.6929133858000007
 20
8.2677165353999982
  9
$ORTHOMODE
 70
     1
  9
$REGENMODE
 70
     1
  9
$FILLMODE
 70
     1
  9
$QTEXTMODE
 70
     0
  9
$MIRRTEXT
 70
     0
  9
$DRAGMODE
 70
     2
  9
$LTSCALE
 40
0.6431102362
  9
$OSMODE
 70
  4095
  9
$ATTMODE
 70
     1
  9
$TEXTSIZE
 40
0.2
  9
$TRACEWID
 40
0.05
  9
$TEXTSTYLE
  7
STANDARD
  9
$CLAYER
  8
0
  9
$CELTYPE
  6
BYLAYER
  9
$CECOLOR
 62
   256
  9
$DIMSCALE
 40
1.0
  9
$DIMASZ
 40
0.1875
  9
$DIMEXO
 40
0.0625
  9
$DIMDLI
 40
0.4443307087
  9
$DIMRND
 40
0.0
  9
$DIMDLE
 40
0.0
  9
$DIMEXE
 40
0.125
  9
$DIMTP
 40
0.01
  9
$DIMTM
 40
0.01
  9
$DIMTXT
 40
2.0
  9
$DIMCEN
 40
0.1052362205
  9
$DIMTSZ
 40
0.0
  9
$DIMTOL
 70
     1
  9
$DIMLIM
 70
     0
  9
$DIMTIH
 70
     1
  9
$DIMTOH
 70
     1
  9
$DIMSE1
 70
     0
  9
$DIMSE2
 70
     0
  9
$DIMTAD
 70
     0
  9
$DIMZIN
 70
     0
  9
$DIMBLK
  1

  9
$DIMASO
 70
     1
  9
$DIMSHO
 70
     1
  9
$DIMPOST
  1
\X
  9
$DIMAPOST
  1

  9
$DIMALT
 70
     1
  9
$DIMALTD
 70
     2
  9
$DIMALTF
 40
25.3999999999999986
  9
$DIMLFAC
 40
1.0
  9
$DIMTOFL
 70
     0
  9
$DIMTVP
 40
0.0
  9
$DIMTIX
 70
     0
  9
$DIMSOXD
 70
     0
  9
$DIMSAH
 70
     0
  9
$DIMBLK1
  1

  9
$DIMBLK2
  1

  9
$DIMSTYLE
  2
STANDARD
  9
$DIMCLRD
 70
     0
  9
$DIMCLRE
 70
     0
  9
$DIMCLRT
 70
     0
  9
$DIMTFAC
 40
1.0
  9
$DIMGAP
 40
0.09
  9
$LUNITS
 70
     2
  9
$LUPREC
 70
     4
  9
$SKETCHINC
 40
0.1
  9
$FILLETRAD
 40
0.0
  9
$AUNITS
 70
     0
  9
$AUPREC
 70
     0
  9
$MENU
  1
.
  9
$ELEVATION
 40
0.0
  9
$PELEVATION
 40
0.0
  9
$THICKNESS
 40
0.0
  9
$LIMCHECK
 70
     0
  9
$BLIPMODE
 70
     0
  9
$CHAMFERA
 40
0.0
  9
$CHAMFERB
 40
0.0
  9
$SKPOLY
 70
     0
  9
$TDCREATE
 40
2458060.468368056230247
  9
$TDUPDATE
 40
2459550.4084374997764826
  9
$TDINDWG
 40
0.3838149306
  9
$TDUSRTIMER
 40
0.3838149306
  9
$USRTIMER
 70
     1
  9
$ANGBASE
 50
0.0
  9
$ANGDIR
 70
     0
  9
$PDMODE
 70
     0
  9
$PDSIZE
 40
0.3125
  9
$PLINEWID
 40
0.0
  9
$COORDS
 70
     1
  9
$SPLFRAME
 70
     0
  9
$SPLINETYPE
 70
     6
  9
$SPLINESEGS
 70
     8
  9
$ATTDIA
 70
     1
  9
$ATTREQ
 70
     1
  9
$HANDLING
 70
     1
  9
$HANDSEED
  5
1A8A5
  9
$SURFTAB1
 70
     6
  9
$SURFTAB2
 70
     6
  9
$SURFTYPE
 70
     6
  9
$SURFU
 70
     6
  9
$SURFV
 70
     6
  9
$UCSNAME
  2

  9
$UCSORG
 10
0.0
 20
0.0
 30
0.0
  9
$UCSXDIR
 10
1.0
 20
0.0
 30
0.0
  9
$UCSYDIR
 10
0.0
 20
1.0
 30
0.0
  9
$PUCSNAME
  2

  9
$PUCSORG
 10
0.0
 20
0.0
 30
0.0
  9
$PUCSXDIR
 10
1.0
 20
0.0
 30
0.0
  9
$PUCSYDIR
 10
0.0
 20
1.0
 30
0.0
  9
$USERI1
 70
     0
  9
$USERI2
 70
     0
  9
$USERI3
 70
     0
  9
$USERI4
 70
     0
  9
$USERI5
 70
     0
  9
$USERR1
 40
0.0
  9
$USERR2
 40
0.0
  9
$USERR3
 40
0.0
  9
$USERR4
 40
0.0
  9
$USERR5
 40
0.0
  9
$WORLDVIEW
 70
     1
  9
$SHADEDGE
 70
     3
  9
$SHADEDIF
 70
    70
  9
$TILEMODE
 70
     1
  9
$MAXACTVP
 70
    64
  9
$PLIMCHECK
 70
     0
  9
$PEXTMIN
 10
1.0000000000000000E+20
 20
1.0000000000000000E+20
 30
1.0000000000000000E+20
  9
$PEXTMAX
 10
-1.0000000000000000E+20
 20
-1.0000000000000000E+20
 30
-1.0000000000000000E+20
  9
$PLIMMIN
 10
0.0
 20
0.0
  9
$PLIMMAX
 10
12.0
 20
9.0
  9
$UNITMODE
 70
     0
  9
$VISRETAIN
 70
     1
  9
$PLINEGEN
 70
     0
  9
$PSLTSCALE
 70
     1
  0
ENDSEC
  0
SECTION
  2
TABLES
  0
TABLE
  2
VPORT
 70
     1
  0
VPORT
  2
*ACTIVE
 70
     0
 10
0.0
 20
0.0
 11
1.0
 21
1.0
 12
-428.8805040781599018
 22
11.3901225573344096
 13
0.0
 23
0.0
 14
1.0
 24
1.0
 15
0.0
 25
0.0
 16
0.0
 26
0.0
 36
17.1152628219792007
 17
3803.5440673828129547
 27
125.9952621967499056
 37
0.0
 40
60.5905321644965582
 41
2.344785276073619
 42
50.0
 43
0.0
 44
0.0
 50
0.0
 51
0.0
 71
     0
 72
   100
 73
     1
 74
     1
 75
     0
 76
     0
 77
     0
 78
     0
  0
ENDTAB
  0
TABLE
  2
LTYPE
 70
     2
  0
LTYPE
  2
CONTINUOUS
 70
     0
  3
Solid line
 72
    65
 73
     0
 40
0.0
  0
LTYPE
  2
PHANTOM2
 70
     0
  3
___ _ _ ___ _ _ ___ _ _ ___ _ _
 72
    65
 73
     6
 40
1.25
 49
0.625
 49
-0.125
 49
0.125
 49
-0.125
 49
0.125
 49
-0.125
  0
ENDTAB
  0
TABLE
  2
LAYER
 70
     2
  0
LAYER
  2
0
 70
     0
 62
   255
  6
CONTINUOUS
  0
LAYER
  2
DEFPOINTS
 70
     0
 62
     7
  6
CONTINUOUS
  0
ENDTAB
  0
TABLE
  2
STYLE
 70
     1
  0
STYLE
  2
STANDARD
 70
     0
 40
0.0
 41
0.8
 50
0.0
 71
     0
 42
0.2
  3
txt
  4

  0
ENDTAB
  0
TABLE
  2
VIEW
 70
     0
  0
ENDTAB
  0
TABLE
  2
UCS
 70
     0
  0
ENDTAB
  0
TABLE
  2
APPID
 70
     9
  0
APPID
  2
ACAD
 70
     0
  0
APPID
  2
ACAD_MLEADERVER
 70
     0
  0
APPID
  2
ACAD_EXEMPT_FROM_CAD_STANDARDS
 70
     0
  0
APPID
  2
ACAD_NAV_VCDISPLAY
 70
     0
  0
APPID
  2
ACAECLAYERSTANDARD
 70
     0
  0
APPID
  2
ACCMTRANSPARENCY
 70
     0
  0
APPID
  2
ACAD_DSTYLE_DIMJAG
 70
     0
  0
APPID
  2
ACAD_DSTYLE_DIMTALN
 70
     0
  0
APPID
  2
ACDBATTR
 70
     0
  0
ENDTAB
  0
TABLE
  2
DIMSTYLE
 70
     1
  0
DIMSTYLE
  2
STANDARD
 70
     0
  3

  4

  5

  6

  7

 40
1.0
 41
0.1875
 42
0.0625
 43
0.38
 44
0.125
 45
0.0
 46
0.0
 47
0.01
 48
0.01
140
0.15625
141
0.09
142
0.0
143
25.3999999999999986
144
1.0
145
0.0
146
1.0
147
0.09
 71
     1
 72
     0
 73
     1
 74
     1
 75
     0
 76
     0
 77
     0
 78
     4
170
     0
171
     2
172
     0
173
     0
174
     0
175
     0
176
     0
177
     0
178
     0
  0
ENDTAB
  0
ENDSEC
  0
SECTION
  2
BLOCKS
  0
BLOCK
  8
0
  2
$MODEL_SPACE
 70
     0
 10
0.0
 20
0.0
 30
0.0
  3
$MODEL_SPACE
  1

  0
ENDBLK
  5
21
  8
0
  0
BLOCK
 67
     1
  8
0
  2
$PAPER_SPACE
 70
     0
 10
0.0
 20
0.0
 30
0.0
  3
$PAPER_SPACE
  1

  0
ENDBLK
  5
1D
 67
     1
  8
0
  0
BLOCK
  8
0
  2
_FILLED
 70
     0
 10
0.0
 20
0.0
 30
0.0
  3
_FILLED
  1

  0
SOLID
  5
19486
  8
0
  6
BYBLOCK
 62
     0
 10
0.0
 20
0.0
 30
0.0
 11
-1.0
 21
0.1666666667
 31
0.0
 12
-1.0
 22
-0.1666666667
 32
0.0
 13
-1.0
 23
-0.1666666667
 33
0.0
  0
ENDBLK
  5
19487
  8
0
  6
BYBLOCK
 62
     0
  0
ENDSEC
  0
SECTION
  2
ENTITIES
  0
ATTDEF
  5
1A280
  8
DEFPOINTS
 10
3374.6898012511351226
 20
134.0141915156578136
 30
0.0
 40
0.001
  1
K-12967T
  3

  2
MODELNUMBER
 70
     0
1001
ACDBATTR
1070
     0
1070
     1
  0
ATTDEF
  5
1A281
  8
DEFPOINTS
 10
3374.6898012511351226
 20
134.0125248489912053
 30
0.0
 40
0.001
  1
KATALYST
  3

  2
TRADENAME
 70
     0
1001
ACDBATTR
1070
     0
1070
     1
  0
ATTDEF
  5
1A282
  8
DEFPOINTS
 10
3374.6898012511351226
 20
134.0108581823245117
 30
0.0
 40
0.001
  1
SHOWER COLUMN
  3

  2
PRODUCT
 70
     0
1001
ACDBATTR
1070
     0
1070
     1
  0
LINE
  5
1A5BA
  8
0
 10
3374.4931348722338953
 20
157.6526925850589862
 30
0.0
 11
3374.4931348722589064
 21
158.0203065804940934
 31
0.0
  0
LINE
  5
1A5BB
  8
0
 10
3374.1933562540330058
 20
158.1695979190940875
 30
0.0
 11
3374.1933562541448737
 21
157.6527462312940884
 31
0.0
  0
LINE
  5
1A5BC
  8
0
 10
3374.8896406280327938
 20
157.6526925850589862
 30
0.0
 11
3374.889640627908193
 21
158.0203065804940934
 31
0.0
  0
LINE
  5
1A5BD
  8
0
 10
3375.1854822381837948
 20
158.1695979190940875
 30
0.0
 11
3375.1854822383211285
 21
157.6527462312940884
 31
0.0
  0
ARC
  5
1A5BE
  8
0
 10
3375.165482238183813
 20
158.1695979190940875
 30
0.0
 40
0.02
 50
0.0000000000032569
 51
90.0
  0
LINE
  5
1A5BF
  8
0
 10
3374.4931348722589064
 20
158.0203065804940934
 30
0.0
 11
3374.889640627908193
 21
158.0203065804940934
 31
0.0
  0
LINE
  5
1A5C0
  8
0
 10
3374.8932806160341897
 20
157.0272283060940879
 30
0.0
 11
3374.4855578763331323
 21
157.0272283060940879
 31
0.0
  0
LINE
  5
1A5C1
  8
0
 10
3375.4079204865470274
 20
157.5098661013441017
 30
0.0
 11
3373.9709180057197955
 21
157.5098661013441017
 31
0.0
  0
LINE
  5
1A5C2
  8
0
 10
3375.165482238183813
 20
158.1895979190940977
 30
0.0
 11
3374.2153247579080926
 21
158.1895979190940977
 31
0.0
  0
ARC
  5
1A5C3
  8
0
 10
3374.2168944473141892
 20
158.1658083536418076
 30
0.0
 40
0.0238412950411187
 50
93.7750332355846155
 51
170.8540647022294081
  0
ARC
  5
1A5C4
  8
0
 10
3374.6913877500078343
 20
157.5655821709941051
 30
0.0
 40
0.4960629920999916
 50
66.4435356924754075
 51
113.5564642874276018
  0
ARC
  5
1A5C5
  8
0
 10
3374.6103200507550355
 20
157.6599238187448009
 30
0.0
 40
0.117408078110879
 50
183.5311161907391977
 51
241.7008092597239965
  0
ARC
  5
1A5C6
  8
0
 10
3374.6930758521480129
 20
157.8136232214507118
 30
0.0
 40
0.2919704711294322
 50
241.7008092597239965
 51
269.6687279390861249
  0
ARC
  5
1A5C7
  8
0
 10
3374.693026047983949
 20
157.8050093451126088
 30
0.0
 40
0.2833564508123234
 50
269.6687279390861249
 51
296.1509508590954738
  0
ARC
  5
1A5C8
  8
0
 10
3374.7607547894199342
 20
157.667068402754694
 30
0.0
 40
0.1296850937053878
 50
296.1509508590954738
 51
353.6355832994353818
  0
LINE
  5
1A5C9
  8
0
 10
3373.9709180057197955
 20
157.5098661013441017
 30
0.0
 11
3373.9709180057197955
 21
156.4366771249941053
 31
0.0
  0
LINE
  5
1A5CA
  8
0
 10
3375.4079204865470274
 20
157.5098661013441017
 30
0.0
 11
3375.4079204865470274
 21
156.4366771249941053
 31
0.0
  0
LINE
  5
1A5CB
  8
0
 10
3374.4855578763331323
 20
157.5098661013441017
 30
0.0
 11
3374.4855578763331323
 21
157.0272283060940879
 31
0.0
  0
LINE
  5
1A5CC
  8
0
 10
3374.8932806160341897
 20
157.5098661013441017
 30
0.0
 11
3374.8932806160341897
 21
157.0272283060940879
 31
0.0
  0
ARC
  5
1A5CD
  8
0
 10
3374.4402845686790897
 20
157.6619745402620083
 30
0.0
 40
0.247100696599006
 50
182.1402859284706039
 51
217.9935442900473106
  0
ARC
  5
1A5CE
  8
0
 10
3374.9571357815279953
 20
157.6527462313410126
 30
0.0
 40
0.2283464567929537
 50
321.2652090696532809
 51
359.9999999882360839
  0
LINE
  5
1A5CF
  8
0
 10
3374.2760334193339986
 20
158.1895979190940977
 30
0.0
 11
3374.276033400733013
 21
158.2320861001940955
 31
0.0
  0
LINE
  5
1A5D0
  8
0
 10
3374.276033400733013
 20
158.2320861001940955
 30
0.0
 11
3374.3252460178327965
 21
158.2812987159940974
 31
0.0
  0
LINE
  5
1A5D1
  8
0
 10
3374.3252460178327965
 20
158.2812987159940974
 30
0.0
 11
3374.3252460178327965
 21
158.3994089426940945
 31
0.0
  0
LINE
  5
1A5D2
  8
0
 10
3374.295718458733063
 20
158.2517711576741135
 30
0.0
 11
3374.295718458733063
 21
167.0608262655941019
 31
0.0
  0
ARC
  5
1A5D3
  8
0
 10
3374.6894192468339497
 20
167.0608262658844012
 30
0.0
 40
0.3937007866990534
 50
359.9999999577466951
 51
90.0000000947363645
  0
ARC
  5
1A5D4
  8
0
 10
3374.6894192454328731
 20
167.0608262658844012
 30
0.0
 40
0.3937007866990498
 50
89.9999998907248937
 51
180.0000000422531912
  0
LINE
  5
1A5D5
  8
0
 10
3375.0831200335328504
 20
167.0608262655941019
 30
0.0
 11
3375.0831200335328504
 21
158.2517711577141029
 31
0.0
  0
LINE
  5
1A5D6
  8
0
 10
3374.295718458733063
 20
158.3994089426940945
 30
0.0
 11
3375.0831200335328504
 21
158.3994089426940945
 31
0.0
  0
LINE
  5
1A5D7
  8
0
 10
3375.0535924745340708
 20
158.3994089426940945
 30
0.0
 11
3375.0535924745340708
 21
158.2812987159940974
 31
0.0
  0
LINE
  5
1A5D8
  8
0
 10
3375.0535924745340708
 20
158.2812987159940974
 30
0.0
 11
3375.1028050915338099
 21
158.2320861001940955
 31
0.0
  0
LINE
  5
1A5D9
  8
0
 10
3375.1028050915338099
 20
158.2320861001940955
 30
0.0
 11
3375.1028050915338099
 21
158.1895979190940977
 31
0.0
  0
LINE
  5
1A5DA
  8
0
 10
3375.0535924745340708
 20
158.2812987159940974
 30
0.0
 11
3374.3252460178327965
 21
158.2812987159940974
 31
0.0
  0
LINE
  5
1A5DB
  8
0
  6
CONTINUOUS
 10
3372.8390255453341524
 20
146.4112194002441072
 30
0.0
 11
3372.8390255453341524
 21
144.8757874616441086
 31
0.0
  0
LINE
  5
1A5DC
  8
0
  6
CONTINUOUS
 10
3373.4216952127339937
 20
146.5970865873441085
 30
0.0
 11
3373.3771086563237986
 21
146.4182596773507044
 31
0.0
  0
LINE
  5
1A5DD
  8
0
  6
CONTINUOUS
 10
3373.9690723216749575
 20
146.4241878985345124
 30
0.0
 11
3374.0103185679599846
 21
146.5922539009550007
 31
0.0
  0
LINE
  5
1A5DE
  8
0
  6
CONTINUOUS
 10
3374.1067420807339658
 20
146.470275084444097
 30
0.0
 11
3374.1067420807339658
 21
146.4309050058629111
 31
0.0
  0
LINE
  5
1A5DF
  8
0
  6
CONTINUOUS
 10
3374.1067420807339658
 20
144.8561018561254059
 30
0.0
 11
3374.1067419948349198
 21
144.8167317772798128
 31
0.0
  0
LINE
  5
1A5E0
  8
0
  6
CONTINUOUS
 10
3375.2720965164389781
 20
144.816731777271599
 30
0.0
 11
3375.2720964114328126
 21
144.8561018561252922
 31
0.0
  0
LINE
  5
1A5E1
  8
0
  6
CONTINUOUS
 10
3375.2720964114328126
 20
146.4309050058629111
 30
0.0
 11
3375.2720964114328126
 21
146.470275084444097
 31
0.0
  0
LINE
  5
1A5E2
  8
0
  6
CONTINUOUS
 10
3375.5161908996328748
 20
144.8561018561252922
 30
0.0
 11
3375.5161908996328748
 21
146.4309050058629111
 31
0.0
  0
LINE
  5
1A5E3
  8
0
  6
CONTINUOUS
 10
3375.5594192461330749
 20
146.4309050058629111
 30
0.0
 11
3375.5594192461330749
 21
144.8561018561252922
 31
0.0
  0
LINE
  5
1A5E4
  8
0
  6
CONTINUOUS
 10
3375.2524110800331982
 20
144.797046738044088
 30
0.0
 11
3375.2051655251329976
 21
144.797046738044088
 31
0.0
  0
LINE
  5
1A5E5
  8
0
  6
CONTINUOUS
 10
3374.1736729679328164
 20
144.797046738044088
 30
0.0
 11
3374.1264274122331699
 21
144.797046738044088
 31
0.0
  0
LINE
  5
1A5E6
  8
0
  6
CONTINUOUS
 10
3375.5161908996328748
 20
144.9624010687441
 30
0.0
 11
3375.5594192461330749
 21
144.9624010687441
 31
0.0
  0
LINE
  5
1A5E7
  8
0
  6
CONTINUOUS
 10
3374.1856158272330504
 20
146.4860260528440961
 30
0.0
 11
3374.1840790085338995
 21
146.4869831260440947
 31
0.0
  0
LINE
  5
1A5E8
  8
0
  6
CONTINUOUS
 10
3375.5161908996328748
 20
146.3246057931440873
 30
0.0
 11
3375.5594192461330749
 21
146.3246057931440873
 31
0.0
  0
LINE
  5
1A5E9
  8
0
  6
CONTINUOUS
 10
3375.2524110799340633
 20
146.4899601238440994
 30
0.0
 11
3375.2051655242339621
 21
146.4899601238440994
 31
0.0
  0
LINE
  5
1A5EA
  8
0
  6
CONTINUOUS
 10
3374.1736729670337809
 20
146.4899601238440994
 30
0.0
 11
3374.1264274122331699
 21
146.4899601238440994
 31
0.0
  0
LINE
  5
1A5EB
  8
0
  6
CONTINUOUS
 10
3373.9907045721329268
 20
146.612007367944102
 30
0.0
 11
3373.4407957207331492
 21
146.612007367944102
 31
0.0
  0
ARC
  5
1A5EC
  8
0
  6
CONTINUOUS
 10
3342.3769379524610486
 20
145.4137352303486921
 30
0.0
 40
34.7918616885108491
 50
0.0835413352256669
 51
1.624204641761138
  0
ARC
  5
1A5ED
  8
0
  6
CONTINUOUS
 10
3375.5555609784328226
 20
146.2852357143441111
 30
0.0
 40
0.0393700787
 50
84.3731095002988951
 51
90.0
  0
ARC
  5
1A5EE
  8
0
  6
CONTINUOUS
 10
3375.2525816043348641
 20
146.4704453192738072
 30
0.0
 40
0.0195155495948701
 50
359.5002005493961974
 51
90.5006496380633791
  0
ARC
  5
1A5EF
  8
0
  6
CONTINUOUS
 10
3374.1264348987110679
 20
144.8167396420674038
 30
0.0
 40
0.019692905446315
 50
180.0228823088854142
 51
269.9782183683443009
  0
ARC
  5
1A5F0
  8
0
  6
CONTINUOUS
 10
3374.1264347654350786
 20
146.4702674390310051
 30
0.0
 40
0.019692686185875
 50
90.0213941071104244
 51
179.9777557055039097
  0
ARC
  5
1A5F1
  8
0
  6
CONTINUOUS
 10
3375.2524047293240983
 20
144.8167385252909014
 30
0.0
 40
0.0196917882708542
 50
270.0184782015119254
 51
359.9803657734727267
  0
ARC
  5
1A5F2
  8
0
  6
CONTINUOUS
 10
3372.858722019626839
 20
144.8757916316544083
 30
0.0
 40
0.0196964747345199
 50
180.012130292203608
 51
268.5055983574292213
  0
ARC
  5
1A5F3
  8
0
  6
CONTINUOUS
 10
3372.8587105899009657
 20
146.4112199641924974
 30
0.0
 40
0.0196850445751635
 50
90.0311260057787592
 51
180.0016414420742876
  0
ARC
  5
1A5F4
  8
0
  6
CONTINUOUS
 10
3376.7494431934542263
 20
156.6583089331614929
 30
0.0
 40
11.80089188575284
 50
270.7330315137127172
 51
271.8730675556085998
  0
ARC
  5
1A5F5
  8
0
 10
3376.4100452110969854
 20
146.4671577232616073
 30
0.0
 40
1.6111359062264139
 50
270.5711161104489975
 51
274.0858309152803258
  0
ARC
  5
1A5F6
  8
0
 10
3376.6943885700229657
 20
142.5038639678564891
 30
0.0
 40
2.3623448819629438
 50
86.9605913047396939
 51
94.1157338421761125
  0
ARC
  5
1A5F7
  8
0
 10
3375.839862957152036
 20
126.7545893305710933
 30
0.0
 40
18.1347835717810213
 50
86.7075860680755426
 51
86.9029229214659722
  0
ARC
  5
1A5F8
  8
0
 10
3377.1855800844118676
 20
150.1655599345372991
 30
0.0
 40
5.3148326914301531
 50
266.7187899677094265
 51
266.9243692564053845
  0
ARC
  5
1A5F9
  8
0
 10
3373.6657822910829054
 20
147.1510996685354939
 30
0.0
 40
0.7876455827479462
 50
246.115548985495991
 51
293.884451014504009
  0
ARC
  5
1A5FA
  8
0
 10
3373.4408931762768589
 20
146.5921966751857042
 30
0.0
 40
0.0198109324654052
 50
90.2818551769928348
 51
165.7100537213331108
  0
ARC
  5
1A5FB
  8
0
 10
3373.9897781169029258
 20
146.5914729658342139
 30
0.0
 40
0.0205552910294577
 50
2.1773010810035549
 51
87.4167253080906477
  0
ARC
  5
1A5FC
  8
0
 10
3375.2054292768921187
 20
144.817644240751207
 30
0.0
 40
0.0205991913133042
 50
238.8037209814038135
 51
269.2663655898824118
  0
ARC
  5
1A5FD
  8
0
 10
3374.1734092113888437
 20
144.8176442536120874
 30
0.0
 40
0.0205992042343559
 50
270.7336472616526066
 51
301.1962650128916152
  0
ARC
  5
1A5FE
  8
0
 10
3374.9054684133720912
 20
143.6867483930518006
 30
0.0
 40
1.326568755318531
 50
108.216699489830205
 51
122.9427657170039936
  0
ARC
  5
1A5FF
  8
0
 10
3374.403538325757836
 20
143.5639335067548075
 30
0.0
 40
1.4676341420909
 50
57.3766989269742922
 51
67.1705387683790036
  0
ARC
  5
1A600
  8
0
 10
3374.6924085395048678
 20
144.3023704267114056
 30
0.0
 40
0.6752690961265977
 50
65.4508533771881247
 51
107.3740509861255958
  0
ARC
  5
1A601
  8
0
 10
3375.1679762358908192
 20
143.3471474981934932
 30
0.0
 40
1.8447658893192089
 50
115.5191617840606995
 51
125.1183786962565989
  0
ARC
  5
1A602
  8
0
 10
3374.177458870125065
 20
143.2962819878119092
 30
0.0
 40
1.9055889820280929
 50
54.9399058729639478
 51
63.2204543856528787
  0
ARC
  5
1A603
  8
0
 10
3374.6912411325702124
 20
144.3904384777247003
 30
0.0
 40
0.6981385291704829
 50
60.4039743271017571
 51
117.0981970409287953
  0
ARC
  5
1A604
  8
0
 10
3375.2681892264517955
 20
148.1004507966760002
 30
0.0
 40
2.0338000442324118
 50
235.1749561133962061
 51
242.6833035087809947
  0
ARC
  5
1A605
  8
0
 10
3374.1813430726551815
 20
147.9840738809103016
 30
0.0
 40
1.897913696792304
 50
296.8023904169834282
 51
305.079449726686903
  0
ARC
  5
1A606
  8
0
 10
3374.758855629188929
 20
147.1124594686224896
 30
0.0
 40
0.9222489051167313
 50
242.6296832467697868
 51
257.4595015863170033
  0
ARC
  5
1A607
  8
0
 10
3374.5938040011192243
 20
147.1732136636910866
 30
0.0
 40
0.9881851047418559
 50
286.411546361778278
 51
296.6562693098417185
  0
ARC
  5
1A608
  8
0
 10
3374.6900936185279534
 20
146.836867357804806
 30
0.0
 40
0.6383429267478848
 50
258.1131558279645901
 51
286.6505730029293204
  0
ARC
  5
1A609
  8
0
 10
3374.173409215162792
 20
146.469362620981201
 30
0.0
 40
0.0205991914705302
 50
58.803720558955078
 51
89.2663652856640937
  0
ARC
  5
1A60A
  8
0
 10
3375.205427811545178
 20
146.4693677449033089
 30
0.0
 40
0.0205940492637517
 50
90.7297429506284061
 51
121.2001706330124051
  0
ARC
  5
1A60B
  8
0
 10
3375.1251722258621157
 20
147.9893662142989115
 30
0.0
 40
1.7727938027998831
 50
237.9954719486877934
 51
243.6489972728763007
  0
ARC
  5
1A60C
  8
0
 10
3374.2210250389598514
 20
148.0421308932050124
 30
0.0
 40
1.834841504673234
 50
298.2235835426910739
 51
302.052175936340177
  0
ARC
  5
1A60D
  8
0
 10
3374.7624602610908369
 20
147.2483437372582955
 30
0.0
 40
0.947781122984039
 50
243.4136087229674104
 51
256.4232709796444283
  0
ARC
  5
1A60E
  8
0
 10
3374.5700685903320846
 20
147.3708197513219034
 30
0.0
 40
1.078321594820411
 50
285.7932177040573265
 51
298.7510394338135029
  0
ARC
  5
1A60F
  8
0
 10
3374.6898740330789224
 20
146.9548034761043027
 30
0.0
 40
0.6454061127108643
 50
256.5697599588293087
 51
285.6105913023059202
  0
ARC
  5
1A610
  8
0
 10
3377.1331801981418721
 20
144.8817831786847989
 30
0.0
 40
0.0181689623922502
 50
276.2549306105876212
 51
311.0706378388459257
  0
ARC
  5
1A611
  8
0
 10
3377.1236442336380605
 20
144.8906418049361093
 30
0.0
 40
0.0311426168343931
 50
313.5903859127660098
 51
358.2807221471852017
  0
ARC
  5
1A612
  8
0
 10
3537.2654669680709958
 20
141.2800930300992945
 30
0.0
 40
160.1513774320160906
 50
178.502828391968194
 51
178.7085144734753044
  0
ARC
  5
1A613
  8
0
 10
3375.0998287504007749
 20
147.9396826973824091
 30
0.0
 40
1.7735218821582019
 50
235.9475394648744953
 51
246.1611218083677102
  0
ARC
  5
1A614
  8
0
 10
3374.7273411434762238
 20
147.1026214314854883
 30
0.0
 40
0.8573304767496781
 50
246.3213356492668993
 51
259.209189915524405
  0
ARC
  5
1A615
  8
0
 10
3374.2790733714650742
 20
147.9396826973824091
 30
0.0
 40
1.7735218821582019
 50
293.8388781916315793
 51
304.0499794945449139
  0
ARC
  5
1A616
  8
0
 10
3374.6515609783909895
 20
147.1026214314854883
 30
0.0
 40
0.8573304767496781
 50
280.790810084475595
 51
293.6786643507330723
  0
ARC
  5
1A617
  8
0
 10
3374.6894510609331519
 20
146.9096208052368127
 30
0.0
 40
0.6606495925927091
 50
259.3033558307561179
 51
280.6966441692438821
  0
ARC
  5
1A618
  8
0
 10
3375.0998287504007749
 20
143.3473241645058067
 30
0.0
 40
1.7735218821582019
 50
113.8388781916322046
 51
124.0524638835726989
  0
ARC
  5
1A619
  8
0
 10
3374.7273411434762238
 20
144.1843854304026991
 30
0.0
 40
0.8573304767496781
 50
100.7908100844754955
 51
113.6786643507330012
  0
ARC
  5
1A61A
  8
0
 10
3374.2790733714650742
 20
143.3473241645058067
 30
0.0
 40
1.7735218821582019
 50
55.9500164156248516
 51
66.1611218083677386
  0
ARC
  5
1A61B
  8
0
 10
3374.6515609783909895
 20
144.1843854304026991
 30
0.0
 40
0.8573304767496781
 50
66.3213356492430819
 51
79.2091899155244334
  0
ARC
  5
1A61C
  8
0
 10
3374.6894510609331519
 20
144.3773860566514031
 30
0.0
 40
0.6606495925927091
 50
79.3033558307560895
 51
100.6966441692438963
  0
LINE
  5
1A61D
  8
0
 10
3377.1351597509510611
 20
146.1186072780440952
 30
0.0
 11
3377.1351597505331483
 21
144.8637223767441071
 31
0.0
  0
ARC
  5
1A61E
  8
0
 10
3376.7041587811909267
 20
147.6866440597358974
 30
0.0
 40
1.2997115210584891
 50
261.5452724888718876
 51
282.7179731325397825
  0
ARC
  5
1A61F
  8
0
 10
3375.457599557993035
 20
139.2401212182774088
 30
0.0
 40
7.2383018375174011
 50
81.6154239277632456
 51
83.4311935565774547
  0
ARC
  5
1A620
  8
0
 10
3378.0723442132270975
 20
168.1209570300410121
 30
0.0
 40
21.7290951148915603
 50
267.1456422426163044
 51
267.544352801425589
  0
ARC
  5
1A621
  8
0
 10
3377.1404231247220196
 20
146.3972005571692137
 30
0.0
 40
0.0146441260723114
 50
10.5151779299581492
 51
86.4134181249937541
  0
LINE
  5
1A622
  8
0
 10
3374.1972932618327832
 20
149.3442908324940959
 30
0.0
 11
3374.1972932618327832
 21
146.478790663272008
 31
0.0
  0
LINE
  5
1A623
  8
0
 10
3374.1972932618327832
 20
144.8084759077943886
 30
0.0
 11
3374.1972932618327832
 21
119.9820861080940944
 31
0.0
  0
LINE
  5
1A624
  8
0
 10
3375.1815452303330858
 20
149.3442908324940959
 30
0.0
 11
3375.1815452303330858
 21
146.4787869421708137
 31
0.0
  0
LINE
  5
1A625
  8
0
 10
3375.1815452303330858
 20
144.8083832773214965
 30
0.0
 11
3375.1815452303330858
 21
119.9820861080940944
 31
0.0
  0
ARC
  5
1A626
  8
0
 10
3376.5436363575959149
 20
146.4713452834232044
 30
0.0
 40
0.3443443444085338
 50
194.7939938787650078
 51
232.1653976549349068
  0
ARC
  5
1A627
  8
0
 10
3376.7757739015519292
 20
146.6743170290243938
 30
0.0
 40
0.6497075997677745
 50
226.9694391452412958
 51
249.0247654007658014
  0
ARC
  5
1A628
  8
0
 10
3376.6966484793488235
 20
146.4716931759764122
 30
0.0
 40
0.4321885932246174
 50
249.2037463674282947
 51
280.6498389017577892
  0
ARC
  5
1A629
  8
0
 10
3376.72775182330588
 20
146.4029454365719118
 30
0.0
 40
0.3593212090107604
 50
277.8003770957400889
 51
317.4302743614010183
  0
ARC
  5
1A62A
  8
0
 10
3377.3215835015930679
 20
147.0313950458578063
 30
0.0
 40
0.9316302441095249
 50
249.306570867802094
 51
258.4569082597471947
  0
ARC
  5
1A62B
  8
0
 10
3380.2225258705711894
 20
146.1179055269194862
 30
0.0
 40
3.0677353771261462
 50
179.7431175144598967
 51
184.9019532528307934
  0
ARC
  5
1A62C
  8
0
 10
3377.1656113266308239
 20
146.0940716281888001
 30
0.0
 40
0.0391059142972239
 50
106.016690129489902
 51
141.1408990067118907
  0
ARC
  5
1A62D
  8
0
 10
3376.2602362883671958
 20
146.3817882856349115
 30
0.0
 40
0.0495561494427881
 50
97.6358037512758443
 51
178.1143998180691881
  0
LINE
  5
1A62E
  8
0
 10
3372.8586998959749508
 20
146.4309050058629111
 30
0.0
 11
3373.3468697452649394
 21
146.4309050058629111
 31
0.0
  0
LINE
  5
1A62F
  8
0
 10
3373.9846948369008715
 20
146.4309050058629111
 30
0.0
 11
3374.1067420807339658
 21
146.4309050058629111
 31
0.0
  0
LINE
  5
1A630
  8
0
 10
3375.2720964114328126
 20
146.4309050058629111
 30
0.0
 11
3375.5161908996328748
 21
146.4309050058629111
 31
0.0
  0
LINE
  5
1A631
  8
0
 10
3375.5594192461330749
 20
146.4309050058629111
 30
0.0
 11
3376.2856345881727975
 21
146.4309050058629111
 31
0.0
  0
LINE
  5
1A632
  8
0
 10
3374.1067420807339658
 20
144.8561018561252922
 30
0.0
 11
3372.8582083499068176
 21
144.8561018561252922
 31
0.0
  0
LINE
  5
1A633
  8
0
 10
3375.2720964114328126
 20
144.8561018561252922
 30
0.0
 11
3375.5161908996328748
 21
144.8561018561252922
 31
0.0
  0
LINE
  5
1A634
  8
0
 10
3375.5594192461330749
 20
144.8561018561252922
 30
0.0
 11
3376.4261045167331758
 21
144.8561018561252922
 31
0.0
  0
LINE
  5
1A635
  8
0
 10
3374.0594979863330991
 20
149.3442908324940959
 30
0.0
 11
3375.3193405059341785
 21
149.3442908324940959
 31
0.0
  0
ARC
  5
1A636
  8
0
 10
3375.3193405059341785
 20
149.3639758718940982
 30
0.0
 40
0.0196850393999988
 50
270.0
 51
0.0
  0
ARC
  5
1A637
  8
0
 10
3375.3193405060369514
 20
150.5057081552974978
 30
0.0
 40
0.01968503939655
 50
359.9999999899654881
 51
90.000000010031215
  0
LINE
  5
1A638
  8
0
 10
3375.3390255454341968
 20
149.3639758718940982
 30
0.0
 11
3375.3390255453327882
 21
150.5057081552940872
 31
0.0
  0
LINE
  5
1A639
  8
0
 10
3375.3193405059341785
 20
150.5253931946940895
 30
0.0
 11
3374.0594979863330991
 21
150.5253931946940895
 31
0.0
  0
ARC
  5
1A63A
  8
0
 10
3374.0594979863330991
 20
150.5057081552940872
 30
0.0
 40
0.0196850393999988
 50
90.0
 51
180.0000000000098055
  0
LINE
  5
1A63B
  8
0
 10
3374.0398129469340347
 20
150.5057081552940872
 30
0.0
 11
3374.0398129469340347
 21
149.3639758718940982
 31
0.0
  0
ARC
  5
1A63C
  8
0
 10
3374.0594979863340086
 20
149.3639758718940982
 30
0.0
 40
0.0196850394000023
 50
180.0000000000098055
 51
269.9999999994008135
  0
LINE
  5
1A63D
  8
0
 10
3374.0594979863330991
 20
150.5647632733941066
 30
0.0
 11
3375.3193405060342229
 21
150.5647632733941066
 31
0.0
  0
ARC
  5
1A63E
  8
0
 10
3375.3193405060342229
 20
150.5844483127941089
 30
0.0
 40
0.0196850394000023
 50
270.0
 51
359.9999999999902229
  0
LINE
  5
1A63F
  8
0
 10
3375.3390255454341968
 20
150.5844483127941089
 30
0.0
 11
3375.3390255454341968
 21
151.0175191789940925
 31
0.0
  0
ARC
  5
1A640
  8
0
 10
3375.3193405061329031
 20
151.0175191789940925
 30
0.0
 40
0.0196850392999961
 50
359.9999999999919282
 51
90.0000002912960753
  0
LINE
  5
1A641
  8
0
 10
3375.3193405060342229
 20
151.0372042182941072
 30
0.0
 11
3374.0594979863330991
 21
151.0372042118889055
 31
0.0
  0
ARC
  5
1A642
  8
0
 10
3374.0594979864331435
 20
151.017519172388802
 30
0.0
 40
0.0196850395000823
 50
90.0000002912960753
 51
179.9999807744110001
  0
LINE
  5
1A643
  8
0
 10
3374.0398129469340347
 20
151.0175191789940925
 30
0.0
 11
3374.0398128016167902
 21
150.5844483127941089
 31
0.0
  0
ARC
  5
1A644
  8
0
 10
3374.0594978344111041
 20
150.58444830618879
 30
0.0
 40
0.0196850327953
 50
179.9999807744110001
 51
270.0004421869272733
  0
LINE
  5
1A645
  8
0
 10
3374.1382381438338598
 20
150.5647632733941066
 30
0.0
 11
3374.1382381438338598
 21
150.5253931946940895
 31
0.0
  0
LINE
  5
1A646
  8
0
 10
3375.2406003485330075
 20
150.5647632733941066
 30
0.0
 11
3375.2406003485330075
 21
150.5253931946940895
 31
0.0
  0
LINE
  5
1A647
  8
0
 10
3374.470215924733111
 20
151.0372042139769917
 30
0.0
 11
3374.470215924733111
 21
150.5647632733941066
 31
0.0
  0
LINE
  5
1A648
  8
0
 10
3374.9086225675328023
 20
151.0372042162059074
 30
0.0
 11
3374.9086225675328023
 21
150.5647632733941066
 31
0.0
  0
LINE
  5
1A649
  8
0
 10
3374.295718458733063
 20
151.037204213089808
 30
0.0
 11
3374.295718458733063
 21
155.9642361800941046
 31
0.0
  0
LINE
  5
1A64A
  8
0
 10
3375.0831200335328504
 20
151.0372042170930911
 30
0.0
 11
3375.0831200335328504
 21
155.9642361800941046
 31
0.0
  0
LINE
  5
1A64B
  8
0
 10
3370.6953247580331663
 20
156.4366771249941053
 30
0.0
 11
3378.6835137342332018
 21
156.4366771249941053
 31
0.0
  0
LINE
  5
1A64C
  8
0
 10
3370.7252460111189976
 20
155.9642361800941046
 30
0.0
 11
3378.6535924743329815
 21
155.9642361800941046
 31
0.0
  0
LINE
  5
1A64D
  8
0
 10
3370.6953247580331663
 20
156.4366771249941053
 30
0.0
 11
3370.6953247580331663
 21
155.9941574399940976
 31
0.0
  0
ARC
  5
1A64E
  8
0
 10
3370.7252460179402078
 20
155.9941574400008903
 30
0.0
 40
0.0299212599067617
 50
180.0000000129477087
 51
269.9999997955716253
  0
LINE
  5
1A64F
  8
0
 10
3378.6835137342332018
 20
156.4366771249941053
 30
0.0
 11
3378.6835137342332018
 21
155.9941574399940976
 31
0.0
  0
ARC
  5
1A650
  8
0
 10
3378.6569172997701571
 20
155.9910110779104002
 30
0.0
 40
0.0267818953878262
 50
271.3097852808505195
 51
6.7467423106547519
  0
LINE
  5
1A651
  8
0
 10
3371.3814796680330801
 20
155.9642361800941046
 30
0.0
 11
3371.3859184008829288
 21
155.9228742132777086
 31
0.0
  0
ARC
  5
1A652
  8
0
 10
3371.3937474644330905
 20
155.9237143841941133
 30
0.0
 40
0.0078740156999995
 50
186.1252180547934074
 51
268.0000000523988888
  0
LINE
  5
1A653
  8
0
 10
3371.393472665256013
 20
155.9158451651314863
 30
0.0
 11
3371.4856232179408835
 21
155.9126271970069979
 31
0.0
  0
ARC
  5
1A654
  8
0
 10
3371.4858980190369948
 20
155.9204964710127115
 30
0.0
 40
0.0078740706765504
 50
268.0000000523988888
 51
349.8744339065813165
  0
LINE
  5
1A655
  8
0
 10
3371.493649449734221
 20
155.919112162094109
 30
0.0
 11
3371.4958040029609947
 21
155.9311765718549907
 31
0.0
  0
LINE
  5
1A656
  8
0
 10
3371.4922162170328193
 20
155.9642361800941046
 30
0.0
 11
3371.4967119404341247
 21
155.9228095639940932
 31
0.0
  0
ARC
  5
1A657
  8
0
 10
3371.5044914152090314
 20
155.9236538126941127
 30
0.0
 40
0.0078251507108568
 50
186.1936473966217136
 51
271.0189113791250861
  0
LINE
  5
1A658
  8
0
 10
3371.5046305653331729
 20
155.9158298992940956
 30
0.0
 11
3371.5948741438328398
 21
155.9126271967940909
 31
0.0
  0
ARC
  5
1A659
  8
0
 10
3371.5961502915911296
 20
155.9210247965453959
 30
0.0
 40
0.0084940116954613
 50
261.3591140716059158
 51
347.4269321068732097
  0
LINE
  5
1A65A
  8
0
 10
3371.6044406100331798
 20
155.9191757819941131
 30
0.0
 11
3371.6124392983329017
 21
155.9642361800941046
 31
0.0
  0
LINE
  5
1A65B
  8
0
 10
3371.8168788516331915
 20
155.9642361800941046
 30
0.0
 11
3371.8218989758729549
 21
155.922719229334291
 31
0.0
  0
ARC
  5
1A65C
  8
0
 10
3371.8299619339559285
 20
155.9236941817472086
 30
0.0
 40
0.0081216885716093
 50
186.8945881570946028
 51
264.1749298282555856
  0
LINE
  5
1A65D
  8
0
 10
3371.829137650751818
 20
155.9156144303615861
 30
0.0
 11
3371.9186425191742273
 21
155.9126438321981141
 31
0.0
  0
ARC
  5
1A65E
  8
0
 10
3371.9203597840310067
 20
155.9217185204001055
 30
0.0
 40
0.0092357438550738
 50
259.2842439634165999
 51
345.2147421251900141
  0
LINE
  5
1A65F
  8
0
 10
3371.929289723932925
 20
155.9193615863941034
 30
0.0
 11
3371.937088258734093
 21
155.9642361800941046
 31
0.0
  0
LINE
  5
1A660
  8
0
 10
3372.0319061667328242
 20
155.9642361800941046
 30
0.0
 11
3372.0372758030648583
 21
155.9219225662936026
 31
0.0
  0
ARC
  5
1A661
  8
0
 10
3372.0450871735069995
 20
155.9229138363544109
 30
0.0
 40
0.0078740157812446
 50
187.2322299719633918
 51
269.0003460494316982
  0
LINE
  5
1A662
  8
0
 10
3372.0449498005327769
 20
155.9150410189940885
 30
0.0
 11
3372.1371681873538364
 21
155.9134318982058005
 31
0.0
  0
ARC
  5
1A663
  8
0
 10
3372.1373056109041499
 20
155.9213076140258067
 30
0.0
 40
0.0078769146821632
 50
269.0003460494316982
 51
305.1259134893059013
  0
LINE
  5
1A664
  8
0
 10
3372.1204759309330257
 20
155.9642361800941046
 30
0.0
 11
3372.1258819200338621
 21
155.9218902461940957
 31
0.0
  0
ARC
  5
1A665
  8
0
 10
3372.1337032954002098
 20
155.9228887427694019
 30
0.0
 40
0.0078848530762646
 50
187.2751716392633057
 51
267.1659534289028102
  0
LINE
  5
1A666
  8
0
 10
3372.133313442428971
 20
155.9150135333946992
 30
0.0
 11
3372.2242182477330061
 21
155.913431341194098
 31
0.0
  0
ARC
  5
1A667
  8
0
 10
3372.2245757526870875
 20
155.9229801946677014
 30
0.0
 40
0.0095555435455562
 50
267.8558721869208057
 51
342.2859925952603248
  0
LINE
  5
1A668
  8
0
 10
3372.2336782404340738
 20
155.9200727680940872
 30
0.0
 11
3372.2419386894521267
 21
155.9642361800941046
 31
0.0
  0
LINE
  5
1A669
  8
0
 10
3372.3332871039060592
 20
155.9642361800941046
 30
0.0
 11
3372.3382749236347991
 21
155.9223194253615077
 31
0.0
  0
ARC
  5
1A66A
  8
0
 10
3372.3460673876252258
 20
155.9232466776232116
 30
0.0
 40
0.0078474385496222
 50
186.7859149031056063
 51
268.887139619941081
  0
ARC
  5
1A66B
  8
0
 10
3372.4310217050888241
 20
157.4770285920687058
 30
0.0
 40
1.563945257501471
 50
266.8805389607351231
 51
270.2585224853349928
  0
ARC
  5
1A66C
  8
0
 10
3372.4383169638531399
 20
155.9209190716782985
 30
0.0
 40
0.0078234580660355
 50
268.251921826108628
 51
350.7241836809022857
  0
LINE
  5
1A66D
  8
0
 10
3372.446038121122001
 20
155.9196580298317087
 30
0.0
 11
3372.4533187541887855
 21
155.9642361800941046
 31
0.0
  0
LINE
  5
1A66E
  8
0
 10
3372.5004996249331271
 20
155.9642361800941046
 30
0.0
 11
3372.4932115664842058
 21
155.9202008013940883
 31
0.0
  0
ARC
  5
1A66F
  8
0
 10
3372.4858463544128426
 20
155.9209383858012927
 30
0.0
 40
0.0074020523905562
 50
267.6715964835962041
 51
354.2812179762460119
  0
ARC
  5
1A670
  8
0
 10
3372.4745049872558411
 20
156.4215728988646106
 30
0.0
 40
0.5081504089803146
 50
266.4075332380498935
 51
271.2449700331433746
  0
ARC
  5
1A671
  8
0
 10
3372.379719843669136
 20
155.4765990589002058
 30
0.0
 40
0.4389653942178622
 50
84.727905692285276
 51
91.9422749612405852
  0
ARC
  5
1A672
  8
0
 10
3372.4301696488319067
 20
157.2122771800374039
 30
0.0
 40
1.2986091353573179
 50
267.1164767500567905
 51
269.5537039034667828
  0
ARC
  5
1A673
  8
0
 10
3372.4398093778668226
 20
155.1613991070051952
 30
0.0
 40
0.7528992850923178
 50
87.9758220149790588
 51
89.6060355591135931
  0
ARC
  5
1A674
  8
0
 10
3372.4588049847311595
 20
156.2599970455655125
 30
0.0
 40
0.3462518217840854
 50
269.5530867856064106
 51
271.2573276684871075
  0
LINE
  5
1A675
  8
0
 10
3372.6823162870327906
 20
155.9642361800941046
 30
0.0
 11
3372.688650065946149
 21
155.9209696754836045
 31
0.0
  0
ARC
  5
1A676
  8
0
 10
3372.6964410476512057
 20
155.9221101964494949
 30
0.0
 40
0.0078740195579257
 50
188.3283668559907937
 51
269.9483246420683145
  0
LINE
  5
1A677
  8
0
 10
3372.6964339460328119
 20
155.9142361800940932
 30
0.0
 11
3372.7886966610340096
 21
155.9142361800940932
 31
0.0
  0
ARC
  5
1A678
  8
0
 10
3372.7886966605869929
 20
155.9221101962938008
 30
0.0
 40
0.0078740161996507
 50
270.0000032488109127
 51
351.6716307123572278
  0
LINE
  5
1A679
  8
0
 10
3372.7964876389200981
 20
155.9209696754836045
 30
0.0
 11
3372.7977794673370227
 21
155.9297942467786129
 31
0.0
  0
LINE
  5
1A67A
  8
0
 10
3372.7932293719431982
 20
155.9642361800941046
 30
0.0
 11
3372.7988559438331322
 21
155.9216458611940936
 31
0.0
  0
LINE
  5
1A67B
  8
0
 10
3372.9135751033331871
 20
155.9642361800941046
 30
0.0
 11
3372.9066658723340879
 21
155.9203152068940881
 31
0.0
  0
ARC
  5
1A67C
  8
0
 10
3372.8988798010191204
 20
155.9215400377977971
 30
0.0
 40
0.0078818219505056
 50
269.298659017677096
 51
351.0600354378651105
  0
ARC
  5
1A67D
  8
0
 10
3372.8760625482041178
 20
157.7945318233468868
 30
0.0
 40
1.88101024447625
 50
267.882635586547508
 51
270.6920941774295102
  0
ARC
  5
1A67E
  8
0
 10
3372.806665228717975
 20
155.9226830898435026
 30
0.0
 40
0.0078778660610993
 50
187.5657392358262996
 51
269.2759051654609834
  0
ARC
  5
1A67F
  8
0
 10
3372.8455063430969858
 20
155.3339490340337079
 30
0.0
 40
0.5809571167764391
 50
86.631375115766204
 51
91.9525643086238063
  0
ARC
  5
1A680
  8
0
 10
3372.8639471687620244
 20
156.826155958745602
 30
0.0
 40
0.9123886338071832
 50
267.5982167025196077
 51
270.9857227218482763
  0
LINE
  5
1A681
  8
0
 10
3372.9434508043668757
 20
155.9642361800941046
 30
0.0
 11
3372.9497845832797793
 21
155.9209696754836045
 31
0.0
  0
ARC
  5
1A682
  8
0
 10
3372.9575755649848361
 20
155.9221101964494949
 30
0.0
 40
0.0078740195579257
 50
188.3283668559907937
 51
269.9483246420683145
  0
LINE
  5
1A683
  8
0
 10
3372.957568463366897
 20
155.9142361800940932
 30
0.0
 11
3372.999587155817153
 21
155.9142361800940932
 31
0.0
  0
ARC
  5
1A684
  8
0
 10
3372.9995871553710458
 20
155.9221101962938008
 30
0.0
 40
0.0078740161996507
 50
270.0000032488109127
 51
351.6716307123572278
  0
LINE
  5
1A685
  8
0
 10
3373.007378133704151
 20
155.9209696754836045
 30
0.0
 11
3373.008669962120166
 21
155.9297942467786129
 31
0.0
  0
LINE
  5
1A686
  8
0
 10
3373.0041198667281606
 20
155.9642361800941046
 30
0.0
 11
3373.009746438617185
 21
155.9216458611940936
 31
0.0
  0
LINE
  5
1A687
  8
0
 10
3373.1244655981167853
 20
155.9642361800941046
 30
0.0
 11
3373.1175563671167765
 21
155.9203152068940881
 31
0.0
  0
ARC
  5
1A688
  8
0
 10
3373.1097702958031732
 20
155.9215400377977971
 30
0.0
 40
0.0078818219505056
 50
269.298659017677096
 51
351.0600354378651105
  0
ARC
  5
1A689
  8
0
 10
3373.0869530429881706
 20
157.7945318233468868
 30
0.0
 40
1.88101024447625
 50
267.882635586547508
 51
270.6920941774295102
  0
ARC
  5
1A68A
  8
0
 10
3373.0175557235020278
 20
155.9226830898435026
 30
0.0
 40
0.0078778660610993
 50
187.5657392358262996
 51
269.2759051654609834
  0
ARC
  5
1A68B
  8
0
 10
3373.0563968378801292
 20
155.3339490340337079
 30
0.0
 40
0.5809571167764391
 50
86.631375115766204
 51
91.9525643086238063
  0
ARC
  5
1A68C
  8
0
 10
3373.0748376635451677
 20
156.826155958745602
 30
0.0
 40
0.9123886338071832
 50
267.5982167025196077
 51
270.9857227218482763
  0
LINE
  5
1A68D
  8
0
 10
3373.3315652041392241
 20
155.9642361800941046
 30
0.0
 11
3373.3373752673328454
 21
155.9214504149940979
 31
0.0
  0
ARC
  5
1A68E
  8
0
 10
3373.3451646730691209
 20
155.9225081719247896
 30
0.0
 40
0.0078608963510552
 50
187.7331387439741093
 51
269.6613727598704031
  0
ARC
  5
1A68F
  8
0
 10
3373.4138895654850785
 20
158.4883951000788045
 30
0.0
 40
2.574666319390559
 50
268.469402870673207
 51
270.5217240081706791
  0
ARC
  5
1A690
  8
0
 10
3373.4374255837278724
 20
155.9216947292588031
 30
0.0
 40
0.0078597470444828
 50
269.3297541189739945
 51
348.6312625662540086
  0
LINE
  5
1A691
  8
0
 10
3373.4451311137117955
 20
155.9201453967357054
 30
0.0
 11
3373.452427717133105
 21
155.9642361800941046
 31
0.0
  0
ARC
  5
1A692
  8
0
 10
3373.3832658952242127
 20
155.1057525415172904
 30
0.0
 40
0.8092970734782872
 50
87.2813170766996933
 51
91.3532426457030908
  0
ARC
  5
1A693
  8
0
 10
3373.40876050256702
 20
157.2452312197432036
 30
0.0
 40
1.3311549299573091
 50
268.0796484218665228
 51
270.5549121543202773
  0
LINE
  5
1A694
  8
0
 10
3373.5059840694339073
 20
155.9642361800941046
 30
0.0
 11
3373.5118249906499841
 21
155.924336423094104
 31
0.0
  0
ARC
  5
1A695
  8
0
 10
3373.5235114575862099
 20
155.9260472037555871
 30
0.0
 40
0.0118110236615611
 50
188.3283670258580003
 51
269.9999997418980797
  0
LINE
  5
1A696
  8
0
 10
3373.5235114575330044
 20
155.9142361800940932
 30
0.0
 11
3373.6089618123328364
 21
155.9142361797092065
 31
0.0
  0
ARC
  5
1A697
  8
0
 10
3373.6089618123869514
 20
155.9260472031824065
 30
0.0
 40
0.0118110234732392
 50
269.9999997418980797
 51
351.6716356509103889
  0
LINE
  5
1A698
  8
0
 10
3373.620648279217221
 20
155.924336423094104
 30
0.0
 11
3373.6264891985288159
 21
155.9642361800941046
 31
0.0
  0
LINE
  5
1A699
  8
0
 10
3373.6567257358078677
 20
155.9642361800941046
 30
0.0
 11
3373.6630595147330496
 21
155.9209696754940921
 31
0.0
  0
ARC
  5
1A69A
  8
0
 10
3373.670850492631871
 20
155.9221101959053897
 30
0.0
 40
0.0078740157113467
 50
188.3283668746034891
 51
270.0000007390790984
  0
LINE
  5
1A69B
  8
0
 10
3373.6708504927341892
 20
155.9142361801941092
 30
0.0
 11
3373.7631061098340979
 21
155.9142361813840978
 31
0.0
  0
ARC
  5
1A69C
  8
0
 10
3373.7631061097317797
 20
155.9221101974032138
 30
0.0
 40
0.0078740160190876
 50
270.0000007390790984
 51
351.6716223608422069
  0
LINE
  5
1A69D
  8
0
 10
3373.7708970877201864
 20
155.9209696754836045
 30
0.0
 11
3373.7772308749508738
 21
155.9642361800941046
 31
0.0
  0
LINE
  5
1A69E
  8
0
 10
3373.7924134731360937
 20
155.9642361800941046
 30
0.0
 11
3373.7982235363310792
 21
155.9214504149940979
 31
0.0
  0
ARC
  5
1A69F
  8
0
 10
3373.8060129420659905
 20
155.9225081719247896
 30
0.0
 40
0.0078608963510552
 50
187.7331387439741093
 51
269.6613727598704031
  0
ARC
  5
1A6A0
  8
0
 10
3373.8747378344819481
 20
158.4883951000788045
 30
0.0
 40
2.574666319390559
 50
268.469402870673207
 51
270.5217240081706791
  0
ARC
  5
1A6A1
  8
0
 10
3373.8982738527261063
 20
155.9216947292588031
 30
0.0
 40
0.0078597470444828
 50
269.3297541189739945
 51
348.6312625662540086
  0
LINE
  5
1A6A2
  8
0
 10
3373.9059793827100293
 20
155.9201453967357054
 30
0.0
 11
3373.9132759861308841
 21
155.9642361800941046
 31
0.0
  0
ARC
  5
1A6A3
  8
0
 10
3373.8441141642210823
 20
155.1057525415172904
 30
0.0
 40
0.8092970734782872
 50
87.2813170766996933
 51
91.3532426457030908
  0
ARC
  5
1A6A4
  8
0
 10
3373.8696087715638896
 20
157.2452312197432036
 30
0.0
 40
1.3311549299573091
 50
268.0796484218665228
 51
270.5549121543202773
  0
LINE
  5
1A6A5
  8
0
 10
3373.9584695469329745
 20
155.9642361800941046
 30
0.0
 11
3373.9648234871478962
 21
155.9213237790474977
 31
0.0
  0
ARC
  5
1A6A6
  8
0
 10
3373.9728352336928765
 20
155.9225100598735025
 30
0.0
 40
0.0080990953139998
 50
188.4224582170243139
 51
265.978785284521507
  0
ARC
  5
1A6A7
  8
0
 10
3374.028781727689875
 20
158.3040072936942124
 30
0.0
 40
2.3902445917969408
 50
268.6451841641950864
 51
270.855876736844607
  0
ARC
  5
1A6A8
  8
0
 10
3374.0639605242599828
 20
155.9225591415398071
 30
0.0
 40
0.0085459084858642
 50
273.5222756165401279
 51
347.6819547015646776
  0
LINE
  5
1A6A9
  8
0
 10
3374.0723096925330537
 20
155.920735973694093
 30
0.0
 11
3374.0788079260191807
 21
155.9642361800941046
 31
0.0
  0
LINE
  5
1A6AA
  8
0
 10
3374.1021137561137948
 20
155.9642361800941046
 30
0.0
 11
3374.0961930952171315
 21
155.924336423094104
 31
0.0
  0
ARC
  5
1A6AB
  8
0
 10
3374.0844834733861717
 20
155.9260739950819925
 30
0.0
 40
0.0118378376336188
 50
270.1120712802094204
 51
351.5595619520303217
  0
LINE
  5
1A6AC
  8
0
 10
3374.0845066283341112
 20
155.9142361800940932
 30
0.0
 11
3374.0657348731760976
 21
155.9141994622532081
 31
0.0
  0
LINE
  5
1A6AD
  8
0
 10
3374.0845066283341112
 20
155.9142361800940932
 30
0.0
 11
3374.174940001133109
 21
155.9142361800940932
 31
0.0
  0
ARC
  5
1A6AE
  8
0
 10
3374.1749400008498014
 20
155.9221101961182114
 30
0.0
 40
0.0078740160241182
 50
270.0000020621051249
 51
351.6716318438286066
  0
LINE
  5
1A6AF
  8
0
 10
3374.18273097903284
 20
155.9209696754872994
 30
0.0
 11
3374.1890647589480068
 21
155.9642361800941046
 31
0.0
  0
LINE
  5
1A6B0
  8
0
 10
3374.6313110736327872
 20
155.9642361800941046
 30
0.0
 11
3374.6374689635331379
 21
155.9209696754940921
 31
0.0
  0
ARC
  5
1A6B1
  8
0
 10
3374.645668620761171
 20
155.9223189696544978
 30
0.0
 40
0.0083099322128987
 50
189.3445594929133904
 51
255.6437059684510871
  0
ARC
  5
1A6B2
  8
0
 10
3374.6927179922968207
 20
156.583908188217805
 30
0.0
 40
0.6714380389011372
 50
265.805568760078927
 51
273.8269042400003173
  0
ARC
  5
1A6B3
  8
0
 10
3374.7349772344500707
 20
155.9250571722766097
 30
0.0
 40
0.0111086503923341
 50
283.0727313471462026
 51
338.4103740719916118
  0
LINE
  5
1A6B4
  8
0
 10
3374.745306536633052
 20
155.9209696754940921
 30
0.0
 11
3374.7516403155332227
 21
155.9642361800941046
 31
0.0
  0
ARC
  5
1A6B5
  8
0
 10
3374.6911939006981811
 20
155.5922896169072942
 30
0.0
 40
0.3235555716448667
 50
84.9098264241746534
 51
94.8040725485765847
  0
ARC
  5
1A6B6
  8
0
 10
3374.6927190876381246
 20
156.2031663066456986
 30
0.0
 40
0.2898743710568822
 50
264.3333134937661839
 51
275.3805842715718768
  0
LINE
  5
1A6B7
  8
0
 10
3377.9973588243337872
 20
155.9642361800941046
 30
0.0
 11
3377.9929200914839384
 21
155.9228742132777086
 31
0.0
  0
ARC
  5
1A6B8
  8
0
 10
3377.9850910279337768
 20
155.9237143841941133
 30
0.0
 40
0.0078740156999995
 50
271.9999999476009975
 51
353.874781945206621
  0
LINE
  5
1A6B9
  8
0
 10
3377.9853658271108543
 20
155.9158451651314863
 30
0.0
 11
3377.8932152744259838
 21
155.9126271970069979
 31
0.0
  0
ARC
  5
1A6BA
  8
0
 10
3377.8929404733298725
 20
155.9204964710127115
 30
0.0
 40
0.0078740706765504
 50
190.1255660934187119
 51
271.9999999476009975
  0
LINE
  5
1A6BB
  8
0
 10
3377.8851890426331011
 20
155.919112162094109
 30
0.0
 11
3377.8830344894049631
 21
155.9311765718549907
 31
0.0
  0
LINE
  5
1A6BC
  8
0
 10
3377.8866222753331385
 20
155.9642361800941046
 30
0.0
 11
3377.8821265519331973
 21
155.9228095639940932
 31
0.0
  0
ARC
  5
1A6BD
  8
0
 10
3377.8743470771578359
 20
155.9236538126941127
 30
0.0
 40
0.0078251507108568
 50
268.9810886208749139
 51
353.8063526033781727
  0
LINE
  5
1A6BE
  8
0
 10
3377.8742079270327849
 20
155.9158298992940956
 30
0.0
 11
3377.783964348533118
 21
155.9126271967940909
 31
0.0
  0
ARC
  5
1A6BF
  8
0
 10
3377.7826882007748281
 20
155.9210247965453959
 30
0.0
 40
0.0084940116954613
 50
192.573067893126705
 51
278.6408859283940842
  0
LINE
  5
1A6C0
  8
0
 10
3377.774397882332778
 20
155.9191757819941131
 30
0.0
 11
3377.7663991940330561
 21
155.9642361800941046
 31
0.0
  0
LINE
  5
1A6C1
  8
0
 10
3377.561959640733221
 20
155.9642361800941046
 30
0.0
 11
3377.5569395164939124
 21
155.922719229334291
 31
0.0
  0
ARC
  5
1A6C2
  8
0
 10
3377.5488765584109387
 20
155.9236941817472086
 30
0.0
 40
0.0081216885716093
 50
275.8250701717444144
 51
353.1054118429054256
  0
LINE
  5
1A6C3
  8
0
 10
3377.5497008416150493
 20
155.9156144303615861
 30
0.0
 11
3377.4601959731930947
 21
155.9126438321981141
 31
0.0
  0
ARC
  5
1A6C4
  8
0
 10
3377.4584787083349511
 20
155.9217185204001055
 30
0.0
 40
0.0092357438550738
 50
194.7852578748099006
 51
280.7157560365834001
  0
LINE
  5
1A6C5
  8
0
 10
3377.4495487684339423
 20
155.9193615863941034
 30
0.0
 11
3377.4417502336341386
 21
155.9642361800941046
 31
0.0
  0
LINE
  5
1A6C6
  8
0
 10
3377.3469323256331336
 20
155.9642361800941046
 30
0.0
 11
3377.3415626893020089
 21
155.9219225662936026
 31
0.0
  0
ARC
  5
1A6C7
  8
0
 10
3377.3337513188598678
 20
155.9229138363544109
 30
0.0
 40
0.0078740157812446
 50
270.9996539505683018
 51
352.7677700280365798
  0
LINE
  5
1A6C8
  8
0
 10
3377.3338886918331809
 20
155.9150410189940885
 30
0.0
 11
3377.2416703050121214
 21
155.9134318982058005
 31
0.0
  0
ARC
  5
1A6C9
  8
0
 10
3377.2415328814631721
 20
155.9213076140258067
 30
0.0
 40
0.0078769146821632
 50
234.8740865106940987
 51
270.9996539505683018
  0
LINE
  5
1A6CA
  8
0
 10
3377.2583625614329321
 20
155.9642361800941046
 30
0.0
 11
3377.2529565723330052
 21
155.9218902461940957
 31
0.0
  0
ARC
  5
1A6CB
  8
0
 10
3377.2451351969671123
 20
155.9228887427694019
 30
0.0
 40
0.0078848530762646
 50
272.8340465710971898
 51
352.7248283607366943
  0
LINE
  5
1A6CC
  8
0
 10
3377.2455250499378963
 20
155.9150135333946992
 30
0.0
 11
3377.1546202446338611
 21
155.913431341194098
 31
0.0
  0
ARC
  5
1A6CD
  8
0
 10
3377.1542627396788703
 20
155.9229801946677014
 30
0.0
 40
0.0095555435455562
 50
197.7140074047397036
 51
272.144127813079308
  0
LINE
  5
1A6CE
  8
0
 10
3377.1451602519341577
 20
155.9200727680940872
 30
0.0
 11
3377.1368998029151953
 21
155.9642361800941046
 31
0.0
  0
LINE
  5
1A6CF
  8
0
 10
3377.0455513884608081
 20
155.9642361800941046
 30
0.0
 11
3377.0405635687320682
 21
155.9223194253615077
 31
0.0
  0
ARC
  5
1A6D0
  8
0
 10
3377.0327711047420962
 20
155.9232466776232116
 30
0.0
 40
0.0078474385496222
 50
271.112860380058919
 51
353.21408509689428
  0
ARC
  5
1A6D1
  8
0
 10
3376.9478167872789527
 20
157.4770285920687058
 30
0.0
 40
1.563945257501471
 50
269.7414775146650072
 51
273.1194610392648769
  0
ARC
  5
1A6D2
  8
0
 10
3376.9405215285128179
 20
155.9209190716782985
 30
0.0
 40
0.0078234580660355
 50
189.2758163190976859
 51
271.748078173891372
  0
LINE
  5
1A6D3
  8
0
 10
3376.9328003712439568
 20
155.9196580298317087
 30
0.0
 11
3376.9255197381780818
 21
155.9642361800941046
 31
0.0
  0
LINE
  5
1A6D4
  8
0
 10
3376.878338867434195
 20
155.9642361800941046
 30
0.0
 11
3376.8856269258831162
 21
155.9202008013940883
 31
0.0
  0
ARC
  5
1A6D5
  8
0
 10
3376.8929921379531152
 20
155.9209383858012927
 30
0.0
 40
0.0074020523905562
 50
185.7187820237539881
 51
272.3284035164037959
  0
ARC
  5
1A6D6
  8
0
 10
3376.9043335051110262
 20
156.4215728988646106
 30
0.0
 40
0.5081504089803146
 50
268.7550299668566254
 51
273.5924667619499928
  0
ARC
  5
1A6D7
  8
0
 10
3376.999118648698186
 20
155.4765990589002058
 30
0.0
 40
0.4389653942178622
 50
88.0577250387594148
 51
95.2720943077147666
  0
ARC
  5
1A6D8
  8
0
 10
3376.9486688435340511
 20
157.2122771800374039
 30
0.0
 40
1.2986091353573179
 50
270.4462960965332172
 51
272.8835232499432095
  0
ARC
  5
1A6D9
  8
0
 10
3376.9390291145000447
 20
155.1613991070051952
 30
0.0
 40
0.7528992850923178
 50
90.3939644408863927
 51
92.0241779850209554
  0
ARC
  5
1A6DA
  8
0
 10
3376.9200335076361625
 20
156.2599970455655125
 30
0.0
 40
0.3462518217840854
 50
268.7426723315128925
 51
270.4469132143935894
  0
LINE
  5
1A6DB
  8
0
 10
3376.6965222053331672
 20
155.9642361800941046
 30
0.0
 11
3376.6901884264198088
 21
155.9209696754836045
 31
0.0
  0
ARC
  5
1A6DC
  8
0
 10
3376.6823974447161163
 20
155.9221101964494949
 30
0.0
 40
0.0078740195579257
 50
270.0516753579315719
 51
351.6716331440092063
  0
LINE
  5
1A6DD
  8
0
 10
3376.6824045463331458
 20
155.9142361800940932
 30
0.0
 11
3376.5901418313328577
 21
155.9142361800940932
 31
0.0
  0
ARC
  5
1A6DE
  8
0
 10
3376.5901418317798743
 20
155.9221101962938008
 30
0.0
 40
0.0078740161996507
 50
188.3283692876428006
 51
269.9999967511890873
  0
LINE
  5
1A6DF
  8
0
 10
3376.5823508534472239
 20
155.9209696754836045
 30
0.0
 11
3376.5810590250298446
 21
155.9297942467786129
 31
0.0
  0
LINE
  5
1A6E0
  8
0
 10
3376.5856091204232143
 20
155.9642361800941046
 30
0.0
 11
3376.5799825485328256
 21
155.9216458611940936
 31
0.0
  0
LINE
  5
1A6E1
  8
0
 10
3376.4652633890341349
 20
155.9642361800941046
 30
0.0
 11
3376.4721726200327794
 21
155.9203152068940881
 31
0.0
  0
ARC
  5
1A6E2
  8
0
 10
3376.4799586913482017
 20
155.9215400377977971
 30
0.0
 40
0.0078818219505056
 50
188.9399645621350032
 51
270.701340982322904
  0
ARC
  5
1A6E3
  8
0
 10
3376.5027759441632043
 20
157.7945318233468868
 30
0.0
 40
1.88101024447625
 50
269.3079058225704898
 51
272.117364413452492
  0
ARC
  5
1A6E4
  8
0
 10
3376.5721732636498018
 20
155.9226830898435026
 30
0.0
 40
0.0078778660610993
 50
270.7240948345390166
 51
352.4342607641737004
  0
ARC
  5
1A6E5
  8
0
 10
3376.5333321492698815
 20
155.3339490340337079
 30
0.0
 40
0.5809571167764391
 50
88.0474356913761937
 51
93.3686248842338102
  0
ARC
  5
1A6E6
  8
0
 10
3376.5148913236048429
 20
156.826155958745602
 30
0.0
 40
0.9123886338071832
 50
269.0142772781517237
 51
272.4017832974803923
  0
LINE
  5
1A6E7
  8
0
 10
3376.4353876879999916
 20
155.9642361800941046
 30
0.0
 11
3376.429053909087088
 21
155.9209696754836045
 31
0.0
  0
ARC
  5
1A6E8
  8
0
 10
3376.4212629273820312
 20
155.9221101964494949
 30
0.0
 40
0.0078740195579257
 50
270.0516753579315719
 51
351.6716331440092063
  0
LINE
  5
1A6E9
  8
0
 10
3376.4212700290008797
 20
155.9142361800940932
 30
0.0
 11
3376.3792513365501691
 21
155.9142361800940932
 31
0.0
  0
ARC
  5
1A6EA
  8
0
 10
3376.3792513369958215
 20
155.9221101962938008
 30
0.0
 40
0.0078740161996507
 50
188.3283692876428006
 51
269.9999967511890873
  0
LINE
  5
1A6EB
  8
0
 10
3376.3714603586618068
 20
155.9209696754836045
 30
0.0
 11
3376.3701685302457918
 21
155.9297942467786129
 31
0.0
  0
LINE
  5
1A6EC
  8
0
 10
3376.3747186256391615
 20
155.9642361800941046
 30
0.0
 11
3376.3690920537487727
 21
155.9216458611940936
 31
0.0
  0
LINE
  5
1A6ED
  8
0
 10
3376.2543728942491725
 20
155.9642361800941046
 30
0.0
 11
3376.2612821252491813
 21
155.9203152068940881
 31
0.0
  0
ARC
  5
1A6EE
  8
0
 10
3376.2690681965650583
 20
155.9215400377977971
 30
0.0
 40
0.0078818219505056
 50
188.9399645621350032
 51
270.701340982322904
  0
ARC
  5
1A6EF
  8
0
 10
3376.2918854493791514
 20
157.7945318233468868
 30
0.0
 40
1.88101024447625
 50
269.3079058225704898
 51
272.117364413452492
  0
ARC
  5
1A6F0
  8
0
 10
3376.3612827688648395
 20
155.9226830898435026
 30
0.0
 40
0.0078778660610993
 50
270.7240948345390166
 51
352.4342607641737004
  0
ARC
  5
1A6F1
  8
0
 10
3376.3224416544871929
 20
155.3339490340337079
 30
0.0
 40
0.5809571167764391
 50
88.0474356913761937
 51
93.3686248842338102
  0
ARC
  5
1A6F2
  8
0
 10
3376.3040008288221543
 20
156.826155958745602
 30
0.0
 40
0.9123886338071832
 50
269.0142772781517237
 51
272.4017832974803923
  0
LINE
  5
1A6F3
  8
0
 10
3376.0472732882271885
 20
155.9642361800941046
 30
0.0
 11
3376.0414632250331124
 21
155.9214504149940979
 31
0.0
  0
ARC
  5
1A6F4
  8
0
 10
3376.0336738192982011
 20
155.9225081719247896
 30
0.0
 40
0.0078608963510552
 50
270.3386272401297106
 51
352.266861256025777
  0
ARC
  5
1A6F5
  8
0
 10
3375.9649489268817888
 20
158.4883951000788045
 30
0.0
 40
2.574666319390559
 50
269.4782759918293209
 51
271.5305971293266794
  0
ARC
  5
1A6F6
  8
0
 10
3375.9414129086380854
 20
155.9216947292588031
 30
0.0
 40
0.0078597470444828
 50
191.3687374337459914
 51
270.6702458810258918
  0
LINE
  5
1A6F7
  8
0
 10
3375.9337073786541623
 20
155.9201453967357054
 30
0.0
 11
3375.926410775234217
 21
155.9642361800941046
 31
0.0
  0
ARC
  5
1A6F8
  8
0
 10
3375.9955725971431093
 20
155.1057525415172904
 30
0.0
 40
0.8092970734782872
 50
88.646757354296895
 51
92.7186829233003067
  0
ARC
  5
1A6F9
  8
0
 10
3375.9700779897998473
 20
157.2452312197432036
 30
0.0
 40
1.3311549299573091
 50
269.4450878456797227
 51
271.9203515781334772
  0
LINE
  5
1A6FA
  8
0
 10
3375.87285442293296
 20
155.9642361800941046
 30
0.0
 11
3375.8670135017168832
 21
155.924336423094104
 31
0.0
  0
ARC
  5
1A6FB
  8
0
 10
3375.8553270347811122
 20
155.9260472037555871
 30
0.0
 40
0.0118110236615611
 50
270.0000002581019203
 51
351.6716329741420282
  0
LINE
  5
1A6FC
  8
0
 10
3375.8553270348338629
 20
155.9142361800940932
 30
0.0
 11
3375.7698766800331214
 21
155.9142361797092065
 31
0.0
  0
ARC
  5
1A6FD
  8
0
 10
3375.7698766799799159
 20
155.9260472031824065
 30
0.0
 40
0.0118110234732392
 50
188.3283643490896111
 51
270.0000002581019203
  0
LINE
  5
1A6FE
  8
0
 10
3375.758190213150101
 20
155.924336423094104
 30
0.0
 11
3375.7523492938380514
 21
155.9642361800941046
 31
0.0
  0
LINE
  5
1A6FF
  8
0
 10
3375.7221127565589995
 20
155.9642361800941046
 30
0.0
 11
3375.7157789776338177
 21
155.9209696754940921
 31
0.0
  0
ARC
  5
1A700
  8
0
 10
3375.7079879997349963
 20
155.9221101959053897
 30
0.0
 40
0.0078740157113467
 50
269.9999992609209016
 51
351.6716331253963972
  0
LINE
  5
1A701
  8
0
 10
3375.7079879996331329
 20
155.9142361801941092
 30
0.0
 11
3375.6157323825332242
 21
155.9142361813840978
 31
0.0
  0
ARC
  5
1A702
  8
0
 10
3375.6157323826341781
 20
155.9221101974032138
 30
0.0
 40
0.0078740160190876
 50
188.3283776391579067
 51
269.9999992609209016
  0
LINE
  5
1A703
  8
0
 10
3375.6079414046462261
 20
155.9209696754836045
 30
0.0
 11
3375.6016076174159934
 21
155.9642361800941046
 31
0.0
  0
LINE
  5
1A704
  8
0
 10
3375.5864250192307736
 20
155.9642361800941046
 30
0.0
 11
3375.5806149560371523
 21
155.9214504149940979
 31
0.0
  0
ARC
  5
1A705
  8
0
 10
3375.5728255502999673
 20
155.9225081719247896
 30
0.0
 40
0.0078608963510552
 50
270.3386272401297106
 51
352.266861256025777
  0
ARC
  5
1A706
  8
0
 10
3375.5041006578840097
 20
158.4883951000788045
 30
0.0
 40
2.574666319390559
 50
269.4782759918293209
 51
271.5305971293266794
  0
ARC
  5
1A707
  8
0
 10
3375.4805646396412158
 20
155.9216947292588031
 30
0.0
 40
0.0078597470444828
 50
191.3687374337459914
 51
270.6702458810258918
  0
LINE
  5
1A708
  8
0
 10
3375.4728591096559285
 20
155.9201453967357054
 30
0.0
 11
3375.4655625062359832
 21
155.9642361800941046
 31
0.0
  0
ARC
  5
1A709
  8
0
 10
3375.534724328145785
 20
155.1057525415172904
 30
0.0
 40
0.8092970734782872
 50
88.646757354296895
 51
92.7186829233003067
  0
ARC
  5
1A70A
  8
0
 10
3375.5092297208020682
 20
157.2452312197432036
 30
0.0
 40
1.3311549299573091
 50
269.4450878456797227
 51
271.9203515781334772
  0
LINE
  5
1A70B
  8
0
 10
3375.4203689454329833
 20
155.9642361800941046
 30
0.0
 11
3375.4140150052189711
 21
155.9213237790474977
 31
0.0
  0
ARC
  5
1A70C
  8
0
 10
3375.4060032586739908
 20
155.9225100598735025
 30
0.0
 40
0.0080990953139998
 50
274.021214715478493
 51
351.5775417829755725
  0
ARC
  5
1A70D
  8
0
 10
3375.3500567646760828
 20
158.3040072936942124
 30
0.0
 40
2.3902445917969408
 50
269.144123263155393
 51
271.3548158358049136
  0
ARC
  5
1A70E
  8
0
 10
3375.3148779681068845
 20
155.9225591415398071
 30
0.0
 40
0.0085459084858642
 50
192.3180452984352087
 51
266.4777243834598721
  0
LINE
  5
1A70F
  8
0
 10
3375.306528799832904
 20
155.920735973694093
 30
0.0
 11
3375.3000305663467771
 21
155.9642361800941046
 31
0.0
  0
LINE
  5
1A710
  8
0
 10
3375.276724736253982
 20
155.9642361800941046
 30
0.0
 11
3375.2826453971501905
 21
155.924336423094104
 31
0.0
  0
ARC
  5
1A711
  8
0
 10
3375.2943550189811504
 20
155.9260739950819925
 30
0.0
 40
0.0118378376336188
 50
188.4404380479695931
 51
269.8879287197905796
  0
LINE
  5
1A712
  8
0
 10
3375.2943318640332109
 20
155.9142361800940932
 30
0.0
 11
3375.3131036191912244
 21
155.9141994622532081
 31
0.0
  0
LINE
  5
1A713
  8
0
 10
3375.2943318640332109
 20
155.9142361800940932
 30
0.0
 11
3375.2038984912328488
 21
155.9142361800940932
 31
0.0
  0
ARC
  5
1A714
  8
0
 10
3375.2038984915170658
 20
155.9221101961182114
 30
0.0
 40
0.0078740160241182
 50
188.3283681561713934
 51
269.9999979378948751
  0
LINE
  5
1A715
  8
0
 10
3375.1961075133340273
 20
155.9209696754872994
 30
0.0
 11
3375.1897737334188605
 21
155.9642361800941046
 31
0.0
  0
LINE
  5
1A716
  8
0
 10
3374.0201279075331513
 20
119.9820861080940944
 30
0.0
 11
3375.3587105847332168
 21
119.9820861080940944
 31
0.0
  0
LINE
  5
1A717
  8
0
 10
3374.0004428682332218
 20
119.245865635694102
 30
0.0
 11
3374.5319389312330713
 21
119.245865635694102
 31
0.0
  0
LINE
  5
1A718
  8
0
 10
3374.8468995611328864
 20
119.245865635694102
 30
0.0
 11
3375.3783956241341002
 21
119.245865635694102
 31
0.0
  0
LINE
  5
1A719
  8
0
 10
3373.9807578288341574
 20
119.1868105174940951
 30
0.0
 11
3374.5319389312330713
 21
119.1868105174940951
 31
0.0
  0
LINE
  5
1A71A
  8
0
 10
3374.8468995611328864
 20
119.1868105174940951
 30
0.0
 11
3375.3980806634331202
 21
119.1868105174940951
 31
0.0
  0
LINE
  5
1A71B
  8
0
 10
3375.1815452304340397
 20
116.8246057930940935
 30
0.0
 11
3374.1972932619328276
 21
116.8246057930940935
 31
0.0
  0
LINE
  5
1A71C
  8
0
 10
3374.1972932619328276
 20
116.8246057930940935
 30
0.0
 11
3374.1972932623339148
 21
117.4863988033940956
 31
0.0
  0
CIRCLE
  5
1A71D
  8
0
 10
3374.6894192461331841
 20
118.0844483127940947
 30
0.0
 40
0.7480314961000003
  0
ARC
  5
1A71E
  8
0
 10
3374.1150939880790247
 20
117.485487730630993
 30
0.0
 40
0.0822043227317434
 50
0.6350236963238457
 51
40.7381223156916334
  0
CIRCLE
  5
1A71F
  8
0
 10
3374.6894192461331841
 20
118.0844483127940947
 30
0.0
 40
0.2795275590999999
  0
LINE
  5
1A720
  8
0
 10
3373.9807578288341574
 20
119.1868105174940951
 30
0.0
 11
3373.9807561309330595
 21
118.3361662808440968
 31
0.0
  0
ARC
  5
1A721
  8
0
 10
3373.9014071104879804
 20
118.3361664392261048
 30
0.0
 40
0.0793490204448446
 50
345.5335839895304844
 51
359.9998856366742075
  0
ARC
  5
1A722
  8
0
 10
3374.0201279075167804
 20
119.9624010688107063
 30
0.0
 40
0.0196850392833668
 50
89.9999964588508163
 51
180.0000003394767987
  0
LINE
  5
1A723
  8
0
 10
3374.0004428682332218
 20
119.9624010686941062
 30
0.0
 11
3374.0004428682332218
 21
119.245865635694102
 31
0.0
  0
LINE
  5
1A724
  8
0
 10
3374.0988680650330025
 20
119.245865635694102
 30
0.0
 11
3374.0988680650330025
 21
119.1868105174940951
 31
0.0
  0
LINE
  5
1A725
  8
0
 10
3374.5319389312330713
 20
118.8157156568940991
 30
0.0
 11
3374.5319389311330269
 21
119.5923223285916066
 31
0.0
  0
ARC
  5
1A726
  8
0
 10
3374.5516239704338659
 20
119.5923223285940935
 30
0.0
 40
0.0196850393000032
 50
89.9999906860038266
 51
180.0000000073785031
  0
LINE
  5
1A727
  8
0
 10
3374.5516239736330135
 20
119.612007367894094
 30
0.0
 11
3374.8272145186338093
 21
119.6120073230941045
 31
0.0
  0
ARC
  5
1A728
  8
0
 10
3374.8272145154328427
 20
119.5923222773941035
 30
0.0
 40
0.0196850457000688
 50
0.0001490240413843
 51
89.9999906860038266
  0
LINE
  5
1A729
  8
0
 10
3374.8468995611328864
 20
119.5923223285940935
 30
0.0
 11
3374.846901581057864
 21
118.8157146345564996
 31
0.0
  0
LINE
  5
1A72A
  8
0
 10
3374.4598542109338268
 20
119.245865635694102
 30
0.0
 11
3374.4598544047748874
 21
119.8364162683433989
 31
0.0
  0
LINE
  5
1A72B
  8
0
 10
3374.4598544047748874
 20
119.8364162683433989
 30
0.0
 11
3374.9189838637357752
 21
119.8364168167940988
 31
0.0
  0
LINE
  5
1A72C
  8
0
 10
3374.9189838637357752
 20
119.8364168167940988
 30
0.0
 11
3374.918984281332996
 21
119.245865635694102
 31
0.0
  0
ARC
  5
1A72D
  8
0
 10
3374.689419910207107
 20
119.1868394874402952
 30
0.0
 40
0.688948703150434
 50
70.5362983686167411
 51
109.4638057692330051
  0
LINE
  5
1A72E
  8
0
 10
3375.2799704272338204
 20
119.245865635694102
 30
0.0
 11
3375.2799704272338204
 21
119.1868105174940951
 31
0.0
  0
LINE
  5
1A72F
  8
0
 10
3375.1815452304340397
 20
116.8246057930940935
 30
0.0
 11
3375.1815452304340397
 21
117.4863988033940956
 31
0.0
  0
ARC
  5
1A730
  8
0
 10
3375.2604703460860947
 20
117.4863988033940956
 30
0.0
 40
0.0789251156527486
 50
135.7525771785622055
 51
180.0
  0
ARC
  5
1A731
  8
0
 10
3375.3587105847332168
 20
119.9624010686941062
 30
0.0
 40
0.0196850394000041
 50
0.0000000000097707
 51
90.0000032016772309
  0
LINE
  5
1A732
  8
0
 10
3375.3783956241341002
 20
119.9624010686941062
 30
0.0
 11
3375.3783956241341002
 21
119.245865635694102
 31
0.0
  0
LINE
  5
1A733
  8
0
 10
3375.3980806634331202
 20
119.1868105174940951
 30
0.0
 11
3375.3980805877331477
 21
118.3365405027940938
 31
0.0
  0
ARC
  5
1A734
  8
0
 10
3375.4790836210609086
 20
118.3365404955822981
 30
0.0
 40
0.0810030333272852
 50
179.9999948989251948
 51
194.9030224057628971
  0
LINE
  5
1A735
  8
0
 10
3374.2333820526328054
 20
116.8246057930940935
 30
0.0
 11
3374.2333820526328054
 21
116.5687002812940989
 31
0.0
  0
LINE
  5
1A736
  8
0
 10
3374.2333820526328054
 20
116.5687002812940989
 30
0.0
 11
3374.3744586162338237
 21
116.5687002812940989
 31
0.0
  0
LINE
  5
1A737
  8
0
 10
3375.0043798760329992
 20
116.5687002812940989
 30
0.0
 11
3375.1454564396331079
 21
116.5687002812940989
 31
0.0
  0
LINE
  5
1A738
  8
0
 10
3375.1454564396331079
 20
116.5687002812940989
 30
0.0
 11
3375.1454564396331079
 21
116.8246057930940935
 31
0.0
  0
LINE
  5
1A739
  8
0
 10
3374.2465058603338548
 20
116.5687002812940989
 30
0.0
 11
3374.2465058603338548
 21
116.4879916198941032
 31
0.0
  0
ARC
  5
1A73A
  8
0
 10
3374.2760334194331335
 20
116.4879916198941032
 30
0.0
 40
0.0295275590999999
 50
180.0
 51
269.9999998059677182
  0
LINE
  5
1A73B
  8
0
 10
3374.2760334193339986
 20
116.4584640607940997
 30
0.0
 11
3374.3744586162338237
 21
116.4584640604607984
 31
0.0
  0
LINE
  5
1A73C
  8
0
 10
3375.0043798760329992
 20
116.4584640583273938
 30
0.0
 11
3375.1028050729328243
 21
116.4584640579941066
 31
0.0
  0
ARC
  5
1A73D
  8
0
 10
3375.1028050730337782
 20
116.4879916168941065
 30
0.0
 40
0.0295275589000017
 50
269.9999998059677182
 51
0.0000058212003842
  0
LINE
  5
1A73E
  8
0
 10
3375.1323326319338776
 20
116.4879916198941032
 30
0.0
 11
3375.1323326237338733
 21
116.5687002812940989
 31
0.0
  0
LINE
  5
1A73F
  8
0
 10
3374.3744586162338237
 20
116.8246057930940935
 30
0.0
 11
3374.3744586162338237
 21
116.3521648482940947
 31
0.0
  0
LINE
  5
1A740
  8
0
 10
3375.0043798760329992
 20
116.8246057930940935
 30
0.0
 11
3375.0043798760329992
 21
116.3521648482940947
 31
0.0
  0
LINE
  5
1A741
  8
0
 10
3374.2344471486339899
 20
116.8246057930940935
 30
0.0
 11
3374.2344471486339899
 21
116.5687002812940989
 31
0.0
  0
LINE
  5
1A742
  8
0
 10
3374.2397601965330978
 20
116.8246057930940935
 30
0.0
 11
3374.2397601965330978
 21
116.5687002812940989
 31
0.0
  0
LINE
  5
1A743
  8
0
 10
3374.2492715898338247
 20
116.8246057930940935
 30
0.0
 11
3374.2492715898338247
 21
116.5687002812940989
 31
0.0
  0
LINE
  5
1A744
  8
0
 10
3374.2628925231338144
 20
116.8246057930940935
 30
0.0
 11
3374.2628925231338144
 21
116.5687002812940989
 31
0.0
  0
LINE
  5
1A745
  8
0
 10
3374.2804958216329396
 20
116.8246057930940935
 30
0.0
 11
3374.2804958216329396
 21
116.5687002812940989
 31
0.0
  0
LINE
  5
1A746
  8
0
 10
3374.301917127933848
 20
116.8246057930940935
 30
0.0
 11
3374.301917127933848
 21
116.5687002812940989
 31
0.0
  0
LINE
  5
1A747
  8
0
 10
3374.3249086756341057
 20
116.8246057930940935
 30
0.0
 11
3374.3249086756341057
 21
116.5687002812940989
 31
0.0
  0
LINE
  5
1A748
  8
0
 10
3374.3269564370330045
 20
116.8246057930940935
 30
0.0
 11
3374.3269564370330045
 21
116.5687002812940989
 31
0.0
  0
LINE
  5
1A749
  8
0
 10
3374.35089358253299
 20
116.8246057930940935
 30
0.0
 11
3374.35089358253299
 21
116.5687002812940989
 31
0.0
  0
LINE
  5
1A74A
  8
0
 10
3374.355379963833002
 20
116.8246057930940935
 30
0.0
 11
3374.355379963833002
 21
116.5687002812940989
 31
0.0
  0
LINE
  5
1A74B
  8
0
 10
3375.1443913437337869
 20
116.8246057930940935
 30
0.0
 11
3375.1443913437337869
 21
116.5687002812940989
 31
0.0
  0
LINE
  5
1A74C
  8
0
 10
3375.13907829583286
 20
116.8246057930940935
 30
0.0
 11
3375.13907829583286
 21
116.5687002812940989
 31
0.0
  0
LINE
  5
1A74D
  8
0
 10
3375.1295669025330426
 20
116.8246057930940935
 30
0.0
 11
3375.1295669025330426
 21
116.5687002812940989
 31
0.0
  0
LINE
  5
1A74E
  8
0
 10
3375.1159459692330529
 20
116.8246057930940935
 30
0.0
 11
3375.1159459692330529
 21
116.5687002812940989
 31
0.0
  0
LINE
  5
1A74F
  8
0
 10
3375.0983426707330182
 20
116.8246057930940935
 30
0.0
 11
3375.0983426707330182
 21
116.5687002812940989
 31
0.0
  0
LINE
  5
1A750
  8
0
 10
3375.0769213644339288
 20
116.8246057930940935
 30
0.0
 11
3375.0769213644339288
 21
116.5687002812940989
 31
0.0
  0
LINE
  5
1A751
  8
0
 10
3375.0539298167332163
 20
116.8246057930940935
 30
0.0
 11
3375.0539298167332163
 21
116.5687002812940989
 31
0.0
  0
LINE
  5
1A752
  8
0
 10
3375.0518820553329533
 20
116.8246057930940935
 30
0.0
 11
3375.0518820553329533
 21
116.5687002812940989
 31
0.0
  0
LINE
  5
1A753
  8
0
 10
3375.0279449098338773
 20
116.8246057930940935
 30
0.0
 11
3375.0279449098338773
 21
116.5687002812940989
 31
0.0
  0
LINE
  5
1A754
  8
0
 10
3375.0234585285329558
 20
116.8246057930940935
 30
0.0
 11
3375.0234585285329558
 21
116.5687002812940989
 31
0.0
  0
LINE
  5
1A755
  8
0
 10
3374.2583168839328209
 20
116.3521648481941071
 30
0.0
 11
3375.1205216083340019
 21
116.3521648482940947
 31
0.0
  0
ARC
  5
1A756
  8
0
 10
3375.1205216083340019
 20
116.340353824695498
 30
0.0
 40
0.0118110235986286
 50
359.9999995082521878
 51
90.0000000066440435
  0
LINE
  5
1A757
  8
0
 10
3375.1323326319338776
 20
116.3403538245941036
 30
0.0
 11
3375.1323326300080225
 21
116.1159443757941006
 31
0.0
  0
LINE
  5
1A758
  8
0
 10
3375.1454564396331079
 20
116.1159443757941006
 30
0.0
 11
3374.2333820526328054
 21
116.1159443757941006
 31
0.0
  0
LINE
  5
1A759
  8
0
 10
3374.2333820526328054
 20
116.1159443757941006
 30
0.0
 11
3374.2333820526328054
 21
115.820668785294103
 31
0.0
  0
LINE
  5
1A75A
  8
0
 10
3374.2333820526328054
 20
115.820668785294103
 30
0.0
 11
3375.1454564396331079
 21
115.820668785294103
 31
0.0
  0
LINE
  5
1A75B
  8
0
 10
3375.1454564396331079
 20
115.820668785294103
 30
0.0
 11
3375.1454564396331079
 21
116.1159443757941006
 31
0.0
  0
ARC
  5
1A75C
  8
0
 10
3374.2583168839328209
 20
116.3403538245941036
 30
0.0
 40
0.0118110236
 50
90.0
 51
180.0
  0
LINE
  5
1A75D
  8
0
 10
3374.2465058603338548
 20
116.3403538245941036
 30
0.0
 11
3374.2465058603338548
 21
116.1159443757941006
 31
0.0
  0
LINE
  5
1A75E
  8
0
 10
3374.2465058603338548
 20
115.820668785294103
 30
0.0
 11
3374.2465058602338104
 21
115.7399601238306985
 31
0.0
  0
ARC
  5
1A75F
  8
0
 10
3374.2760334192339542
 20
115.7399601237941056
 30
0.0
 40
0.029527558999999
 50
179.99999992900959
 51
270.0000001940323955
  0
LINE
  5
1A760
  8
0
 10
3374.2760334193339986
 20
115.7104325647941039
 30
0.0
 11
3375.1028050729300958
 21
115.710432567594097
 31
0.0
  0
ARC
  5
1A761
  8
0
 10
3375.1028050728300514
 20
115.7399601267976976
 30
0.0
 40
0.0295275592035722
 50
270.0000001940323955
 51
359.9999941717646834
  0
LINE
  5
1A762
  8
0
 10
3375.1323326320330125
 20
115.7399601237941056
 30
0.0
 11
3375.1323326402430212
 21
115.820668785294103
 31
0.0
  0
LINE
  5
1A763
  8
0
 10
3375.1443913436341973
 20
115.820668785294103
 30
0.0
 11
3375.1443913436341973
 21
116.1159443757941006
 31
0.0
  0
LINE
  5
1A764
  8
0
 10
3375.1390782957328156
 20
115.820668785294103
 30
0.0
 11
3375.1390782957328156
 21
116.1159443757941006
 31
0.0
  0
LINE
  5
1A765
  8
0
 10
3375.1295669024329982
 20
115.820668785294103
 30
0.0
 11
3375.1295669024329982
 21
116.1159443757941006
 31
0.0
  0
LINE
  5
1A766
  8
0
 10
3375.1159459691330085
 20
115.820668785294103
 30
0.0
 11
3375.1159459691330085
 21
116.1159443757941006
 31
0.0
  0
LINE
  5
1A767
  8
0
 10
3375.0983426706338832
 20
115.820668785294103
 30
0.0
 11
3375.0983426706338832
 21
116.1159443757941006
 31
0.0
  0
LINE
  5
1A768
  8
0
 10
3375.0769213644339288
 20
115.820668785294103
 30
0.0
 11
3375.0769213644339288
 21
116.1159443757941006
 31
0.0
  0
LINE
  5
1A769
  8
0
 10
3375.0539298166331719
 20
115.820668785294103
 30
0.0
 11
3375.0539298166331719
 21
116.1159443757941006
 31
0.0
  0
LINE
  5
1A76A
  8
0
 10
3375.0518820552338184
 20
115.820668785294103
 30
0.0
 11
3375.0518820552338184
 21
116.1159443757941006
 31
0.0
  0
LINE
  5
1A76B
  8
0
 10
3375.0279449097338329
 20
115.820668785294103
 30
0.0
 11
3375.0279449097338329
 21
116.1159443757941006
 31
0.0
  0
LINE
  5
1A76C
  8
0
 10
3375.0234585285329558
 20
115.820668785294103
 30
0.0
 11
3375.0234585285329558
 21
116.1159443757941006
 31
0.0
  0
LINE
  5
1A76D
  8
0
 10
3374.9987992799328822
 20
115.820668785294103
 30
0.0
 11
3374.9987992799328822
 21
116.1159443757941006
 31
0.0
  0
LINE
  5
1A76E
  8
0
 10
3374.991916167033196
 20
115.820668785294103
 30
0.0
 11
3374.991916167033196
 21
116.1159443757941006
 31
0.0
  0
LINE
  5
1A76F
  8
0
 10
3374.9667650521328142
 20
115.820668785294103
 30
0.0
 11
3374.9667650521328142
 21
116.1159443757941006
 31
0.0
  0
LINE
  5
1A770
  8
0
 10
3374.9575494732330299
 20
115.820668785294103
 30
0.0
 11
3374.9575494732330299
 21
116.1159443757941006
 31
0.0
  0
LINE
  5
1A771
  8
0
 10
3374.9321413212342122
 20
115.820668785294103
 30
0.0
 11
3374.9321413212342122
 21
116.1159443757941006
 31
0.0
  0
LINE
  5
1A772
  8
0
 10
3374.9206793197331535
 20
115.820668785294103
 30
0.0
 11
3374.9206793197331535
 21
116.1159443757941006
 31
0.0
  0
LINE
  5
1A773
  8
0
 10
3374.8952513597328107
 20
115.820668785294103
 30
0.0
 11
3374.8952513597328107
 21
116.1159443757941006
 31
0.0
  0
LINE
  5
1A774
  8
0
 10
3374.8816499533340902
 20
115.820668785294103
 30
0.0
 11
3374.8816499533340902
 21
116.1159443757941006
 31
0.0
  0
LINE
  5
1A775
  8
0
 10
3374.8564395992329992
 20
115.820668785294103
 30
0.0
 11
3374.8564395992329992
 21
116.1159443757941006
 31
0.0
  0
LINE
  5
1A776
  8
0
 10
3374.8408257805331232
 20
115.820668785294103
 30
0.0
 11
3374.8408257805331232
 21
116.1159443757941006
 31
0.0
  0
LINE
  5
1A777
  8
0
 10
3374.8160684147342181
 20
115.820668785294103
 30
0.0
 11
3374.8160684147342181
 21
116.1159443757941006
 31
0.0
  0
LINE
  5
1A778
  8
0
 10
3374.798587965733077
 20
115.820668785294103
 30
0.0
 11
3374.798587965733077
 21
116.1159443757941006
 31
0.0
  0
LINE
  5
1A779
  8
0
 10
3374.7745147410341815
 20
115.820668785294103
 30
0.0
 11
3374.7745147410341815
 21
116.1159443757941006
 31
0.0
  0
LINE
  5
1A77A
  8
0
 10
3374.7553308720330278
 20
115.820668785294103
 30
0.0
 11
3374.7553308720330278
 21
116.1159443757941006
 31
0.0
  0
LINE
  5
1A77B
  8
0
 10
3374.732166553632851
 20
115.820668785294103
 30
0.0
 11
3374.732166553632851
 21
116.1159443757941006
 31
0.0
  0
LINE
  5
1A77C
  8
0
 10
3374.7114583792331359
 20
115.820668785294103
 30
0.0
 11
3374.7114583792331359
 21
116.1159443757941006
 31
0.0
  0
LINE
  5
1A77D
  8
0
 10
3374.6894192461331841
 20
115.820668785294103
 30
0.0
 11
3374.6894192461331841
 21
116.1159443757941006
 31
0.0
  0
LINE
  5
1A77E
  8
0
 10
3374.6673801130341417
 20
115.820668785294103
 30
0.0
 11
3374.6673801130341417
 21
116.1159443757941006
 31
0.0
  0
LINE
  5
1A77F
  8
0
 10
3374.6466719386330624
 20
115.820668785294103
 30
0.0
 11
3374.6466719386330624
 21
116.1159443757941006
 31
0.0
  0
LINE
  5
1A780
  8
0
 10
3374.6235076202328855
 20
115.820668785294103
 30
0.0
 11
3374.6235076202328855
 21
116.1159443757941006
 31
0.0
  0
LINE
  5
1A781
  8
0
 10
3374.6043237512330961
 20
115.820668785294103
 30
0.0
 11
3374.6043237512330961
 21
116.1159443757941006
 31
0.0
  0
LINE
  5
1A782
  8
0
 10
3374.5802505265328364
 20
115.820668785294103
 30
0.0
 11
3374.5802505265328364
 21
116.1159443757941006
 31
0.0
  0
LINE
  5
1A783
  8
0
 10
3374.5627700775330595
 20
115.820668785294103
 30
0.0
 11
3374.5627700775330595
 21
116.1159443757941006
 31
0.0
  0
LINE
  5
1A784
  8
0
 10
3374.5380127117341544
 20
115.820668785294103
 30
0.0
 11
3374.5380127117341544
 21
116.1159443757941006
 31
0.0
  0
LINE
  5
1A785
  8
0
 10
3374.5223988930329142
 20
115.820668785294103
 30
0.0
 11
3374.5223988930329142
 21
116.1159443757941006
 31
0.0
  0
LINE
  5
1A786
  8
0
 10
3374.4971885389340969
 20
115.820668785294103
 30
0.0
 11
3374.4971885389340969
 21
116.1159443757941006
 31
0.0
  0
LINE
  5
1A787
  8
0
 10
3374.4835871325331027
 20
115.820668785294103
 30
0.0
 11
3374.4835871325331027
 21
116.1159443757941006
 31
0.0
  0
LINE
  5
1A788
  8
0
 10
3374.4581591725332146
 20
115.820668785294103
 30
0.0
 11
3374.4581591725332146
 21
116.1159443757941006
 31
0.0
  0
LINE
  5
1A789
  8
0
 10
3374.4466971710330654
 20
115.820668785294103
 30
0.0
 11
3374.4466971710330654
 21
116.1159443757941006
 31
0.0
  0
LINE
  5
1A78A
  8
0
 10
3374.4212890190328835
 20
115.820668785294103
 30
0.0
 11
3374.4212890190328835
 21
116.1159443757941006
 31
0.0
  0
LINE
  5
1A78B
  8
0
 10
3374.4120734401330992
 20
115.820668785294103
 30
0.0
 11
3374.4120734401330992
 21
116.1159443757941006
 31
0.0
  0
LINE
  5
1A78C
  8
0
 10
3374.3869223253341261
 20
115.820668785294103
 30
0.0
 11
3374.3869223253341261
 21
116.1159443757941006
 31
0.0
  0
LINE
  5
1A78D
  8
0
 10
3374.3800392123330312
 20
115.820668785294103
 30
0.0
 11
3374.3800392123330312
 21
116.1159443757941006
 31
0.0
  0
LINE
  5
1A78E
  8
0
 10
3374.355379963833002
 20
115.820668785294103
 30
0.0
 11
3374.355379963833002
 21
116.1159443757941006
 31
0.0
  0
LINE
  5
1A78F
  8
0
 10
3374.35089358253299
 20
115.820668785294103
 30
0.0
 11
3374.35089358253299
 21
116.1159443757941006
 31
0.0
  0
LINE
  5
1A790
  8
0
 10
3374.3269564370330045
 20
115.820668785294103
 30
0.0
 11
3374.3269564370330045
 21
116.1159443757941006
 31
0.0
  0
LINE
  5
1A791
  8
0
 10
3374.3249086756341057
 20
115.820668785294103
 30
0.0
 11
3374.3249086756341057
 21
116.1159443757941006
 31
0.0
  0
LINE
  5
1A792
  8
0
 10
3374.301917127933848
 20
115.820668785294103
 30
0.0
 11
3374.301917127933848
 21
116.1159443757941006
 31
0.0
  0
LINE
  5
1A793
  8
0
 10
3374.2804958216329396
 20
115.820668785294103
 30
0.0
 11
3374.2804958216329396
 21
116.1159443757941006
 31
0.0
  0
LINE
  5
1A794
  8
0
 10
3374.2628925231338144
 20
115.820668785294103
 30
0.0
 11
3374.2628925231338144
 21
116.1159443757941006
 31
0.0
  0
LINE
  5
1A795
  8
0
 10
3374.2492715898338247
 20
115.820668785294103
 30
0.0
 11
3374.2492715898338247
 21
116.1159443757941006
 31
0.0
  0
LINE
  5
1A796
  8
0
 10
3374.2397601965330978
 20
115.820668785294103
 30
0.0
 11
3374.2397601965330978
 21
116.1159443757941006
 31
0.0
  0
LINE
  5
1A797
  8
0
 10
3374.2344471486339899
 20
115.820668785294103
 30
0.0
 11
3374.2344471486339899
 21
116.1159443757941006
 31
0.0
  0
LINE
  5
1A798
  8
0
 10
3374.4138286949341818
 20
115.7104325652608026
 30
0.0
 11
3374.4138286949341818
 21
107.590855142281498
 31
0.0
  0
LINE
  5
1A799
  8
0
 10
3374.9650097973330958
 20
115.7104325671273983
 30
0.0
 11
3374.9650097973330958
 21
107.5863026410308976
 31
0.0
  0
ARC
  5
1A79A
  8
0
 10
3374.68944107283005
 20
107.5912214967127056
 30
0.0
 40
0.2756126213828354
 50
180.0761596794411048
 51
358.9773885081608
  0
ENDSEC
  0
EOF
