  0
SECTION
  2
HEADER
  9
$ACADVER
  1
AC1009
  9
$INSBASE
 10
3044.8464772081069896
 20
144.0829109171286859
 30
0.0
  9
$EXTMIN
 10
3039.9652571256360716
 20
140.530897399259203
 30
-0.0000000000112498
  9
$EXTMAX
 10
3044.8580514988648247
 20
147.6361762526076973
 30
0.0000000000002956
  9
$LIMMIN
 10
0.0
 20
0.0
  9
$LIMMAX
 10
11.6929133858000007
 20
8.2677165353999982
  9
$ORTHOMODE
 70
     0
  9
$REGENMODE
 70
     1
  9
$FILLMODE
 70
     1
  9
$QTEXTMODE
 70
     0
  9
$MIRRTEXT
 70
     0
  9
$DRAGMODE
 70
     2
  9
$LTSCALE
 40
0.6431102362
  9
$OSMODE
 70
   575
  9
$ATTMODE
 70
     1
  9
$TEXTSIZE
 40
0.2
  9
$TRACEWID
 40
0.05
  9
$TEXTSTYLE
  7
STANDARD
  9
$CLAYER
  8
0
  9
$CELTYPE
  6
BYLAYER
  9
$CECOLOR
 62
   256
  9
$DIMSCALE
 40
1.0
  9
$DIMASZ
 40
0.1875
  9
$DIMEXO
 40
0.0625
  9
$DIMDLI
 40
0.4443307087
  9
$DIMRND
 40
0.0
  9
$DIMDLE
 40
0.0
  9
$DIMEXE
 40
0.125
  9
$DIMTP
 40
0.01
  9
$DIMTM
 40
0.01
  9
$DIMTXT
 40
2.0
  9
$DIMCEN
 40
0.1052362205
  9
$DIMTSZ
 40
0.0
  9
$DIMTOL
 70
     1
  9
$DIMLIM
 70
     0
  9
$DIMTIH
 70
     1
  9
$DIMTOH
 70
     1
  9
$DIMSE1
 70
     0
  9
$DIMSE2
 70
     0
  9
$DIMTAD
 70
     0
  9
$DIMZIN
 70
     0
  9
$DIMBLK
  1

  9
$DIMASO
 70
     1
  9
$DIMSHO
 70
     1
  9
$DIMPOST
  1
\X
  9
$DIMAPOST
  1

  9
$DIMALT
 70
     1
  9
$DIMALTD
 70
     2
  9
$DIMALTF
 40
25.3999999999999986
  9
$DIMLFAC
 40
1.0
  9
$DIMTOFL
 70
     0
  9
$DIMTVP
 40
0.0
  9
$DIMTIX
 70
     0
  9
$DIMSOXD
 70
     0
  9
$DIMSAH
 70
     0
  9
$DIMBLK1
  1

  9
$DIMBLK2
  1

  9
$DIMSTYLE
  2
STANDARD
  9
$DIMCLRD
 70
     0
  9
$DIMCLRE
 70
     0
  9
$DIMCLRT
 70
     0
  9
$DIMTFAC
 40
1.0
  9
$DIMGAP
 40
0.09
  9
$LUNITS
 70
     2
  9
$LUPREC
 70
     4
  9
$SKETCHINC
 40
0.1
  9
$FILLETRAD
 40
0.0
  9
$AUNITS
 70
     0
  9
$AUPREC
 70
     0
  9
$MENU
  1
.
  9
$ELEVATION
 40
0.0
  9
$PELEVATION
 40
0.0
  9
$THICKNESS
 40
0.0
  9
$LIMCHECK
 70
     0
  9
$BLIPMODE
 70
     0
  9
$CHAMFERA
 40
0.0
  9
$CHAMFERB
 40
0.0
  9
$SKPOLY
 70
     0
  9
$TDCREATE
 40
2458060.468368056230247
  9
$TDUPDATE
 40
2459540.0757060190662742
  9
$TDINDWG
 40
0.6672640046
  9
$TDUSRTIMER
 40
0.6672640046
  9
$USRTIMER
 70
     1
  9
$ANGBASE
 50
0.0
  9
$ANGDIR
 70
     0
  9
$PDMODE
 70
     0
  9
$PDSIZE
 40
0.3125
  9
$PLINEWID
 40
0.0
  9
$COORDS
 70
     1
  9
$SPLFRAME
 70
     0
  9
$SPLINETYPE
 70
     6
  9
$SPLINESEGS
 70
     8
  9
$ATTDIA
 70
     1
  9
$ATTREQ
 70
     1
  9
$HANDLING
 70
     1
  9
$HANDSEED
  5
2D8B2
  9
$SURFTAB1
 70
     6
  9
$SURFTAB2
 70
     6
  9
$SURFTYPE
 70
     6
  9
$SURFU
 70
     6
  9
$SURFV
 70
     6
  9
$UCSNAME
  2

  9
$UCSORG
 10
0.0
 20
0.0
 30
0.0
  9
$UCSXDIR
 10
1.0
 20
0.0
 30
0.0
  9
$UCSYDIR
 10
0.0
 20
1.0
 30
0.0
  9
$PUCSNAME
  2

  9
$PUCSORG
 10
0.0
 20
0.0
 30
0.0
  9
$PUCSXDIR
 10
1.0
 20
0.0
 30
0.0
  9
$PUCSYDIR
 10
0.0
 20
1.0
 30
0.0
  9
$USERI1
 70
     0
  9
$USERI2
 70
     0
  9
$USERI3
 70
     0
  9
$USERI4
 70
     0
  9
$USERI5
 70
     0
  9
$USERR1
 40
0.0
  9
$USERR2
 40
0.0
  9
$USERR3
 40
0.0
  9
$USERR4
 40
0.0
  9
$USERR5
 40
0.0
  9
$WORLDVIEW
 70
     1
  9
$SHADEDGE
 70
     3
  9
$SHADEDIF
 70
    70
  9
$TILEMODE
 70
     1
  9
$MAXACTVP
 70
    64
  9
$PLIMCHECK
 70
     0
  9
$PEXTMIN
 10
1.0000000000000000E+20
 20
1.0000000000000000E+20
 30
1.0000000000000000E+20
  9
$PEXTMAX
 10
-1.0000000000000000E+20
 20
-1.0000000000000000E+20
 30
-1.0000000000000000E+20
  9
$PLIMMIN
 10
0.0
 20
0.0
  9
$PLIMMAX
 10
12.0
 20
9.0
  9
$UNITMODE
 70
     0
  9
$VISRETAIN
 70
     1
  9
$PLINEGEN
 70
     0
  9
$PSLTSCALE
 70
     1
  0
ENDSEC
  0
SECTION
  2
TABLES
  0
TABLE
  2
VPORT
 70
     1
  0
VPORT
  2
*ACTIVE
 70
     0
 10
0.0
 20
0.0
 11
1.0
 21
1.0
 12
-261.281460989302218
 22
-51.1779747773273499
 13
0.0
 23
0.0
 14
1.0
 24
1.0
 15
0.0
 25
0.0
 16
0.0
 26
0.0
 36
96.5995694866707311
 17
3303.693115234375
 27
195.2615115758877096
 37
0.0
 40
8.6731353853846826
 41
2.2779411764705881
 42
50.0
 43
0.0
 44
0.0
 50
0.0
 51
0.0
 71
     0
 72
   100
 73
     1
 74
     1
 75
     0
 76
     0
 77
     0
 78
     0
  0
ENDTAB
  0
TABLE
  2
LTYPE
 70
     2
  0
LTYPE
  2
CONTINUOUS
 70
     0
  3
Solid line
 72
    65
 73
     0
 40
0.0
  0
LTYPE
  2
PHANTOM2
 70
     0
  3
___ _ _ ___ _ _ ___ _ _ ___ _ _
 72
    65
 73
     6
 40
1.25
 49
0.625
 49
-0.125
 49
0.125
 49
-0.125
 49
0.125
 49
-0.125
  0
ENDTAB
  0
TABLE
  2
LAYER
 70
     2
  0
LAYER
  2
0
 70
     0
 62
   255
  6
CONTINUOUS
  0
LAYER
  2
DEFPOINTS
 70
     0
 62
     7
  6
CONTINUOUS
  0
ENDTAB
  0
TABLE
  2
STYLE
 70
     1
  0
STYLE
  2
STANDARD
 70
     0
 40
0.0
 41
0.8
 50
0.0
 71
     0
 42
0.2
  3
txt
  4

  0
ENDTAB
  0
TABLE
  2
VIEW
 70
     0
  0
ENDTAB
  0
TABLE
  2
UCS
 70
     0
  0
ENDTAB
  0
TABLE
  2
APPID
 70
     9
  0
APPID
  2
ACAD
 70
     0
  0
APPID
  2
ACAD_MLEADERVER
 70
     0
  0
APPID
  2
ACAD_EXEMPT_FROM_CAD_STANDARDS
 70
     0
  0
APPID
  2
ACAD_NAV_VCDISPLAY
 70
     0
  0
APPID
  2
ACAECLAYERSTANDARD
 70
     0
  0
APPID
  2
ACCMTRANSPARENCY
 70
     0
  0
APPID
  2
ACAD_DSTYLE_DIMJAG
 70
     0
  0
APPID
  2
ACAD_DSTYLE_DIMTALN
 70
     0
  0
APPID
  2
ACDBATTR
 70
     0
  0
ENDTAB
  0
TABLE
  2
DIMSTYLE
 70
     1
  0
DIMSTYLE
  2
STANDARD
 70
     0
  3

  4

  5

  6

  7

 40
1.0
 41
0.1875
 42
0.0625
 43
0.38
 44
0.125
 45
0.0
 46
0.0
 47
0.01
 48
0.01
140
0.15625
141
0.09
142
0.0
143
25.3999999999999986
144
1.0
145
0.0
146
1.0
147
0.09
 71
     1
 72
     0
 73
     1
 74
     1
 75
     0
 76
     0
 77
     0
 78
     4
170
     0
171
     2
172
     0
173
     0
174
     0
175
     0
176
     0
177
     0
178
     0
  0
ENDTAB
  0
ENDSEC
  0
SECTION
  2
BLOCKS
  0
BLOCK
  8
0
  2
$MODEL_SPACE
 70
     0
 10
0.0
 20
0.0
 30
0.0
  3
$MODEL_SPACE
  1

  0
ENDBLK
  5
21
  8
0
  0
BLOCK
 67
     1
  8
0
  2
$PAPER_SPACE
 70
     0
 10
0.0
 20
0.0
 30
0.0
  3
$PAPER_SPACE
  1

  0
ENDBLK
  5
1D
 67
     1
  8
0
  0
ENDSEC
  0
SECTION
  2
ENTITIES
  0
ATTDEF
  5
28FC7
  8
DEFPOINTS
 10
3044.8466037237599267
 20
144.0863668142933989
 30
0.0
 40
0.001
  1
K-11678T-4V
  3

  2
MODELNUMBER
 70
     0
1001
ACDBATTR
1070
     0
1070
     1
  0
ATTDEF
  5
28FC8
  8
DEFPOINTS
 10
3044.8466037237599267
 20
144.0847001476267906
 30
0.0
 40
0.001
  1
MEMOIRS 
  3

  2
TRADENAME
 70
     0
1001
ACDBATTR
1070
     0
1070
     1
  0
ATTDEF
  5
28FC9
  8
DEFPOINTS
 10
3044.8466037237599267
 20
144.083033480960097
 30
0.0
 40
0.001
  1
SHOWER TRIM
  3

  2
PRODUCT
 70
     0
1001
ACDBATTR
1070
     0
1070
     1
  0
LINE
  5
2D768
  8
0
 10
3044.8289876534067844
 20
140.5402145791859994
 30
0.0
 11
3044.8464772081069896
 21
140.5396038306859907
 31
0.0
  0
LINE
  5
2D769
  8
0
 10
3040.1778596266972272
 20
142.3960882151322949
 30
0.0
 11
3040.2761997589068415
 21
142.2966007777860113
 31
0.0
  0
LINE
  5
2D76A
  8
0
 10
3040.3131205571071405
 20
145.3167608442859944
 30
0.0
 11
3040.3131205635068
 21
144.7850647875860091
 31
0.0
  0
LINE
  5
2D76B
  8
0
 10
3040.8644852679071846
 20
142.2906606657859925
 30
0.0
 11
3040.2904236666067845
 21
142.2906606657859925
 31
0.0
  0
LINE
  5
2D76C
  8
0
 10
3044.1720932178059229
 20
141.293654527986007
 30
0.0
 11
3044.1804392179578826
 21
141.288787345526913
 31
0.0
  0
LINE
  5
2D76D
  8
0
 10
3041.2458000427068328
 20
144.6735421948860107
 30
0.0
 11
3041.2458000427068328
 21
145.4537994224859858
 31
0.0
  0
LINE
  5
2D76E
  8
0
 10
3041.2638000427068619
 20
145.4437035164860106
 30
0.0
 11
3041.2638000427068619
 21
144.6836098366858891
 31
0.0
  0
LINE
  5
2D76F
  8
0
 10
3044.1594152014067731
 20
141.3034581237859868
 30
0.0
 11
3044.1720932178059229
 21
141.293654527986007
 31
0.0
  0
LINE
  5
2D770
  8
0
 10
3041.5137998590889765
 20
145.4974105796270862
 30
0.0
 11
3041.5138000427059524
 21
145.4956023996859926
 31
0.0
  0
LINE
  5
2D771
  8
0
 10
3041.5138000427059524
 20
144.6317392276328064
 30
0.0
 11
3041.5138000427059524
 21
144.6299299498859909
 31
0.0
  0
LINE
  5
2D772
  8
0
 10
3041.5138000427059524
 20
144.8822016937859871
 30
0.0
 11
3041.5138000427059524
 21
144.8865670933859917
 31
0.0
  0
LINE
  5
2D773
  8
0
 10
3041.5138000427059524
 20
145.2407745239860049
 30
0.0
 11
3041.5138000427059524
 21
145.2451399234859934
 31
0.0
  0
LINE
  5
2D774
  8
0
 10
3044.0398315388069932
 20
143.8530408873859869
 30
0.0
 11
3044.0496740585072075
 21
143.8530408873859869
 31
0.0
  0
LINE
  5
2D775
  8
0
 10
3042.9763984679070745
 20
144.0991038795860106
 30
0.0
 11
3043.0256110663071922
 21
144.0991038795860106
 31
0.0
  0
LINE
  5
2D776
  8
0
 10
3043.0472646097068719
 20
144.0991038795860106
 30
0.0
 11
3044.0004614600070454
 21
144.0991038795860106
 31
0.0
  0
LINE
  5
2D777
  8
0
 10
3040.8787091755070833
 20
142.2966007777860113
 30
0.0
 11
3040.9771024352071436
 21
142.3961418719858898
 31
0.0
  0
LINE
  5
2D778
  8
0
 10
3043.0354535860069518
 20
144.1089463975860099
 30
0.0
 11
3043.0354535860069518
 21
146.0183818140860126
 31
0.0
  0
LINE
  5
2D779
  8
0
 10
3040.9559041372071988
 20
144.6735421948860107
 30
0.0
 11
3041.2458000427068328
 21
144.6735421948860107
 31
0.0
  0
LINE
  5
2D77A
  8
0
 10
3041.2458000427068328
 20
144.753670808685996
 30
0.0
 11
3041.2638000427068619
 21
144.753670808685996
 31
0.0
  0
LINE
  5
2D77B
  8
0
 10
3040.3331205572071667
 20
145.3367608444860082
 30
0.0
 11
3040.8559611111068079
 21
145.3367608436859939
 31
0.0
  0
LINE
  5
2D77C
  8
0
 10
3041.2458000427068328
 20
145.3736708086858869
 30
0.0
 11
3041.2638000427068619
 21
145.3736708086858869
 31
0.0
  0
LINE
  5
2D77D
  8
0
 10
3041.2458000427068328
 20
145.4537994224859858
 30
0.0
 11
3041.0328825984070136
 21
145.4537994224859858
 31
0.0
  0
LINE
  5
2D77E
  8
0
 10
3044.0004614600070454
 20
146.2349306327859892
 30
0.0
 11
3044.0004614600070454
 21
143.8924109845860073
 31
0.0
  0
LINE
  5
2D77F
  8
0
 10
3044.0590756333072022
 20
146.2738368257859918
 30
0.0
 11
3044.0590756333072022
 21
143.8525959610859957
 31
0.0
  0
LINE
  5
2D780
  8
0
 10
3044.1232740854070471
 20
146.2466016167207101
 30
0.0
 11
3044.1232740854070471
 21
143.8525959594859955
 31
0.0
  0
LINE
  5
2D781
  8
0
 10
3044.2278449226068915
 20
141.1948581668858935
 30
0.0
 11
3044.2278449226068915
 21
141.1991858012860064
 31
0.0
  0
LINE
  5
2D782
  8
0
 10
3044.2278440090608456
 20
141.2186130040618934
 30
0.0
 11
3044.2278449226068915
 21
146.9472172973858903
 31
0.0
  0
LINE
  5
2D783
  8
0
 10
3042.9763984679070745
 20
146.0282377377859859
 30
0.0
 11
3043.0256110663071922
 21
146.0282377377859859
 31
0.0
  0
LINE
  5
2D784
  8
0
 10
3043.0472646097068719
 20
146.0282377377859859
 30
0.0
 11
3044.0004614600070454
 21
146.0282377377859859
 31
0.0
  0
LINE
  5
2D785
  8
0
 10
3044.7105063941071421
 20
147.5186542141672987
 30
0.0
 11
3044.7105063941071421
 21
140.647167620004609
 31
0.0
  0
LINE
  5
2D786
  8
0
 10
3044.0398315388069932
 20
146.2743007299858959
 30
0.0
 11
3044.0496740585072075
 21
146.2743007299858959
 31
0.0
  0
LINE
  5
2D787
  8
0
 10
3044.8464772081069896
 20
140.5396038306859907
 30
0.0
 11
3044.8464772081069896
 21
147.6262180024860129
 31
0.0
  0
LINE
  5
2D788
  8
0
 10
3044.8284777887070049
 20
147.6255995103859959
 30
0.0
 11
3044.8464772081069896
 21
147.6262180024860129
 31
0.0
  0
ARC
  5
2D789
  8
0
 10
3040.3659816069598492
 20
138.8371683421881073
 30
0.0
 40
5.9053851868493998
 50
68.4463758488512184
 51
78.7921884962673715
  0
ARC
  5
2D78A
  8
0
 10
3040.3679892278009902
 20
138.8482222866678057
 30
0.0
 40
5.8941518411448763
 50
78.7904465196694161
 51
79.8816408407671048
  0
ARC
  5
2D78B
  8
0
 10
3042.4550439308068235
 20
138.7252931745858859
 30
0.0
 40
3.0
 50
51.3974228245023284
 51
52.8482108760045932
  0
ARC
  5
2D78C
  8
0
 10
3043.3909180497071247
 20
139.8975301955858868
 30
0.0
 40
1.5
 50
31.5812534386949402
 51
51.3975203558934766
  0
ARC
  5
2D78D
  8
0
 10
3044.2351408177478334
 20
141.3712785294650871
 30
0.0
 40
0.0988164650595732
 50
180.5843539013428938
 51
237.7814860840441042
  0
ARC
  5
2D78E
  8
0
 10
3044.3262701190369626
 20
141.1948581665764948
 30
0.0
 40
0.0984251964298544
 50
179.9999998198892115
 51
232.849393700675904
  0
ARC
  5
2D78F
  8
0
 10
3044.13781579207307
 20
141.2088951691598027
 30
0.0
 40
0.0905511798335943
 50
353.844615251933476
 51
6.1607733088981229
  0
ARC
  5
2D790
  8
0
 10
3044.1378157908070534
 20
141.2088951690859915
 30
0.0
 40
0.0905511810999982
 50
6.1607732693992121
 51
61.9195480833921721
  0
ARC
  5
2D791
  8
0
 10
3044.7459065201937847
 20
140.7305123705610015
 30
0.0
 40
0.0905511808799283
 50
211.5805599429374126
 51
246.986965756539405
  0
ARC
  5
2D792
  8
0
 10
3044.8321483161380456
 20
140.6307105824845962
 30
0.0
 40
0.0905511811183703
 50
194.6739251829193051
 51
267.9997011092841035
  0
ARC
  5
2D793
  8
0
 10
3044.6874220896847874
 20
140.5928111861163075
 30
0.0
 40
0.0590551184548971
 50
14.6753986813906394
 51
66.9898482175874506
  0
ARC
  5
2D794
  8
0
 10
3041.6676483151068169
 20
142.1325881288859989
 30
0.0
 40
2.3622047244000002
 50
56.3555498151958219
 51
68.4464256369890336
  0
ARC
  5
2D795
  8
0
 10
3041.262320571507189
 20
144.2329646292859877
 30
0.0
 40
0.4409448819
 50
71.3283336941875916
 51
88.560806049390365
  0
ARC
  5
2D796
  8
0
 10
3040.9566882268859445
 20
144.57097859246241
 30
0.0
 40
0.1025665995279253
 50
90.4380126395483614
 51
169.5929147012820977
  0
ARC
  5
2D797
  8
0
 10
3044.0398315388069932
 20
143.8924109661859916
 30
0.0
 40
0.0393700787
 50
179.9999731508993079
 51
270.0
  0
ARC
  5
2D798
  8
0
 10
3040.1921189891882022
 20
142.4101122679458058
 30
0.0
 40
0.0200000868994184
 50
169.8254882552458014
 51
224.5233270015089033
  0
ARC
  5
2D799
  8
0
 10
3040.2904236666067845
 20
142.310660665785889
 30
0.0
 40
0.02
 50
224.6677416592908116
 51
270.0
  0
ARC
  5
2D79A
  8
0
 10
3040.8644852679071846
 20
142.310660665785889
 30
0.0
 40
0.02
 50
270.0
 51
315.3322583407081083
  0
ARC
  5
2D79B
  8
0
 10
3040.9628605904131291
 20
142.4101837234645132
 30
0.0
 40
0.0200000934012203
 50
315.4051302835831052
 51
9.6851071336980112
  0
ARC
  5
2D79C
  8
0
 10
3043.0472646097068719
 20
144.1109149031858863
 30
0.0
 40
0.0118110236
 50
180.0
 51
270.0
  0
ARC
  5
2D79D
  8
0
 10
3044.0496740585072075
 20
143.8628834070858886
 30
0.0
 40
0.0098425197
 50
270.0
 51
342.7848228528191044
  0
ARC
  5
2D79E
  8
0
 10
3043.0256110663071922
 20
144.10894639918601
 30
0.0
 40
0.0098425197
 50
270.0
 51
359.9999902983005882
  0
ARC
  5
2D79F
  8
0
 10
3041.2736425624070762
 20
144.6836098266859949
 30
0.0
 40
0.0098425197
 50
179.9999418719000914
 51
268.5608045126966772
  0
ARC
  5
2D7A0
  8
0
 10
3378.9129785372929291
 20
144.3721738082909098
 30
0.0
 40
334.7901076318149762
 50
180.0889202791138928
 51
180.5137507886140895
  0
ARC
  5
2D7A1
  8
0
 10
3041.262320571507189
 20
145.8943769880860089
 30
0.0
 40
0.4409448819
 50
271.4391939506095923
 51
288.67166630581238
  0
ARC
  5
2D7A2
  8
0
 10
3041.0328864191701541
 20
145.433793942002012
 30
0.0
 40
0.0200054808488359
 50
90.0109426829152
 51
159.7543145243922993
  0
ARC
  5
2D7A3
  8
0
 10
3040.3331205571071223
 20
145.3167608444859979
 30
0.0
 40
0.02
 50
89.9999999085986957
 51
180.000000689900105
  0
ARC
  5
2D7A4
  8
0
 10
3043.0472646097068719
 20
146.0164267141859966
 30
0.0
 40
0.0118110236
 50
90.0
 51
180.0
  0
ARC
  5
2D7A5
  8
0
 10
3043.0256110609921052
 20
146.0183952036632888
 30
0.0
 40
0.0098425341227061
 50
359.9220559974017988
 51
89.9999690586260641
  0
ARC
  5
2D7A6
  8
0
 10
3041.2736425845578196
 20
145.4437317286387099
 30
0.0
 40
0.0098425822840352
 50
91.439315321761228
 51
180.1642292084623875
  0
ARC
  5
2D7A7
  8
0
 10
3041.6676483151068169
 20
147.9947534884859977
 30
0.0
 40
2.3622047244000002
 50
291.5535849749101089
 51
303.6444501848042137
  0
ARC
  5
2D7A8
  8
0
 10
3043.3909180497071247
 20
148.2682916386860086
 30
0.0
 40
1.5
 50
308.6025703876010198
 51
328.4187458964979101
  0
ARC
  5
2D7A9
  8
0
 10
3047.0364532637568118
 20
146.3039023910345975
 30
0.0
 40
2.9775294276499849
 50
178.8758638722655121
 51
180.5785532313391002
  0
ARC
  5
2D7AA
  8
0
 10
3044.0398315388069932
 20
146.234930651186005
 30
0.0
 40
0.0393700787
 50
90.0
 51
180.0000268491006068
  0
ARC
  5
2D7AB
  8
0
 10
3044.0496740585072075
 20
146.2644582102859943
 30
0.0
 40
0.0098425197
 50
17.2151771471809099
 51
90.0
  0
ARC
  5
2D7AC
  8
0
 10
3044.3262701194071269
 20
146.9709636673860018
 30
0.0
 40
0.0984251969
 50
127.1517515522938027
 51
179.8715738823003107
  0
ARC
  5
2D7AD
  8
0
 10
3044.137485206123074
 20
146.9574048233571091
 30
0.0
 40
0.0911102764216268
 50
288.8181049268263223
 51
352.6405521919858188
  0
ARC
  5
2D7AE
  8
0
 10
3044.7459065216989984
 20
147.4353094621006051
 30
0.0
 40
0.0905511830059523
 50
113.0130346684476024
 51
148.419450700432094
  0
ARC
  5
2D7AF
  8
0
 10
3044.8321737172182111
 20
147.5350950981157894
 30
0.0
 40
0.0905798461464918
 50
92.3384882815779235
 51
165.3202705908317114
  0
ARC
  5
2D7B0
  8
0
 10
3044.6874220903368951
 20
147.5730106477118966
 30
0.0
 40
0.0590551177359181
 50
293.0101514507095999
 51
345.3245858104647255
  0
ARC
  5
2D7B1
  8
0
 10
3040.3659485394550757
 20
151.2902499650820971
 30
0.0
 40
5.905467872883813
 50
280.1188781789380187
 51
281.2079777912848044
  0
ARC
  5
2D7B2
  8
0
 10
3040.3659404088070914
 20
151.2902931463860057
 30
0.0
 40
5.9055118110000002
 50
281.2079737395926031
 51
291.5535729002911012
  0
ARC
  5
2D7B3
  8
0
 10
3041.835175291008909
 20
149.6832330508511859
 30
0.0
 40
4.3719429747653349
 50
279.2170735846585785
 51
283.5395901544534922
  0
ARC
  5
2D7B4
  8
0
 10
3042.4550442689001102
 20
149.4405282321779111
 30
0.0
 40
2.9999994549648439
 50
307.1517513361446277
 51
308.602622595282412
  0
ARC
  5
2D7B5
  8
0
 10
3065.5987375624958986
 20
146.1602615444832054
 30
0.0
 40
21.4756370374396397
 50
178.3054851050895024
 51
179.7696489719928934
  0
ARC
  5
2D7B6
  8
0
 10
3041.2023626029790648
 20
144.5547255349663089
 30
0.0
 40
0.3666031452076941
 50
134.3037451525580082
 51
154.0857179836172861
  0
LINE
  5
2D7B7
  8
0
 10
3040.1730107021148797
 20
142.4042066061608125
 30
0.0
 11
3040.9819466535168431
 21
142.4042066061608125
 31
0.0
  0
ARC
  5
2D7B8
  8
0
 10
3045.5886389477409466
 20
146.9591867576095865
 30
0.0
 40
1.360846665433302
 50
179.4948611743820095
 51
180.5039571423612017
  0
ARC
  5
2D7B9
  8
0
 10
3044.2318432287561336
 20
146.7920550641734962
 30
0.0
 40
0.0994045520918266
 50
121.7866485906365028
 51
178.124702130207595
  0
ARC
  5
2D7BA
  8
0
 10
3046.3856416142039052
 20
146.3512762932436999
 30
0.0
 40
2.326170915364469
 50
176.4005780080520935
 51
179.7280460438016121
  0
ARC
  5
2D7BB
  8
0
 10
3045.9963438124950699
 20
146.3834874580367114
 30
0.0
 40
1.9356341705372739
 50
173.756273962889793
 51
176.628719656250297
  0
ARC
  5
2D7BC
  8
0
 10
3052.7001281873399421
 20
145.4357318940045047
 30
0.0
 40
8.7053366841148971
 50
171.005886846897198
 51
172.3539496617050872
  0
ARC
  5
2D7BD
  8
0
 10
3044.200863027970172
 20
146.775844288042606
 30
0.0
 40
0.1011988620772761
 50
109.6249645400189934
 51
168.1282111294567017
  0
ARC
  5
2D7BE
  8
0
 10
2520.6775479940720288
 20
140.8434280143027877
 30
0.0
 40
523.3901781326344462
 50
0.2423762735234834
 51
0.3294169059223683
  0
ARC
  5
2D7BF
  8
0
 10
3111.9777016906091376
 20
144.5428876350447069
 30
0.0
 40
67.9309004247881205
 50
181.2529382508938056
 51
182.0580663528224932
  0
LINE
  5
2D7C0
  8
0
 10
3044.1275253010071538
 20
141.3700854046859945
 30
0.0
 11
3044.090620437068992
 21
142.1033320612220905
 31
0.0
  0
ARC
  5
2D7C1
  8
0
 10
3044.2294909099778124
 20
141.3779439418109121
 30
0.0
 40
0.1022679911729786
 50
184.4071004273625078
 51
226.7473688995596035
  0
ARC
  5
2D7C2
  8
0
 10
3032.2941196100109664
 20
143.7948988198942004
 30
0.0
 40
7.9984804781506753
 50
350.0557707330929134
 51
355.0923535884593889
  0
ARC
  5
2D7C3
  8
0
 10
3022.2656994589110582
 20
144.4843325694947964
 30
0.0
 40
18.0499265481502107
 50
355.6352423190106151
 51
0.9546567461748185
  0
ARC
  5
2D7C4
  8
0
 10
3049.1711472701740604
 20
143.7727892103457918
 30
0.0
 40
8.3006169124753821
 50
183.851211213383209
 51
189.4247306042192065
  0
ARC
  5
2D7C5
  8
0
 10
3055.1092253104930023
 20
144.1583672479536915
 30
0.0
 40
14.2511904125757898
 50
180.6867079851631104
 51
183.7944110744184059
  0
ARC
  5
2D7C6
  8
0
 10
3085.8580200388028061
 20
144.5314684309101096
 30
0.0
 40
45.0022485274240367
 50
179.8566744726053059
 51
180.6924999268397016
  0
ARC
  5
2D7C7
  8
0
 10
3041.0180548472731061
 20
144.6432463759983875
 30
0.0
 40
0.1621444846585325
 50
153.758038956398309
 51
179.7190162596868959
  0
ARC
  5
2D7C8
  8
0
 10
3040.8809276382739881
 20
144.9080986318444957
 30
0.0
 40
0.1120614061717126
 50
305.6900063477576168
 51
329.5925625921923938
  0
ARC
  5
2D7C9
  8
0
 10
3040.7408919994782082
 20
144.9768710932374063
 30
0.0
 40
0.2678935272718883
 50
332.0669627816554907
 51
354.8044424916448065
  0
ARC
  5
2D7CA
  8
0
 10
3040.0907139701471351
 20
145.0625348006105071
 30
0.0
 40
0.9235359590184677
 50
353.1642243577338718
 51
7.9553303996002711
  0
ARC
  5
2D7CB
  8
0
 10
3040.8077504072321062
 20
145.1717730259776999
 30
0.0
 40
0.1984832206638215
 50
5.3713435964994192
 51
38.8844971125784582
  0
ARC
  5
2D7CC
  8
0
 10
3040.7298781949589284
 20
145.0329010226035962
 30
0.0
 40
0.3513037952930339
 50
48.5885254059545986
 51
61.1673886757616714
  0
ARC
  5
2D7CD
  8
0
 10
3040.8785837043487845
 20
145.4790714875018125
 30
0.0
 40
0.1393896853092535
 50
296.2958944056506994
 51
328.0884439450367722
  0
ARC
  5
2D7CE
  8
0
 10
3040.8386423919109802
 20
145.5043439370928979
 30
0.0
 40
0.1866540381839061
 50
327.9842176100021902
 51
340.0693256147998227
  0
ARC
  5
2D7CF
  8
0
 10
3040.8710448475890189
 20
145.4967504394197135
 30
0.0
 40
0.1585825842948667
 50
282.8973386615487016
 51
295.908153522237285
  0
ARC
  5
2D7D0
  8
0
 10
3040.8605397778878796
 20
145.5411805193330963
 30
0.0
 40
0.2042368005898225
 50
274.3077487483628829
 51
282.987961478819102
  0
ARC
  5
2D7D1
  8
0
 10
3040.856215433925172
 20
145.5915731199121979
 30
0.0
 40
0.2548124031433541
 50
269.9428142965829238
 51
274.4262379898211179
  0
ARC
  5
2D7D2
  8
0
 10
3040.4738075675400069
 20
158.0416151826705118
 30
0.0
 40
12.8404650112763896
 50
274.6456666854314221
 51
279.2393121585881772
  0
ARC
  5
2D7D3
  8
0
 10
3040.7449462470949584
 20
134.5583122813847012
 30
0.0
 40
10.3542881983046104
 50
78.2205477907748445
 51
85.7416039131982473
  0
ARC
  5
2D7D4
  8
0
 10
3033.5269610800769442
 20
137.2052502278654913
 30
0.0
 40
10.9060687453662002
 50
42.917934741939753
 51
43.4614195653492388
  0
ARC
  5
2D7D5
  8
0
 10
3041.6501670702268711
 20
144.904820498130789
 30
0.0
 40
0.2863346207474391
 50
214.1887854085790934
 51
223.6537958935022914
  0
ARC
  5
2D7D6
  8
0
 10
3041.4532096896309667
 20
144.7735950231848108
 30
0.0
 40
0.0497203967040742
 50
181.1721245541480982
 51
216.6395724791809982
  0
ARC
  5
2D7D7
  8
0
 10
3041.4480637775131981
 20
144.7690231549366047
 30
0.0
 40
0.044705635117784
 50
137.0418764236258937
 51
175.4392871651820087
  0
ARC
  5
2D7D8
  8
0
 10
3041.6790773922512017
 20
144.5514378250051095
 30
0.0
 40
0.3620544340487229
 50
127.364523468967505
 51
136.7549849683979915
  0
ARC
  5
2D7D9
  8
0
 10
3039.2274655625219566
 20
147.720811183006191
 30
0.0
 40
3.6448633976562652
 50
307.7587180875351009
 51
308.8494182657958049
  0
ARC
  5
2D7DA
  8
0
 10
3048.5606223754248276
 20
150.3023209851658066
 30
0.0
 40
8.8875246950551752
 50
216.7162886836923974
 51
217.5436626965928042
  0
ARC
  5
2D7DB
  8
0
 10
3041.6078131313361155
 20
145.1197408591615101
 30
0.0
 40
0.2157047458245109
 50
202.9308313645341002
 51
217.346475370580805
  0
ARC
  5
2D7DC
  8
0
 10
3041.4748655152829997
 20
145.0635324465706049
 30
0.0
 40
0.0713633065690229
 50
160.2200176323719916
 51
202.9568473724887951
  0
ARC
  5
2D7DD
  8
0
 10
3042.2741507413320505
 20
144.6005753019065025
 30
0.0
 40
0.9939759699567094
 50
139.9033298109152099
 51
150.6555224058631097
  0
ARC
  5
2D7DE
  8
0
 10
3042.4154554039141658
 20
146.4426695015114888
 30
0.0
 40
1.4990195064238809
 50
228.6082423326712956
 51
233.0228301582301071
  0
ARC
  5
2D7DF
  8
0
 10
3041.4741473339331606
 20
145.3737498059929862
 30
0.0
 40
0.074715113190599
 50
203.5589261069110023
 51
228.1490592741336059
  0
ARC
  5
2D7E0
  8
0
 10
3041.4383236114549618
 20
145.3559518374624133
 30
0.0
 40
0.0348208670929733
 50
159.9850128778508918
 51
200.272747975203913
  0
ARC
  5
2D7E1
  8
0
 10
3041.5077096030800021
 20
145.3266076143549128
 30
0.0
 40
0.110126082827326
 50
139.8883301087379891
 51
157.9953633413277032
  0
ARC
  5
2D7E2
  8
0
 10
3044.0709412673481893
 20
143.0494303772001103
 30
0.0
 40
3.5387467847177438
 50
136.2705630032484976
 51
138.4289534161802919
  0
ARC
  5
2D7E3
  8
0
 10
3042.3395357741751468
 20
145.8163507121103919
 30
0.0
 40
0.6455004603240857
 50
323.5442782390351226
 51
347.0757630714081756
  0
ARC
  5
2D7E4
  8
0
 10
3042.6774174794009014
 20
145.7410868217423001
 30
0.0
 40
0.2993529084714352
 50
346.6519565351562733
 51
19.3792249629117883
  0
ARC
  5
2D7E5
  8
0
 10
3042.7585403296930053
 20
145.7623355821417022
 30
0.0
 40
0.2158849292415622
 50
21.2036889692916617
 51
51.185975163661297
  0
ARC
  5
2D7E6
  8
0
 10
3042.7218095073808399
 20
145.719007439457414
 30
0.0
 40
0.2726721494543876
 50
50.878716412625522
 51
59.859816114333988
  0
ARC
  5
2D7E7
  8
0
 10
3042.338631236179026
 20
145.0636697417359926
 30
0.0
 40
0.6377672288546438
 50
324.6355742423140782
 51
35.3644257576858223
  0
ARC
  5
2D7E8
  8
0
 10
3042.3712245231799898
 20
144.3274526363454129
 30
0.0
 40
0.6102554102307778
 50
9.1982727881272197
 51
36.9803147069740703
  0
ARC
  5
2D7E9
  8
0
 10
3042.7043550826128921
 20
144.3832292159472956
 30
0.0
 40
0.2724985802951781
 50
334.1620401505053906
 51
8.8181274453350742
  0
ARC
  5
2D7EA
  8
0
 10
3042.756491084524896
 20
144.366584348016886
 30
0.0
 40
0.2184575202651494
 50
307.0239330716153745
 51
332.131240332379889
  0
ARC
  5
2D7EB
  8
0
 10
3042.7201564306537875
 20
144.4109814202219866
 30
0.0
 40
0.2757916811467979
 50
300.1610489879158195
 51
307.4966480267707993
  0
ENDSEC
  0
EOF
