  0
SECTION
  2
HEADER
  9
$ACADVER
  1
AC1009
  9
$INSBASE
 10
3065.5440153056902091
 20
147.8907372229411123
 30
0.0
  9
$EXTMIN
 10
3061.9610352698059614
 20
143.2113214445539029
 30
-0.0000000000000058
  9
$EXTMAX
 10
3069.219859822826038
 20
147.9054425476811048
 30
0.0000000000000104
  9
$LIMMIN
 10
0.0
 20
0.0
  9
$LIMMAX
 10
11.6929133858000007
 20
8.2677165353999982
  9
$ORTHOMODE
 70
     0
  9
$REGENMODE
 70
     1
  9
$FILLMODE
 70
     1
  9
$QTEXTMODE
 70
     0
  9
$MIRRTEXT
 70
     0
  9
$DRAGMODE
 70
     2
  9
$LTSCALE
 40
0.6431102362
  9
$OSMODE
 70
   575
  9
$ATTMODE
 70
     1
  9
$TEXTSIZE
 40
0.2
  9
$TRACEWID
 40
0.05
  9
$TEXTSTYLE
  7
STANDARD
  9
$CLAYER
  8
0
  9
$CELTYPE
  6
BYLAYER
  9
$CECOLOR
 62
   256
  9
$DIMSCALE
 40
1.0
  9
$DIMASZ
 40
0.1875
  9
$DIMEXO
 40
0.0625
  9
$DIMDLI
 40
0.4443307087
  9
$DIMRND
 40
0.0
  9
$DIMDLE
 40
0.0
  9
$DIMEXE
 40
0.125
  9
$DIMTP
 40
0.01
  9
$DIMTM
 40
0.01
  9
$DIMTXT
 40
2.0
  9
$DIMCEN
 40
0.1052362205
  9
$DIMTSZ
 40
0.0
  9
$DIMTOL
 70
     1
  9
$DIMLIM
 70
     0
  9
$DIMTIH
 70
     1
  9
$DIMTOH
 70
     1
  9
$DIMSE1
 70
     0
  9
$DIMSE2
 70
     0
  9
$DIMTAD
 70
     0
  9
$DIMZIN
 70
     0
  9
$DIMBLK
  1

  9
$DIMASO
 70
     1
  9
$DIMSHO
 70
     1
  9
$DIMPOST
  1
\X
  9
$DIMAPOST
  1

  9
$DIMALT
 70
     1
  9
$DIMALTD
 70
     2
  9
$DIMALTF
 40
25.3999999999999986
  9
$DIMLFAC
 40
1.0
  9
$DIMTOFL
 70
     0
  9
$DIMTVP
 40
0.0
  9
$DIMTIX
 70
     0
  9
$DIMSOXD
 70
     0
  9
$DIMSAH
 70
     0
  9
$DIMBLK1
  1

  9
$DIMBLK2
  1

  9
$DIMSTYLE
  2
STANDARD
  9
$DIMCLRD
 70
     0
  9
$DIMCLRE
 70
     0
  9
$DIMCLRT
 70
     0
  9
$DIMTFAC
 40
1.0
  9
$DIMGAP
 40
0.09
  9
$LUNITS
 70
     2
  9
$LUPREC
 70
     4
  9
$SKETCHINC
 40
0.1
  9
$FILLETRAD
 40
0.0
  9
$AUNITS
 70
     0
  9
$AUPREC
 70
     0
  9
$MENU
  1
.
  9
$ELEVATION
 40
0.0
  9
$PELEVATION
 40
0.0
  9
$THICKNESS
 40
0.0
  9
$LIMCHECK
 70
     0
  9
$BLIPMODE
 70
     0
  9
$CHAMFERA
 40
0.0
  9
$CHAMFERB
 40
0.0
  9
$SKPOLY
 70
     0
  9
$TDCREATE
 40
2458060.468368056230247
  9
$TDUPDATE
 40
2459540.076319444924593
  9
$TDINDWG
 40
0.6672408565
  9
$TDUSRTIMER
 40
0.6672408565
  9
$USRTIMER
 70
     1
  9
$ANGBASE
 50
0.0
  9
$ANGDIR
 70
     0
  9
$PDMODE
 70
     0
  9
$PDSIZE
 40
0.3125
  9
$PLINEWID
 40
0.0
  9
$COORDS
 70
     1
  9
$SPLFRAME
 70
     0
  9
$SPLINETYPE
 70
     6
  9
$SPLINESEGS
 70
     8
  9
$ATTDIA
 70
     1
  9
$ATTREQ
 70
     1
  9
$HANDLING
 70
     1
  9
$HANDSEED
  5
2D812
  9
$SURFTAB1
 70
     6
  9
$SURFTAB2
 70
     6
  9
$SURFTYPE
 70
     6
  9
$SURFU
 70
     6
  9
$SURFV
 70
     6
  9
$UCSNAME
  2

  9
$UCSORG
 10
0.0
 20
0.0
 30
0.0
  9
$UCSXDIR
 10
1.0
 20
0.0
 30
0.0
  9
$UCSYDIR
 10
0.0
 20
1.0
 30
0.0
  9
$PUCSNAME
  2

  9
$PUCSORG
 10
0.0
 20
0.0
 30
0.0
  9
$PUCSXDIR
 10
1.0
 20
0.0
 30
0.0
  9
$PUCSYDIR
 10
0.0
 20
1.0
 30
0.0
  9
$USERI1
 70
     0
  9
$USERI2
 70
     0
  9
$USERI3
 70
     0
  9
$USERI4
 70
     0
  9
$USERI5
 70
     0
  9
$USERR1
 40
0.0
  9
$USERR2
 40
0.0
  9
$USERR3
 40
0.0
  9
$USERR4
 40
0.0
  9
$USERR5
 40
0.0
  9
$WORLDVIEW
 70
     1
  9
$SHADEDGE
 70
     3
  9
$SHADEDIF
 70
    70
  9
$TILEMODE
 70
     1
  9
$MAXACTVP
 70
    64
  9
$PLIMCHECK
 70
     0
  9
$PEXTMIN
 10
1.0000000000000000E+20
 20
1.0000000000000000E+20
 30
1.0000000000000000E+20
  9
$PEXTMAX
 10
-1.0000000000000000E+20
 20
-1.0000000000000000E+20
 30
-1.0000000000000000E+20
  9
$PLIMMIN
 10
0.0
 20
0.0
  9
$PLIMMAX
 10
12.0
 20
9.0
  9
$UNITMODE
 70
     0
  9
$VISRETAIN
 70
     1
  9
$PLINEGEN
 70
     0
  9
$PSLTSCALE
 70
     1
  0
ENDSEC
  0
SECTION
  2
TABLES
  0
TABLE
  2
VPORT
 70
     1
  0
VPORT
  2
*ACTIVE
 70
     0
 10
0.0
 20
0.0
 11
1.0
 21
1.0
 12
-237.6738979395809963
 22
-50.4055821904709518
 13
0.0
 23
0.0
 14
1.0
 24
1.0
 15
0.0
 25
0.0
 16
0.0
 26
0.0
 36
96.5995694866707311
 17
3303.693115234375
 27
195.2615115758877096
 37
0.0
 40
7.258068667848228
 41
2.2779411764705881
 42
50.0
 43
0.0
 44
0.0
 50
0.0
 51
0.0
 71
     0
 72
   100
 73
     1
 74
     1
 75
     0
 76
     0
 77
     0
 78
     0
  0
ENDTAB
  0
TABLE
  2
LTYPE
 70
     2
  0
LTYPE
  2
CONTINUOUS
 70
     0
  3
Solid line
 72
    65
 73
     0
 40
0.0
  0
LTYPE
  2
PHANTOM2
 70
     0
  3
___ _ _ ___ _ _ ___ _ _ ___ _ _
 72
    65
 73
     6
 40
1.25
 49
0.625
 49
-0.125
 49
0.125
 49
-0.125
 49
0.125
 49
-0.125
  0
ENDTAB
  0
TABLE
  2
LAYER
 70
     2
  0
LAYER
  2
0
 70
     0
 62
   255
  6
CONTINUOUS
  0
LAYER
  2
DEFPOINTS
 70
     0
 62
     7
  6
CONTINUOUS
  0
ENDTAB
  0
TABLE
  2
STYLE
 70
     1
  0
STYLE
  2
STANDARD
 70
     0
 40
0.0
 41
0.8
 50
0.0
 71
     0
 42
0.2
  3
txt
  4

  0
ENDTAB
  0
TABLE
  2
VIEW
 70
     0
  0
ENDTAB
  0
TABLE
  2
UCS
 70
     0
  0
ENDTAB
  0
TABLE
  2
APPID
 70
     9
  0
APPID
  2
ACAD
 70
     0
  0
APPID
  2
ACAD_MLEADERVER
 70
     0
  0
APPID
  2
ACAD_EXEMPT_FROM_CAD_STANDARDS
 70
     0
  0
APPID
  2
ACAD_NAV_VCDISPLAY
 70
     0
  0
APPID
  2
ACAECLAYERSTANDARD
 70
     0
  0
APPID
  2
ACCMTRANSPARENCY
 70
     0
  0
APPID
  2
ACAD_DSTYLE_DIMJAG
 70
     0
  0
APPID
  2
ACAD_DSTYLE_DIMTALN
 70
     0
  0
APPID
  2
ACDBATTR
 70
     0
  0
ENDTAB
  0
TABLE
  2
DIMSTYLE
 70
     1
  0
DIMSTYLE
  2
STANDARD
 70
     0
  3

  4

  5

  6

  7

 40
1.0
 41
0.1875
 42
0.0625
 43
0.38
 44
0.125
 45
0.0
 46
0.0
 47
0.01
 48
0.01
140
0.15625
141
0.09
142
0.0
143
25.3999999999999986
144
1.0
145
0.0
146
1.0
147
0.09
 71
     1
 72
     0
 73
     1
 74
     1
 75
     0
 76
     0
 77
     0
 78
     4
170
     0
171
     2
172
     0
173
     0
174
     0
175
     0
176
     0
177
     0
178
     0
  0
ENDTAB
  0
ENDSEC
  0
SECTION
  2
BLOCKS
  0
BLOCK
  8
0
  2
$MODEL_SPACE
 70
     0
 10
0.0
 20
0.0
 30
0.0
  3
$MODEL_SPACE
  1

  0
ENDBLK
  5
21
  8
0
  0
BLOCK
 67
     1
  8
0
  2
$PAPER_SPACE
 70
     0
 10
0.0
 20
0.0
 30
0.0
  3
$PAPER_SPACE
  1

  0
ENDBLK
  5
1D
 67
     1
  8
0
  0
ENDSEC
  0
SECTION
  2
ENTITIES
  0
ATTDEF
  5
28FC7
  8
DEFPOINTS
 10
3065.5439774475621562
 20
147.8941318446703121
 30
0.0
 40
0.001
  1
K-11678T-4V
  3

  2
MODELNUMBER
 70
     0
1001
ACDBATTR
1070
     0
1070
     1
  0
ATTDEF
  5
28FC8
  8
DEFPOINTS
 10
3065.5439774475621562
 20
147.8924651780035902
 30
0.0
 40
0.001
  1
MEMOIRS 
  3

  2
TRADENAME
 70
     0
1001
ACDBATTR
1070
     0
1070
     1
  0
ATTDEF
  5
28FC9
  8
DEFPOINTS
 10
3065.5439774475621562
 20
147.8907985113368966
 30
0.0
 40
0.001
  1
SHOWER TRIM
  3

  2
PRODUCT
 70
     0
1001
ACDBATTR
1070
     0
1070
     1
  0
LINE
  5
2D658
  8
0
 10
3062.0120433416809647
 20
147.8735799588411055
 30
0.0
 11
3062.0122049620799771
 21
147.8702747585410862
 31
0.0
  0
LINE
  5
2D659
  8
0
 10
3062.0120433416809647
 20
147.8735799588411055
 30
0.0
 11
3062.0114441980308584
 21
147.8907372229411123
 31
0.0
  0
LINE
  5
2D65A
  8
0
 10
3065.1692703815811001
 20
143.2163789272410952
 30
0.0
 11
3065.9402326323811394
 21
143.2163789272410952
 31
0.0
  0
LINE
  5
2D65B
  8
0
 10
3065.807841319281124
 20
143.3573805720411087
 30
0.0
 11
3065.3016612476808405
 21
143.3573805720411087
 31
0.0
  0
LINE
  5
2D65C
  8
0
 10
3065.9402367118809707
 20
144.0271206969410969
 30
0.0
 11
3065.878260913781105
 21
144.0271206969410969
 31
0.0
  0
LINE
  5
2D65D
  8
0
 10
3065.2314895522868028
 20
144.0271206969410969
 30
0.0
 11
3065.1692655251799806
 21
144.0271206969410969
 31
0.0
  0
LINE
  5
2D65E
  8
0
 10
3064.3441213621808856
 20
147.0840915536410876
 30
0.0
 11
3064.3441213621808856
 21
147.0939340733411029
 31
0.0
  0
LINE
  5
2D65F
  8
0
 10
3065.9448798972812256
 20
144.2900600576411136
 30
0.0
 11
3065.1646226696811937
 21
144.2900600576411136
 31
0.0
  0
LINE
  5
2D660
  8
0
 10
3065.1746903014809504
 20
144.3080600576410859
 30
0.0
 11
3065.934812265481014
 21
144.3080600576410859
 31
0.0
  0
LINE
  5
2D661
  8
0
 10
3064.5901843543811083
 20
146.020658482741112
 30
0.0
 11
3064.5901843543811083
 21
146.0698710812411036
 31
0.0
  0
LINE
  5
2D662
  8
0
 10
3064.5901843543811083
 20
146.0915246245411083
 30
0.0
 11
3064.5901843543811083
 21
147.0447214749410989
 31
0.0
  0
LINE
  5
2D663
  8
0
 10
3065.1210114761561272
 20
144.5580600576410859
 30
0.0
 11
3065.1228196924807889
 21
144.5580600576410859
 31
0.0
  0
LINE
  5
2D664
  8
0
 10
3065.37328214307081
 20
144.5580600576410859
 30
0.0
 11
3065.3776475681811462
 21
144.5580600576410859
 31
0.0
  0
LINE
  5
2D665
  8
0
 10
3065.7318549987808183
 20
144.5580600576410859
 30
0.0
 11
3065.7362203982811479
 21
144.5580600576410859
 31
0.0
  0
LINE
  5
2D666
  8
0
 10
3065.9866828539197741
 20
144.5580600576410859
 30
0.0
 11
3065.9884910908058373
 21
144.5580600576410859
 31
0.0
  0
LINE
  5
2D667
  8
0
 10
3065.1492616674800047
 20
144.007127845141099
 30
0.0
 11
3065.1492615178808592
 21
143.2363664577410987
 31
0.0
  0
LINE
  5
2D668
  8
0
 10
3065.1646226696811937
 20
144.0771442916411047
 30
0.0
 11
3065.1646226696811937
 21
144.2900600576411136
 31
0.0
  0
LINE
  5
2D669
  8
0
 10
3065.2447512834810368
 20
144.3080600576410859
 30
0.0
 11
3065.2447512834810368
 21
144.2900600576411136
 31
0.0
  0
LINE
  5
2D66A
  8
0
 10
3065.8647512834809277
 20
144.3080600576410859
 30
0.0
 11
3065.8647512834809277
 21
144.2900600576411136
 31
0.0
  0
LINE
  5
2D66B
  8
0
 10
3065.9448798972812256
 20
144.2900600576411136
 30
0.0
 11
3065.9448798972812256
 21
144.0771442909411064
 31
0.0
  0
LINE
  5
2D66C
  8
0
 10
3065.9602410489810609
 20
143.2363666488411127
 30
0.0
 11
3065.9602408994810503
 21
144.0071279951411043
 31
0.0
  0
LINE
  5
2D66D
  8
0
 10
3064.6000268723810223
 20
146.0797136009410906
 30
0.0
 11
3066.5094756945800327
 21
146.0797136009410906
 31
0.0
  0
LINE
  5
2D66E
  8
0
 10
3066.5193182125808562
 20
146.020658482741112
 30
0.0
 11
3066.5193182125808562
 21
146.0698710812411036
 31
0.0
  0
LINE
  5
2D66F
  8
0
 10
3066.5193182125808562
 20
146.0915246245411083
 30
0.0
 11
3066.5193182125808562
 21
147.0447214749410989
 31
0.0
  0
LINE
  5
2D670
  8
0
 10
3066.7653812046810344
 20
147.0840915536410876
 30
0.0
 11
3066.7653812046810344
 21
147.0939340733411029
 31
0.0
  0
LINE
  5
2D671
  8
0
 10
3064.3834914593808207
 20
147.0447214749410989
 30
0.0
 11
3066.7260111074810993
 21
147.0447214749410989
 31
0.0
  0
LINE
  5
2D672
  8
0
 10
3062.6666985332808508
 20
147.2721049374410995
 30
0.0
 11
3062.671050772498802
 21
147.2721075876104919
 31
0.0
  0
LINE
  5
2D673
  8
0
 10
3062.6904449032799675
 20
147.2721049374410995
 30
0.0
 11
3068.4190576636810874
 21
147.2721049374410995
 31
0.0
  0
LINE
  5
2D674
  8
0
 10
3064.3438095099809289
 20
147.1033352156410956
 30
0.0
 11
3066.7593052557908777
 21
147.1030273752240873
 31
0.0
  0
LINE
  5
2D675
  8
0
 10
3069.0980583690311505
 20
147.8907372229411123
 30
0.0
 11
3062.0114441980308584
 21
147.8907372229411123
 31
0.0
  0
LINE
  5
2D676
  8
0
 10
3069.0974476160799895
 20
147.8732475155410953
 30
0.0
 11
3069.0980583690311505
 21
147.8907372229411123
 31
0.0
  0
ARC
  5
2D677
  8
0
 10
3059.328128945780918
 20
143.4102004237410881
 30
0.0
 40
5.9055118110000002
 50
10.1188778022971597
 51
21.5535731916971507
  0
ARC
  5
2D678
  8
0
 10
3060.9305430487811464
 20
144.8785910470411125
 30
0.0
 40
4.3766642171000001
 50
9.2182411176995096
 51
13.5360959783983201
  0
ARC
  5
2D679
  8
0
 10
3060.1971335408811683
 20
145.4993039456410884
 30
0.0
 40
3.0
 50
37.1518195949933769
 51
38.6025998394915888
  0
ARC
  5
2D67A
  8
0
 10
3061.3693705618811691
 20
146.435178064641093
 30
0.0
 40
1.5
 50
38.602524972107112
 51
58.4187465613082608
  0
ARC
  5
2D67B
  8
0
 10
3062.1025550846297847
 20
147.8764148320113065
 30
0.0
 40
0.0905585178036895
 50
183.8877668251438138
 51
255.3245854400454107
  0
ARC
  5
2D67C
  8
0
 10
3062.2023527371911769
 20
147.7901665354640102
 30
0.0
 40
0.0905511813418906
 50
203.0130590713901029
 51
238.4194399874878059
  0
ARC
  5
2D67D
  8
0
 10
3062.0646515526809708
 20
147.7316821048410986
 30
0.0
 40
0.0590551181
 50
23.0101137892981704
 51
75.3246013986038321
  0
ARC
  5
2D67E
  8
0
 10
3062.6236686042689144
 20
144.7119083303095977
 30
0.0
 40
2.3622047237545729
 50
21.5535857025811097
 51
33.6444501854626665
  0
ARC
  5
2D67F
  8
0
 10
3064.7240479277938903
 20
144.3065808568003092
 30
0.0
 40
0.4409420522850949
 50
1.439168067230296
 51
18.6716918383700801
  0
ARC
  5
2D680
  8
0
 10
3065.3017724604637806
 20
143.3777411030812914
 30
0.0
 40
0.0203608347698179
 50
188.9786057821517034
 51
269.6870435386832128
  0
ARC
  5
2D681
  8
0
 10
3065.1692630014490533
 20
144.0071193613329115
 30
0.0
 40
0.0200013357674284
 50
89.9927705236902966
 51
179.9756973021758029
  0
ARC
  5
2D682
  8
0
 10
3065.1692650862178198
 20
143.2363825013113114
 30
0.0
 40
0.0200035747710706
 50
180.0459532342773912
 51
270.0151673858235881
  0
ARC
  5
2D683
  8
0
 10
3065.1746903014809504
 20
144.3179025772411137
 30
0.0
 40
0.0098425197
 50
181.4391954872999122
 51
270.0
  0
ARC
  5
2D684
  8
0
 10
3062.6666985332808508
 20
147.3705301343410952
 30
0.0
 40
0.0984251969
 50
217.1496775968062138
 51
270.0000000287909074
  0
ARC
  5
2D685
  8
0
 10
3062.8502526285651584
 20
147.265601986243496
 30
0.0
 40
0.0984267744877287
 50
206.2314624920059032
 51
265.1056743972320078
  0
ARC
  5
2D686
  8
0
 10
3062.680735535407166
 20
147.1820758070159059
 30
0.0
 40
0.0905511797251955
 50
83.8446152446062456
 51
96.1397260468643822
  0
ARC
  5
2D687
  8
0
 10
3062.6807355355299478
 20
147.182075805682814
 30
0.0
 40
0.0905511810374308
 50
26.2301992370928794
 51
83.844615412404309
  0
ARC
  5
2D688
  8
0
 10
3064.3834914409808334
 20
147.0840915536410876
 30
0.0
 40
0.0393700787000073
 50
180.0000000000048885
 51
270.0000267777422778
  0
ARC
  5
2D689
  8
0
 10
3064.6019953779809839
 20
146.0915246245411083
 30
0.0
 40
0.0118110236
 50
180.0
 51
270.0
  0
ARC
  5
2D68A
  8
0
 10
3064.3539638818811
 20
147.0939340733411029
 30
0.0
 40
0.0098425197
 50
107.2418049449850059
 51
180.0
  0
ARC
  5
2D68B
  8
0
 10
3064.6000268739808234
 20
146.0698710812411036
 30
0.0
 40
0.0098425197
 50
90.0000097016961149
 51
180.0
  0
ARC
  5
2D68C
  8
0
 10
3064.3442848377808332
 20
164.7159200325411064
 30
0.0
 40
17.6125848233000006
 50
265.1064745436955263
 51
269.9984537034986829
  0
ARC
  5
2D68D
  8
0
 10
3068.4858339626880479
 20
144.7119083303122977
 30
0.0
 40
2.3622047237487851
 50
146.3555498145119884
 51
158.4464148981340941
  0
ARC
  5
2D68E
  8
0
 10
3066.3854546592037877
 20
144.306580853309697
 30
0.0
 40
0.4409420724026578
 50
161.3283085495374962
 51
178.5608315447373116
  0
ARC
  5
2D68F
  8
0
 10
3065.8077519648140878
 20
143.3776675359694082
 30
0.0
 40
0.020287160709339
 50
270.2523591375726255
 51
351.9951587533465158
  0
ARC
  5
2D690
  8
0
 10
3065.9402395979841458
 20
144.0071193938034924
 30
0.0
 40
0.0200013033457588
 50
0.024639412029427
 51
90.0082675393050522
  0
ARC
  5
2D691
  8
0
 10
3065.9402382932257751
 20
143.2363816878485068
 30
0.0
 40
0.0200027614083805
 50
269.983785111830116
 51
359.9569223611873099
  0
ARC
  5
2D692
  8
0
 10
3065.934812265481014
 20
144.3179025772411137
 30
0.0
 40
0.0098425197
 50
270.0
 51
358.5608045127000878
  0
ARC
  5
2D693
  8
0
 10
3068.4428040336811137
 20
147.3705301343410952
 30
0.0
 40
0.0984251969
 50
265.740195657994775
 51
322.8482650952976769
  0
ARC
  5
2D694
  8
0
 10
3068.2592511862808351
 20
147.265600949441108
 30
0.0
 40
0.0984251969
 50
274.8935415650964842
 51
333.7683100959047806
  0
ARC
  5
2D695
  8
0
 10
3068.4287670313901799
 20
147.1820758057934029
 30
0.0
 40
0.0905511809229782
 50
96.1553845689893052
 51
153.7702874729573921
  0
ARC
  5
2D696
  8
0
 10
3068.4287670314279239
 20
147.182075809281514
 30
0.0
 40
0.0905511774590782
 50
85.7401954520335607
 51
96.1553848295572351
  0
ARC
  5
2D697
  8
0
 10
3066.726011125981131
 20
147.0840915536410876
 30
0.0
 40
0.0393700787000072
 50
269.9999730767140136
 51
359.9999999999951115
  0
ARC
  5
2D698
  8
0
 10
3066.5075071889809806
 20
146.0915246245411083
 30
0.0
 40
0.0118110236
 50
270.0
 51
0.0
  0
ARC
  5
2D699
  8
0
 10
3066.7555386850808645
 20
147.0939340733411029
 30
0.0
 40
0.0098425197
 50
0.0
 51
67.4999906263072376
  0
ARC
  5
2D69A
  8
0
 10
3066.5094756928810966
 20
146.0698710812411036
 30
0.0
 40
0.0098425197
 50
0.0
 51
89.9999902983038851
  0
ARC
  5
2D69B
  8
0
 10
3071.7813736211810465
 20
143.4102004237410881
 30
0.0
 40
5.9055118110000002
 50
158.4464270486016062
 51
169.8811221964978131
  0
ARC
  5
2D69C
  8
0
 10
3070.9123690259812065
 20
145.4993039456410884
 30
0.0
 40
3.0
 50
141.3973996669031123
 51
142.8482479014973023
  0
ARC
  5
2D69D
  8
0
 10
3069.7401320042072257
 20
146.4351780653769026
 30
0.0
 40
1.4999999989361641
 50
121.5812139437419006
 51
141.3974740444195106
  0
ARC
  5
2D69E
  8
0
 10
3068.9071498299808809
 20
147.7901665353410863
 30
0.0
 40
0.0905511811
 50
301.5812139550930056
 51
336.9869656437036269
  0
ARC
  5
2D69F
  8
0
 10
3069.0069516180369646
 20
147.8764083310437911
 30
0.0
 40
0.0905511811994321
 50
284.6739251991137962
 51
357.9996043865115212
  0
ARC
  5
2D6A0
  8
0
 10
3069.0448510142809937
 20
147.7316821048410986
 30
0.0
 40
0.0590551180999979
 50
104.6753986013961963
 51
156.9898483471019972
  0
ARC
  5
2D6A1
  8
0
 10
3066.7544047974861314
 20
164.8843138533437127
 30
0.0
 40
17.7812871533939791
 50
270.0157905094206967
 51
274.8819530727782876
  0
LINE
  5
2D6A2
  8
0
 10
3062.0796127298572173
 20
147.7888106454431068
 30
0.0
 11
3069.0298898371052019
 21
147.7888106454431068
 31
0.0
  0
ARC
  5
2D6A3
  8
0
 10
3064.7860236892129251
 20
145.3556433283096965
 30
0.0
 40
0.6776953872833577
 50
53.8669462163281381
 51
72.8502153417028921
  0
ARC
  5
2D6A4
  8
0
 10
3064.8697836839669435
 20
145.6248420949438014
 30
0.0
 40
0.3957681384407093
 50
72.9453236826760332
 51
90.491784530957176
  0
ARC
  5
2D6A5
  8
0
 10
3064.8642591405850908
 20
145.7881913876944111
 30
0.0
 40
0.2324140058442548
 50
89.4754857251217146
 51
127.606372003539505
  0
ARC
  5
2D6A6
  8
0
 10
3064.8772419713759518
 20
145.7813463580212954
 30
0.0
 40
0.2458352392772243
 50
129.0301347109376024
 51
150.3441591671000026
  0
ARC
  5
2D6A7
  8
0
 10
3065.5547545217059451
 20
145.3828979625297109
 30
0.0
 40
0.6377605202196409
 50
54.6353855370676911
 51
125.364374513045405
  0
ARC
  5
2D6A8
  8
0
 10
3066.3228099546890917
 20
145.3559332394557089
 30
0.0
 40
0.6770605541375165
 50
106.292045027617803
 51
126.1012871542919953
  0
ARC
  5
2D6A9
  8
0
 10
3066.2318705104330547
 20
145.6793973116417078
 30
0.0
 40
0.3410913650408981
 50
77.7954384950684812
 51
106.8723827022866004
  0
ARC
  5
2D6AA
  8
0
 10
3066.253586109311982
 20
145.8037478921278876
 30
0.0
 40
0.2150201114163594
 50
44.9253690043756322
 51
76.4461293529855368
  0
ARC
  5
2D6AB
  8
0
 10
3066.2227654378320949
 20
145.774603927598605
 30
0.0
 40
0.2574255023378108
 50
29.9143026998866617
 51
44.6737770285945928
  0
ARC
  5
2D6AC
  8
0
 10
3052.5897496758670968
 20
143.5196435450598074
 30
0.0
 40
12.8274371423727107
 50
4.6433328233780191
 51
9.2416462271098681
  0
ARC
  5
2D6AD
  8
0
 10
3076.0713224690412062
 20
143.7876267493799958
 30
0.0
 40
10.3655872053378104
 50
168.2246532537720043
 51
175.7374994071905121
  0
ARC
  5
2D6AE
  8
0
 10
3066.1084936369747993
 20
145.5336179887607102
 30
0.0
 40
1.386818806414333
 50
224.7044715930759935
 51
230.4941210859786054
  0
ARC
  5
2D6AF
  8
0
 10
3065.2862395258671313
 20
144.5408712187430069
 30
0.0
 40
0.0978150095937913
 50
232.1781926610659923
 51
247.7555349909445965
  0
ARC
  5
2D6B0
  8
0
 10
3065.2624793681179654
 20
144.482937657513105
 30
0.0
 40
0.0351984589339775
 50
247.8541378622460059
 51
299.4147474289176216
  0
ARC
  5
2D6B1
  8
0
 10
3065.2353593298330452
 20
144.5294815350773092
 30
0.0
 40
0.0890649399416632
 50
299.9068315799647166
 51
316.8549818257411061
  0
ARC
  5
2D6B2
  8
0
 10
3063.4844196326680503
 20
146.0231883269958075
 30
0.0
 40
2.3904816311505428
 50
319.4331441388296753
 51
322.2004484517378273
  0
ARC
  5
2D6B3
  8
0
 10
3068.0421438385151305
 20
147.9903822795718042
 30
0.0
 40
4.3451554874112048
 50
232.1779714739786016
 51
234.0450736800987102
  0
ARC
  5
2D6B4
  8
0
 10
3065.59640327187617
 20
144.6235215483193883
 30
0.0
 40
0.1837620515265643
 50
234.9581426081755922
 51
248.3196735809017071
  0
ARC
  5
2D6B5
  8
0
 10
3065.5548223225709989
 20
144.5192830803769937
 30
0.0
 40
0.0715364327085066
 50
248.4245265190365899
 51
293.004091460675113
  0
ARC
  5
2D6B6
  8
0
 10
3064.9594021513130429
 20
145.5001852712589994
 30
0.0
 40
1.2183116677172809
 50
300.7752879535079273
 51
309.3484859625933723
  0
ARC
  5
2D6B7
  8
0
 10
3067.1878126864990008
 20
145.6609961179784989
 30
0.0
 40
1.823071069488633
 50
217.227976006781887
 51
220.698442518540503
  0
ARC
  5
2D6B8
  8
0
 10
3065.8917768810870257
 20
144.5499269891369067
 30
0.0
 40
0.1160081046155549
 50
222.0601489258430945
 51
234.111646739597802
  0
ARC
  5
2D6B9
  8
0
 10
3065.8475693680011318
 20
144.4862004158391073
 30
0.0
 40
0.0384954365649418
 50
231.8162330993507112
 51
305.278620448089498
  0
ARC
  5
2D6BA
  8
0
 10
3064.9532287531151269
 20
145.6097661306550037
 30
0.0
 40
1.474487382952073
 50
308.4346772852592267
 51
314.4984873195405157
  0
ARC
  5
2D6BB
  8
0
 10
3065.1004146095929173
 20
143.9065573372512858
 30
0.0
 40
0.1813573586440113
 50
2.003408109234563
 51
28.364904532323159
  0
ARC
  5
2D6BC
  8
0
 10
3065.1295559603208858
 20
143.9136385400773008
 30
0.0
 40
0.1525406735848083
 50
31.2258347967892718
 51
71.6233600286667667
  0
ARC
  5
2D6BD
  8
0
 10
3065.1846236712340215
 20
144.0771448321258958
 30
0.0
 40
0.0200010015608224
 50
180.0015482974062877
 51
249.5828197293664914
  0
ARC
  5
2D6BE
  8
0
 10
3065.9897834419548417
 20
143.9093445775413045
 30
0.0
 40
0.1621989167388556
 50
133.4377771440317986
 51
176.7746483690841899
  0
ARC
  5
2D6BF
  8
0
 10
3065.9828406965862087
 20
143.9094865701698893
 30
0.0
 40
0.1573998689736428
 50
108.8999945453322056
 51
131.6379235870176956
  0
ARC
  5
2D6C0
  8
0
 10
3065.9248789058569855
 20
144.0771448244207136
 30
0.0
 40
0.0200009914305501
 50
290.4166860189448016
 51
359.9984717692854019
  0
LINE
  5
2D6C2
  8
0
 10
3065.2816611134308005
 20
143.3745634761324084
 30
0.0
 11
3065.2816611134308005
 21
143.9128973988389077
 31
0.0
  0
LINE
  5
2D6C3
  8
0
 10
3065.8278414536312084
 20
143.374842411418399
 30
0.0
 11
3065.8278414536312084
 21
143.918470420452195
 31
0.0
  0
LINE
  5
2D6C4
  8
0
 10
3065.8219834549049665
 20
143.3632384364173902
 30
0.0
 11
3065.9543750610641837
 21
143.2222302830043077
 31
0.0
  0
LINE
  5
2D6C5
  8
0
 10
3065.2875191120519958
 20
143.3632384364215966
 30
0.0
 11
3065.1550249987471943
 21
143.2223339101923045
 31
0.0
  0
LINE
  5
2D6C6
  8
0
 10
3065.1551278193737744
 20
144.0212703469686915
 30
0.0
 11
3065.2809974766541927
 21
143.9188753946355916
 31
0.0
  0
LINE
  5
2D6C7
  8
0
 10
3065.9543785932060018
 20
144.0212665118725965
 30
0.0
 11
3065.8284498618231737
 21
143.9181037335586097
 31
0.0
  0
ENDSEC
  0
EOF
