  0
SECTION
  2
HEADER
  9
$ACADVER
  1
AC1009
  9
$INSBASE
 10
3073.6928674297178077
 20
145.2113234044954027
 30
0.0
  9
$EXTMIN
 10
3070.0000098151358543
 20
141.6637217881539925
 30
-0.0000000349181948
  9
$EXTMAX
 10
3077.2551443853608362
 20
148.764148339931495
 30
0.0000000814935746
  9
$LIMMIN
 10
0.0
 20
0.0
  9
$LIMMAX
 10
11.6929133858000007
 20
8.2677165353999982
  9
$ORTHOMODE
 70
     0
  9
$REGENMODE
 70
     1
  9
$FILLMODE
 70
     1
  9
$QTEXTMODE
 70
     0
  9
$MIRRTEXT
 70
     0
  9
$DRAGMODE
 70
     2
  9
$LTSCALE
 40
0.6431102362
  9
$OSMODE
 70
   575
  9
$ATTMODE
 70
     1
  9
$TEXTSIZE
 40
0.2
  9
$TRACEWID
 40
0.05
  9
$TEXTSTYLE
  7
STANDARD
  9
$CLAYER
  8
0
  9
$CELTYPE
  6
BYLAYER
  9
$CECOLOR
 62
   256
  9
$DIMSCALE
 40
1.0
  9
$DIMASZ
 40
0.1875
  9
$DIMEXO
 40
0.0625
  9
$DIMDLI
 40
0.4443307087
  9
$DIMRND
 40
0.0
  9
$DIMDLE
 40
0.0
  9
$DIMEXE
 40
0.125
  9
$DIMTP
 40
0.01
  9
$DIMTM
 40
0.01
  9
$DIMTXT
 40
2.0
  9
$DIMCEN
 40
0.1052362205
  9
$DIMTSZ
 40
0.0
  9
$DIMTOL
 70
     1
  9
$DIMLIM
 70
     0
  9
$DIMTIH
 70
     1
  9
$DIMTOH
 70
     1
  9
$DIMSE1
 70
     0
  9
$DIMSE2
 70
     0
  9
$DIMTAD
 70
     0
  9
$DIMZIN
 70
     0
  9
$DIMBLK
  1

  9
$DIMASO
 70
     1
  9
$DIMSHO
 70
     1
  9
$DIMPOST
  1
\X
  9
$DIMAPOST
  1

  9
$DIMALT
 70
     1
  9
$DIMALTD
 70
     2
  9
$DIMALTF
 40
25.3999999999999986
  9
$DIMLFAC
 40
1.0
  9
$DIMTOFL
 70
     0
  9
$DIMTVP
 40
0.0
  9
$DIMTIX
 70
     0
  9
$DIMSOXD
 70
     0
  9
$DIMSAH
 70
     0
  9
$DIMBLK1
  1

  9
$DIMBLK2
  1

  9
$DIMSTYLE
  2
STANDARD
  9
$DIMCLRD
 70
     0
  9
$DIMCLRE
 70
     0
  9
$DIMCLRT
 70
     0
  9
$DIMTFAC
 40
1.0
  9
$DIMGAP
 40
0.09
  9
$LUNITS
 70
     2
  9
$LUPREC
 70
     4
  9
$SKETCHINC
 40
0.1
  9
$FILLETRAD
 40
0.0
  9
$AUNITS
 70
     0
  9
$AUPREC
 70
     0
  9
$MENU
  1
.
  9
$ELEVATION
 40
0.0
  9
$PELEVATION
 40
0.0
  9
$THICKNESS
 40
0.0
  9
$LIMCHECK
 70
     0
  9
$BLIPMODE
 70
     0
  9
$CHAMFERA
 40
0.0
  9
$CHAMFERB
 40
0.0
  9
$SKPOLY
 70
     0
  9
$TDCREATE
 40
2458060.468368056230247
  9
$TDUPDATE
 40
2459540.0739583331160247
  9
$TDINDWG
 40
0.6667084491
  9
$TDUSRTIMER
 40
0.6667084491
  9
$USRTIMER
 70
     1
  9
$ANGBASE
 50
0.0
  9
$ANGDIR
 70
     0
  9
$PDMODE
 70
     0
  9
$PDSIZE
 40
0.3125
  9
$PLINEWID
 40
0.0
  9
$COORDS
 70
     1
  9
$SPLFRAME
 70
     0
  9
$SPLINETYPE
 70
     6
  9
$SPLINESEGS
 70
     8
  9
$ATTDIA
 70
     1
  9
$ATTREQ
 70
     1
  9
$HANDLING
 70
     1
  9
$HANDSEED
  5
2D6D6
  9
$SURFTAB1
 70
     6
  9
$SURFTAB2
 70
     6
  9
$SURFTYPE
 70
     6
  9
$SURFU
 70
     6
  9
$SURFV
 70
     6
  9
$UCSNAME
  2

  9
$UCSORG
 10
0.0
 20
0.0
 30
0.0
  9
$UCSXDIR
 10
1.0
 20
0.0
 30
0.0
  9
$UCSYDIR
 10
0.0
 20
1.0
 30
0.0
  9
$PUCSNAME
  2

  9
$PUCSORG
 10
0.0
 20
0.0
 30
0.0
  9
$PUCSXDIR
 10
1.0
 20
0.0
 30
0.0
  9
$PUCSYDIR
 10
0.0
 20
1.0
 30
0.0
  9
$USERI1
 70
     0
  9
$USERI2
 70
     0
  9
$USERI3
 70
     0
  9
$USERI4
 70
     0
  9
$USERI5
 70
     0
  9
$USERR1
 40
0.0
  9
$USERR2
 40
0.0
  9
$USERR3
 40
0.0
  9
$USERR4
 40
0.0
  9
$USERR5
 40
0.0
  9
$WORLDVIEW
 70
     1
  9
$SHADEDGE
 70
     3
  9
$SHADEDIF
 70
    70
  9
$TILEMODE
 70
     1
  9
$MAXACTVP
 70
    64
  9
$PLIMCHECK
 70
     0
  9
$PEXTMIN
 10
1.0000000000000000E+20
 20
1.0000000000000000E+20
 30
1.0000000000000000E+20
  9
$PEXTMAX
 10
-1.0000000000000000E+20
 20
-1.0000000000000000E+20
 30
-1.0000000000000000E+20
  9
$PLIMMIN
 10
0.0
 20
0.0
  9
$PLIMMAX
 10
12.0
 20
9.0
  9
$UNITMODE
 70
     0
  9
$VISRETAIN
 70
     1
  9
$PLINEGEN
 70
     0
  9
$PSLTSCALE
 70
     1
  0
ENDSEC
  0
SECTION
  2
TABLES
  0
TABLE
  2
VPORT
 70
     1
  0
VPORT
  2
*ACTIVE
 70
     0
 10
0.0
 20
0.0
 11
1.0
 21
1.0
 12
-230.0655381662215007
 22
-50.0475765114345705
 13
0.0
 23
0.0
 14
1.0
 24
1.0
 15
0.0
 25
0.0
 16
0.0
 26
0.0
 36
96.5995694866707311
 17
3303.693115234375
 27
195.2615115758877096
 37
0.0
 40
9.1852326658264705
 41
2.7513321492007101
 42
50.0
 43
0.0
 44
0.0
 50
0.0
 51
0.0
 71
     0
 72
   100
 73
     1
 74
     1
 75
     0
 76
     0
 77
     0
 78
     0
  0
ENDTAB
  0
TABLE
  2
LTYPE
 70
     2
  0
LTYPE
  2
CONTINUOUS
 70
     0
  3
Solid line
 72
    65
 73
     0
 40
0.0
  0
LTYPE
  2
PHANTOM2
 70
     0
  3
___ _ _ ___ _ _ ___ _ _ ___ _ _
 72
    65
 73
     6
 40
1.25
 49
0.625
 49
-0.125
 49
0.125
 49
-0.125
 49
0.125
 49
-0.125
  0
ENDTAB
  0
TABLE
  2
LAYER
 70
     2
  0
LAYER
  2
0
 70
     0
 62
   255
  6
CONTINUOUS
  0
LAYER
  2
DEFPOINTS
 70
     0
 62
     7
  6
CONTINUOUS
  0
ENDTAB
  0
TABLE
  2
STYLE
 70
     1
  0
STYLE
  2
STANDARD
 70
     0
 40
0.0
 41
0.8
 50
0.0
 71
     0
 42
0.2
  3
txt
  4

  0
ENDTAB
  0
TABLE
  2
VIEW
 70
     0
  0
ENDTAB
  0
TABLE
  2
UCS
 70
     0
  0
ENDTAB
  0
TABLE
  2
APPID
 70
     9
  0
APPID
  2
ACAD
 70
     0
  0
APPID
  2
ACAD_MLEADERVER
 70
     0
  0
APPID
  2
ACAD_EXEMPT_FROM_CAD_STANDARDS
 70
     0
  0
APPID
  2
ACAD_NAV_VCDISPLAY
 70
     0
  0
APPID
  2
ACAECLAYERSTANDARD
 70
     0
  0
APPID
  2
ACCMTRANSPARENCY
 70
     0
  0
APPID
  2
ACAD_DSTYLE_DIMJAG
 70
     0
  0
APPID
  2
ACAD_DSTYLE_DIMTALN
 70
     0
  0
APPID
  2
ACDBATTR
 70
     0
  0
ENDTAB
  0
TABLE
  2
DIMSTYLE
 70
     1
  0
DIMSTYLE
  2
STANDARD
 70
     0
  3

  4

  5

  6

  7

 40
1.0
 41
0.1875
 42
0.0625
 43
0.38
 44
0.125
 45
0.0
 46
0.0
 47
0.01
 48
0.01
140
0.15625
141
0.09
142
0.0
143
25.3999999999999986
144
1.0
145
0.0
146
1.0
147
0.09
 71
     1
 72
     0
 73
     1
 74
     1
 75
     0
 76
     0
 77
     0
 78
     4
170
     0
171
     2
172
     0
173
     0
174
     0
175
     0
176
     0
177
     0
178
     0
  0
ENDTAB
  0
ENDSEC
  0
SECTION
  2
BLOCKS
  0
BLOCK
  8
0
  2
$MODEL_SPACE
 70
     0
 10
0.0
 20
0.0
 30
0.0
  3
$MODEL_SPACE
  1

  0
ENDBLK
  5
21
  8
0
  0
BLOCK
 67
     1
  8
0
  2
$PAPER_SPACE
 70
     0
 10
0.0
 20
0.0
 30
0.0
  3
$PAPER_SPACE
  1

  0
ENDBLK
  5
1D
 67
     1
  8
0
  0
ENDSEC
  0
SECTION
  2
ENTITIES
  0
ATTDEF
  5
28FC7
  8
DEFPOINTS
 10
3073.6928972392288415
 20
145.2102692562573907
 30
0.0
 40
0.001
  1
K-11678T-4V
  3

  2
MODELNUMBER
 70
     0
1001
ACDBATTR
1070
     0
1070
     1
  0
ATTDEF
  5
28FC8
  8
DEFPOINTS
 10
3073.6928972392288415
 20
145.2086025895906971
 30
0.0
 40
0.001
  1
MEMOIRS 
  3

  2
TRADENAME
 70
     0
1001
ACDBATTR
1070
     0
1070
     1
  0
ATTDEF
  5
28FC9
  8
DEFPOINTS
 10
3073.6928972392288415
 20
145.2069359229240888
 30
0.0
 40
0.001
  1
SHOWER TRIM
  3

  2
PRODUCT
 70
     0
1001
ACDBATTR
1070
     0
1070
     1
  0
LINE
  5
2D549
  8
0
 10
3070.1602963213090334
 20
148.6168980526526013
 30
0.0
 11
3070.1602963228078806
 21
141.8057476851525962
 31
0.0
  0
LINE
  5
2D54A
  8
0
 10
3070.2678601257089213
 20
141.9179552490525964
 30
0.0
 11
3070.2678601257089213
 21
148.5046888747525884
 31
0.0
  0
LINE
  5
2D54B
  8
0
 10
3070.298028920309207
 20
141.6680163182525973
 30
0.0
 11
3073.5756506516090667
 21
141.6680163178525902
 31
0.0
  0
LINE
  5
2D54C
  8
0
 10
3073.7036034075590578
 20
141.6803888263526119
 30
0.0
 11
3073.6051782106092105
 21
141.6803888263526119
 31
0.0
  0
LINE
  5
2D54D
  8
0
 10
3073.7036034075590578
 20
141.7755801226525989
 30
0.0
 11
3070.4102379373089207
 21
141.7755801226525989
 31
0.0
  0
LINE
  5
2D54E
  8
0
 10
3070.7370998083088125
 20
148.1056531351526075
 30
0.0
 11
3070.7370998083088125
 21
142.3169936049525859
 31
0.0
  0
LINE
  5
2D54F
  8
0
 10
3070.8092745119088249
 20
142.2448207688526054
 30
0.0
 11
3073.7036034075590578
 21
142.2448207688526054
 31
0.0
  0
LINE
  5
2D550
  8
0
 10
3070.8226953885091461
 20
148.078447138555191
 30
0.0
 11
3070.8226953885091461
 21
142.330574251852596
 31
0.0
  0
LINE
  5
2D551
  8
0
 10
3070.9073047931087785
 20
142.492737887752611
 30
0.0
 11
3070.9083518686911702
 21
147.9278076747019099
 31
0.0
  0
LINE
  5
2D552
  8
0
 10
3073.7036034075590578
 20
142.330574251852596
 30
0.0
 11
3070.8226953885091461
 21
142.330574251852596
 31
0.0
  0
LINE
  5
2D553
  8
0
 10
3073.7036034075590578
 20
142.4171999968025091
 30
0.0
 11
3070.985017477853944
 21
142.4150220900617114
 31
0.0
  0
LINE
  5
2D554
  8
0
 10
3073.9906342081080766
 20
143.4190731531525955
 30
0.0
 11
3073.4165726068090407
 21
143.4190731531525955
 31
0.0
  0
LINE
  5
2D555
  8
0
 10
3073.3040940417090496
 20
143.5244141403526044
 30
0.0
 11
3073.4023486992091421
 21
143.425013265152586
 31
0.0
  0
LINE
  5
2D556
  8
0
 10
3073.5221341246087832
 20
146.6240146796525892
 30
0.0
 11
3073.5239385248078179
 21
146.6258190798525902
 31
0.0
  0
LINE
  5
2D557
  8
0
 10
3073.2698648559089634
 20
146.3717469538526075
 30
0.0
 11
3073.2716717853090813
 21
146.3735524021525976
 31
0.0
  0
LINE
  5
2D558
  8
0
 10
3073.2698648559089634
 20
146.3717469538526075
 30
0.0
 11
3073.2698636365089442
 21
146.3691867462526091
 31
0.0
  0
LINE
  5
2D559
  8
0
 10
3073.2698636088089188
 20
146.0149795807525948
 30
0.0
 11
3073.2698676312088537
 21
146.0124184057526122
 31
0.0
  0
LINE
  5
2D55A
  8
0
 10
3073.4294755477380932
 20
145.5303073694578018
 30
0.0
 11
3073.3344809664458808
 21
145.3009390966003025
 31
0.0
  0
LINE
  5
2D55B
  8
0
 10
3073.430513371708912
 20
146.4451733320526046
 30
0.0
 11
3073.4305131032078862
 21
145.9134771575525917
 31
0.0
  0
LINE
  5
2D55C
  8
0
 10
3073.5756506516090667
 20
141.6680163178525902
 30
0.0
 11
3073.5756506516090667
 21
141.6698565200526048
 31
0.0
  0
LINE
  5
2D55D
  8
0
 10
3073.4302252658089856
 20
145.6734922853526086
 30
0.0
 11
3073.4304309568087774
 21
145.7724907708526132
 31
0.0
  0
LINE
  5
2D55E
  8
0
 10
3073.4202585140092197
 20
145.9218925262526056
 30
0.0
 11
3073.4259273964089516
 21
145.908111285552593
 31
0.0
  0
LINE
  5
2D55F
  8
0
 10
3073.2716720236089714
 20
146.0106140132525923
 30
0.0
 11
3073.2698676312088537
 21
146.0124184057526122
 31
0.0
  0
LINE
  5
2D560
  8
0
 10
3073.4126920861481267
 20
145.9321391897339026
 30
0.0
 11
3073.4202585140092197
 21
145.9218925262526056
 31
0.0
  0
LINE
  5
2D561
  8
0
 10
3072.7304375217240704
 20
146.1428706976525973
 30
0.0
 11
3072.6504538012090961
 21
146.1428706976525973
 31
0.0
  0
LINE
  5
2D562
  8
0
 10
3074.6767692932940008
 20
146.1428706976525973
 30
0.0
 11
3074.7567530138080656
 21
146.1428706976525973
 31
0.0
  0
LINE
  5
2D563
  8
0
 10
3072.6504538012090961
 20
146.2412958944526054
 30
0.0
 11
3072.7304375217240704
 21
146.2412958944526054
 31
0.0
  0
LINE
  5
2D564
  8
0
 10
3074.6767692782091217
 20
146.2412958944526054
 30
0.0
 11
3074.7567530138080656
 21
146.2412958944526054
 31
0.0
  0
LINE
  5
2D565
  8
0
 10
3073.4505133717088938
 20
146.4651733318526112
 30
0.0
 11
3073.7036034075590578
 21
146.4651733318526112
 31
0.0
  0
LINE
  5
2D566
  8
0
 10
3074.0048581158089291
 20
143.425013265152586
 30
0.0
 11
3074.103112773409066
 21
143.5244141404525919
 31
0.0
  0
LINE
  5
2D567
  8
0
 10
3073.5264996922091996
 20
146.6258230947526044
 30
0.0
 11
3073.5239385248078179
 21
146.6258190798525902
 31
0.0
  0
LINE
  5
2D568
  8
0
 10
3076.5709231015398473
 20
148.0920349703440877
 30
0.0
 11
3070.8362837135769041
 21
148.0920349703440877
 31
0.0
  0
LINE
  5
2D569
  8
0
 10
3076.5979322740090538
 20
148.1778256303526007
 30
0.0
 11
3070.8092745411090618
 21
148.1778256303526007
 31
0.0
  0
LINE
  5
2D56A
  8
0
 10
3070.4013609848248052
 20
148.6470666870525861
 30
0.0
 11
3077.0058458302928557
 21
148.6470666870525861
 31
0.0
  0
LINE
  5
2D56B
  8
0
 10
3077.109183426312029
 20
148.7546304905525858
 30
0.0
 11
3070.2980275272088875
 21
148.7546304891525892
 31
0.0
  0
ARC
  5
2D56C
  8
0
 10
3070.2979789352921216
 20
141.8056989302947102
 30
0.0
 40
0.1376826211155533
 50
179.9797109640871042
 51
270.0208009590331812
  0
ARC
  5
2D56D
  8
0
 10
3070.2979788806310353
 20
148.6169479293897098
 30
0.0
 40
0.1376825683568976
 50
89.9797560166345676
 51
180.0207559070749994
  0
ARC
  5
2D56E
  8
0
 10
3073.3181248184992
 20
143.5386823883773957
 30
0.0
 40
0.020011136875063
 50
171.0233187957122141
 51
225.4807861838145016
  0
ARC
  5
2D56F
  8
0
 10
3073.4165726068090407
 20
143.4390731531526058
 30
0.0
 40
0.02
 50
224.6677416592908116
 51
270.0
  0
ARC
  5
2D570
  8
0
 10
3073.9906342081080766
 20
143.4390731531526058
 30
0.0
 40
0.02
 50
270.0
 51
315.3322583407081083
  0
ARC
  5
2D571
  8
0
 10
3074.0890848554008699
 20
143.5386810325472879
 30
0.0
 40
0.0200081656748375
 50
314.5160992072032968
 51
9.0190966748023804
  0
ARC
  5
2D572
  8
0
 10
3072.6504538012090961
 20
146.1920832960526013
 30
0.0
 40
0.0492125984
 50
89.9999999998957776
 51
270.0
  0
ARC
  5
2D573
  8
0
 10
3073.4505133717088938
 20
146.445173331852601
 30
0.0
 40
0.0199999999999987
 50
90.0
 51
179.9999994721040935
  0
ARC
  5
2D574
  8
0
 10
3073.7036034075090356
 20
146.1920832960526013
 30
0.0
 40
1.2106299213
 50
283.4269759552910273
 51
256.5130267994950941
  0
ARC
  5
2D575
  8
0
 10
3073.7036034075090356
 20
146.1920832960526013
 30
0.0
 40
1.0433070866
 50
357.2963656657460092
 51
2.7036343342539029
  0
ARC
  5
2D576
  8
0
 10
3073.7036034075090356
 20
146.1920832960526013
 30
0.0
 40
1.0433070866
 50
177.2963656657460945
 51
182.7036343342539055
  0
ARC
  5
2D577
  8
0
 10
3073.7036034075090356
 20
146.1920832960526013
 30
0.0
 40
0.9842496114999999
 50
2.8659908500944131
 51
177.1340091499056086
  0
ARC
  5
2D578
  8
0
 10
3073.7036034075090356
 20
146.1920832960526013
 30
0.0
 40
0.9842496114999999
 50
182.8659908500943914
 51
253.6389641050922137
  0
ARC
  5
2D579
  8
0
 10
3073.7036034075090356
 20
146.1920832960526013
 30
0.0
 40
0.9842496114999999
 50
286.361035900962122
 51
357.1340091499055802
  0
ARC
  5
2D57A
  8
0
 10
3073.7036034075090356
 20
146.1920832960526013
 30
0.0
 40
0.9744094217
 50
286.5219087434405765
 51
253.4780912626738996
  0
ARC
  5
2D57B
  8
0
 10
3073.7036034075090356
 20
146.1920832960526013
 30
0.0
 40
0.9645669290999999
 50
286.6863955992280921
 51
253.3136044069466095
  0
ARC
  5
2D57C
  8
0
 10
3073.7036034075090356
 20
146.1920832960526013
 30
0.0
 40
0.3901286138
 50
89.9999999926524765
 51
221.7824131847067974
  0
ARC
  5
2D57D
  8
0
 10
3074.7567530138080656
 20
146.1920832960526013
 30
0.0
 40
0.0492125984
 50
270.000000000104194
 51
90.0
  0
LINE
  5
2D57E
  8
0
 10
3072.8124562788980256
 20
145.8229679267134031
 30
0.0
 11
3073.2698676312088537
 21
146.0124184057526122
 31
0.0
  0
LINE
  5
2D57F
  8
0
 10
3072.8124615981441821
 20
146.5612115072702011
 30
0.0
 11
3073.2698648559089634
 21
146.3717469538526075
 31
0.0
  0
LINE
  5
2D580
  8
0
 10
3073.3344880121771894
 20
147.0832304138972972
 30
0.0
 11
3073.5239385248078179
 21
146.6258190798525902
 31
0.0
  0
LINE
  5
2D581
  8
0
 10
3073.2991183818621721
 20
143.532421318562001
 30
0.0
 11
3074.1080884331558991
 21
143.532421318562001
 31
0.0
  0
LINE
  5
2D582
  8
0
 10
3070.9361285406171191
 20
142.443846181264604
 30
0.0
 11
3070.2006198692652106
 21
141.7083453663142052
 31
0.0
  0
LINE
  5
2D583
  8
0
 10
3070.9371691970450229
 20
147.9777600348151054
 30
0.0
 11
3070.2006249325731915
 21
148.7143065367475003
 31
0.0
  0
ARC
  5
2D584
  8
0
 10
3070.4058017865049806
 20
148.5091251712204041
 30
0.0
 40
0.1380129794970672
 50
91.8439071491802963
 51
181.8420358522920139
  0
ARC
  5
2D585
  8
0
 10
3070.405204702572064
 20
141.9129246046144885
 30
0.0
 40
0.1374366769727207
 50
177.9023132484022085
 51
272.0987673418592863
  0
ARC
  5
2D586
  8
0
 10
3070.8550506119258898
 20
142.3627727569686954
 30
0.0
 40
0.1265232106506954
 50
201.2122651044113013
 51
248.7892174268303904
  0
ARC
  5
2D587
  8
0
 10
3070.8550471134190047
 20
148.0598769060979123
 30
0.0
 40
0.1265188915901187
 50
111.2098280002234958
 51
158.7883956575761033
  0
ARC
  5
2D588
  8
0
 10
3071.016389913158946
 20
142.5241059535354964
 30
0.0
 40
0.1135055900270387
 50
196.042899589257587
 51
253.9548053531217988
  0
ARC
  5
2D589
  8
0
 10
3071.0158297047341875
 20
147.8990926001476112
 30
0.0
 40
0.1112476550188687
 50
104.9546340227265944
 51
165.0415519223138006
  0
LINE
  5
2D58A
  8
0
 10
3070.9871217848090055
 20
148.0065723474525896
 30
0.0
 11
3076.4200850303091102
 21
148.0065723474525896
 31
0.0
  0
LINE
  5
2D58B
  8
0
 10
3070.8226953885091461
 20
148.078447138555191
 30
0.0
 11
3070.8362837135769041
 21
148.0920349703440877
 31
0.0
  0
ARC
  5
2D58C
  8
0
 10
3073.2275398593560567
 20
145.863809041098591
 30
0.0
 40
0.2032739622320757
 50
3.1155846030409791
 51
12.5882751473073
  0
ARC
  5
2D58D
  8
0
 10
3033.5480251265921652
 20
145.8298855255283115
 30
0.0
 40
39.8825755783894706
 50
359.0365673252283045
 51
0.1200888145970507
  0
ARC
  5
2D58E
  8
0
 10
3061.6292721598188109
 20
145.2885482882348924
 30
0.0
 40
11.7963985504166793
 50
356.5926335091222086
 51
359.3721664316155966
  0
ARC
  5
2D58F
  8
0
 10
3063.4349763580398758
 20
145.0742556657386046
 30
0.0
 40
9.9817192167965612
 50
351.1686956329359077
 51
357.2044924096474006
  0
ARC
  5
2D590
  8
0
 10
3072.6800495859229159
 20
145.1328530042935938
 30
0.0
 40
1.058527986225368
 50
44.8735157310856394
 51
56.0195129354280681
  0
ARC
  5
2D591
  8
0
 10
3072.5252129972300281
 20
146.1920832217363966
 30
0.0
 40
0.7654216047212244
 50
346.621638253766605
 51
13.3783527848518293
  0
ARC
  5
2D592
  8
0
 10
3072.8703558209322182
 20
147.0253308048519898
 30
0.0
 40
0.7654211843746622
 50
301.6216271088329108
 51
328.3783587538064808
  0
ARC
  5
2D593
  8
0
 10
3073.7964217647859186
 20
148.1618885971525117
 30
0.0
 40
1.559600959517325
 50
260.0335642826170215
 51
266.5880730530105893
  0
ARC
  5
2D594
  8
0
 10
3073.6052027086661838
 20
141.6279014998212062
 30
0.0
 40
0.0524873322485489
 50
90.0267423645411924
 51
103.2152907526831029
  0
ARC
  5
2D595
  8
0
 10
3073.6044475845078523
 20
141.629924361575803
 30
0.0
 40
0.0503461490470151
 50
102.9049703411614018
 51
116.9910257677297949
  0
ARC
  5
2D596
  8
0
 10
3073.5941609441019864
 20
141.6499705427623894
 30
0.0
 40
0.0278149278669381
 50
116.850505945482098
 51
125.7151653629772028
  0
ARC
  5
2D597
  8
0
 10
3073.5845114311891848
 20
141.6634106293404045
 30
0.0
 40
0.011269574219767
 50
125.7711579235241004
 51
136.4833956308725078
  0
ARC
  5
2D598
  8
0
 10
3073.5789973430469217
 20
141.6687001346610941
 30
0.0
 40
0.0036289388583704
 50
137.0993114887947115
 51
150.3759154387834087
  0
ARC
  5
2D599
  8
0
 10
3073.5770243046649739
 20
141.6697902012477073
 30
0.0
 40
0.001375253032449
 50
149.2215353125253046
 51
177.2359545615138927
  0
LINE
  5
2D59A
  8
0
 10
3073.8850726905079682
 20
146.6240146796525892
 30
0.0
 11
3073.8832682903089335
 21
146.6258190798525902
 31
0.0
  0
LINE
  5
2D59B
  8
0
 10
3074.137341959207788
 20
146.3717469538526075
 30
0.0
 11
3074.1355350298090343
 21
146.3735524021525976
 31
0.0
  0
LINE
  5
2D59C
  8
0
 10
3074.137341959207788
 20
146.3717469538526075
 30
0.0
 11
3074.1373431786078072
 21
146.3691867462526091
 31
0.0
  0
LINE
  5
2D59D
  8
0
 10
3074.1373432063091968
 20
146.0149795807525948
 30
0.0
 11
3074.1373391839078977
 21
146.0124184057526122
 31
0.0
  0
LINE
  5
2D59E
  8
0
 10
3073.977731267379113
 20
145.5303073694578018
 30
0.0
 11
3074.0727258486708706
 21
145.3009390966003025
 31
0.0
  0
LINE
  5
2D59F
  8
0
 10
3073.9766934434078394
 20
146.4451733320526046
 30
0.0
 11
3073.9766937119088652
 21
145.9134771575525917
 31
0.0
  0
LINE
  5
2D5A0
  8
0
 10
3073.9869483011079865
 20
145.9218925262526056
 30
0.0
 11
3073.9812794187077998
 21
145.908111285552593
 31
0.0
  0
LINE
  5
2D5A1
  8
0
 10
3074.13553479150778
 20
146.0106140132525923
 30
0.0
 11
3074.1373391839078977
 21
146.0124184057526122
 31
0.0
  0
LINE
  5
2D5A2
  8
0
 10
3073.9945147289699889
 20
145.9321391897339026
 30
0.0
 11
3073.9869483011079865
 21
145.9218925262526056
 31
0.0
  0
LINE
  5
2D5A3
  8
0
 10
3073.9566934434078576
 20
146.4651733318526112
 30
0.0
 11
3073.7036034075590578
 21
146.4651733318526112
 31
0.0
  0
LINE
  5
2D5A4
  8
0
 10
3073.8807071229089161
 20
146.6258230947526044
 30
0.0
 11
3073.8832682903089335
 21
146.6258190798525902
 31
0.0
  0
ARC
  5
2D5A5
  8
0
 10
3073.9566934434078576
 20
146.445173331852601
 30
0.0
 40
0.0199999999999987
 50
0.0000005278959474
 51
90.0
  0
ARC
  5
2D5A6
  8
0
 10
3073.70360340760908
 20
146.1920832960526013
 30
0.0
 40
0.3901286138
 50
318.2175868152932026
 51
90.0000000073475377
  0
LINE
  5
2D5A7
  8
0
 10
3074.5947505362191805
 20
145.8229679267134031
 30
0.0
 11
3074.1373391839078977
 21
146.0124184057526122
 31
0.0
  0
LINE
  5
2D5A8
  8
0
 10
3074.5947452169730241
 20
146.5612115072702011
 30
0.0
 11
3074.137341959207788
 21
146.3717469538526075
 31
0.0
  0
LINE
  5
2D5A9
  8
0
 10
3074.0727188029400168
 20
147.0832304138972972
 30
0.0
 11
3073.8832682903089335
 21
146.6258190798525902
 31
0.0
  0
ARC
  5
2D5AA
  8
0
 10
3074.1796669557611494
 20
145.863809041098591
 30
0.0
 40
0.2032739622320757
 50
167.4117248526927142
 51
176.8844153969590138
  0
ARC
  5
2D5AB
  8
0
 10
3113.8591816885259504
 20
145.8298855255283115
 30
0.0
 40
39.8825755783894706
 50
179.8799111854029036
 51
180.9634326747716955
  0
ARC
  5
2D5AC
  8
0
 10
3085.77793465529885
 20
145.2885482882348924
 30
0.0
 40
11.7963985504166793
 50
180.6278335683844034
 51
183.4073664908777914
  0
ARC
  5
2D5AD
  8
0
 10
3083.9723734289009371
 20
145.0742664270281068
 30
0.0
 40
9.9818625433230714
 50
182.7955292619051875
 51
188.8311646458205075
  0
ARC
  5
2D5AE
  8
0
 10
3074.7271572291938355
 20
145.1328530042935938
 30
0.0
 40
1.058527986225368
 50
123.9804870645719035
 51
135.1264842689143109
  0
ARC
  5
2D5AF
  8
0
 10
3074.881993817887178
 20
146.1920832217363966
 30
0.0
 40
0.7654216047212244
 50
166.6216472151481867
 51
193.378361746233395
  0
ARC
  5
2D5B0
  8
0
 10
3074.5368509941858974
 20
147.0253308048519898
 30
0.0
 40
0.7654211843746622
 50
211.6216412461934908
 51
238.3783728911670892
  0
ARC
  5
2D5B1
  8
0
 10
3073.6107850503308327
 20
148.1618885971525117
 30
0.0
 40
1.559600959517325
 50
273.4119269469894107
 51
279.9664357173829785
  0
LINE
  5
2D5B2
  8
0
 10
3077.2469104938090823
 20
148.6168980526526013
 30
0.0
 11
3077.2469104923088707
 21
141.8057476851525962
 31
0.0
  0
LINE
  5
2D5B3
  8
0
 10
3077.1393466894091944
 20
141.9179552490525964
 30
0.0
 11
3077.1393466894091944
 21
148.5046888747525884
 31
0.0
  0
LINE
  5
2D5B4
  8
0
 10
3077.1091778948089086
 20
141.6680163182525973
 30
0.0
 11
3073.8315561635090489
 21
141.6680163178525902
 31
0.0
  0
LINE
  5
2D5B5
  8
0
 10
3073.7036034075590578
 20
141.6803888263526119
 30
0.0
 11
3073.8020286045089051
 21
141.6803888263526119
 31
0.0
  0
LINE
  5
2D5B6
  8
0
 10
3073.7036034075590578
 20
141.7755801226525989
 30
0.0
 11
3076.9969688778078307
 21
141.7755801226525989
 31
0.0
  0
LINE
  5
2D5B7
  8
0
 10
3076.6701070068088484
 20
148.1056531351526075
 30
0.0
 11
3076.6701070068088484
 21
142.3169936049525859
 31
0.0
  0
LINE
  5
2D5B8
  8
0
 10
3076.5979323032079265
 20
142.2448207688526054
 30
0.0
 11
3073.7036034075590578
 21
142.2448207688526054
 31
0.0
  0
LINE
  5
2D5B9
  8
0
 10
3076.5845114266089695
 20
148.078447138555191
 30
0.0
 11
3076.5845114266089695
 21
142.330574251852596
 31
0.0
  0
LINE
  5
2D5BA
  8
0
 10
3076.4999020220088823
 20
142.492737887752611
 30
0.0
 11
3076.4988549464260359
 21
147.9278076747019099
 31
0.0
  0
LINE
  5
2D5BB
  8
0
 10
3073.7036034075590578
 20
142.330574251852596
 30
0.0
 11
3076.5845114266089695
 21
142.330574251852596
 31
0.0
  0
LINE
  5
2D5BC
  8
0
 10
3073.7036034075590578
 20
142.4171999968025091
 30
0.0
 11
3076.4221893372628074
 21
142.4150220900617114
 31
0.0
  0
LINE
  5
2D5BD
  8
0
 10
3073.8315561635090489
 20
141.6680163178525902
 30
0.0
 11
3073.8315561635090489
 21
141.6698565200526048
 31
0.0
  0
ARC
  5
2D5BE
  8
0
 10
3077.1092278798250845
 20
141.8056989302947102
 30
0.0
 40
0.1376826211155533
 50
269.9791990409668188
 51
0.0202890359128976
  0
ARC
  5
2D5BF
  8
0
 10
3077.1092279344861709
 20
148.6169479293897098
 30
0.0
 40
0.1376825683568998
 50
359.9792440929248869
 51
90.0185218113487053
  0
LINE
  5
2D5C0
  8
0
 10
3076.4710782745009965
 20
142.443846181264604
 30
0.0
 11
3077.2065869458519956
 21
141.7083453663142052
 31
0.0
  0
LINE
  5
2D5C1
  8
0
 10
3076.4700376180730927
 20
147.9777600348151054
 30
0.0
 11
3077.2065818825449242
 21
148.7143065367475003
 31
0.0
  0
ARC
  5
2D5C2
  8
0
 10
3077.0014050286122256
 20
148.5091251712204041
 30
0.0
 40
0.1380129794970672
 50
358.1579641477079008
 51
88.1560928508197463
  0
ARC
  5
2D5C3
  8
0
 10
3077.0020021125451422
 20
141.9129246046144885
 30
0.0
 40
0.1374366769727207
 50
267.9012326581406001
 51
2.0976867515977502
  0
ARC
  5
2D5C4
  8
0
 10
3076.5521562031908616
 20
142.3627727569686954
 30
0.0
 40
0.1265232106506954
 50
291.2107825731695812
 51
338.787734895588585
  0
ARC
  5
2D5C5
  8
0
 10
3076.5521597016982014
 20
148.0598769060979123
 30
0.0
 40
0.1265188915901187
 50
21.2116043424238612
 51
68.7901719997764474
  0
ARC
  5
2D5C6
  8
0
 10
3076.3908169019578054
 20
142.5241059535354964
 30
0.0
 40
0.1135055900270387
 50
286.0451946468782012
 51
343.9571004107423846
  0
ARC
  5
2D5C7
  8
0
 10
3076.3913771103830186
 20
147.8990926001476112
 30
0.0
 40
0.1112476550188687
 50
14.9584480776877999
 51
75.0453659772733488
  0
LINE
  5
2D5C8
  8
0
 10
3076.5845114266089695
 20
148.078447138555191
 30
0.0
 11
3076.5709231015398473
 21
148.0920349703440877
 31
0.0
  0
ARC
  5
2D5C9
  8
0
 10
3073.8020041064510224
 20
141.6279014998212062
 30
0.0
 40
0.0524873322485489
 50
76.7847092473168829
 51
89.9732576354588218
  0
ARC
  5
2D5CA
  8
0
 10
3073.8027592306098086
 20
141.629924361575803
 30
0.0
 40
0.0503461490470151
 50
63.0089742322702193
 51
77.0950296588385982
  0
ARC
  5
2D5CB
  8
0
 10
3073.8130458710161292
 20
141.6499705427623894
 30
0.0
 40
0.0278149278669381
 50
54.284834637022783
 51
63.1494940545179233
  0
ARC
  5
2D5CC
  8
0
 10
3073.8226953839280213
 20
141.6634106293404045
 30
0.0
 40
0.011269574219767
 50
43.5166043691274496
 51
54.2288420764758783
  0
ARC
  5
2D5CD
  8
0
 10
3073.8282094720711939
 20
141.6687001346610941
 30
0.0
 40
0.0036289388583704
 50
29.6240845612165309
 51
42.9006885112052601
  0
ARC
  5
2D5CE
  8
0
 10
3073.8301825104517775
 20
141.6697902012477073
 30
0.0
 40
0.001375253032449
 50
2.7640454384860891
 51
30.7784646874746706
  0
ENDSEC
  0
EOF
