  0
SECTION
  2
HEADER
  9
$ACADVER
  1
AC1009
  9
$INSBASE
 10
7829.6683283059737732
 20
1785.5022586730360672
 30
0.0
  9
$EXTMIN
 10
7828.4502265810870085
 20
1784.2841569481508941
 30
0.0
  9
$EXTMAX
 10
7830.8864300308578095
 20
1786.7203603979219224
 30
0.0
  9
$LIMMIN
 10
0.0
 20
0.0
  9
$LIMMAX
 10
11.6929133858000007
 20
8.2677165353999982
  9
$ORTHOMODE
 70
     0
  9
$REGENMODE
 70
     1
  9
$FILLMODE
 70
     1
  9
$QTEXTMODE
 70
     0
  9
$MIRRTEXT
 70
     0
  9
$DRAGMODE
 70
     2
  9
$LTSCALE
 40
0.6431102362
  9
$OSMODE
 70
  4063
  9
$ATTMODE
 70
     1
  9
$TEXTSIZE
 40
0.2
  9
$TRACEWID
 40
0.05
  9
$TEXTSTYLE
  7
STANDARD
  9
$CLAYER
  8
0
  9
$CELTYPE
  6
BYLAYER
  9
$CECOLOR
 62
   256
  9
$DIMSCALE
 40
1.0
  9
$DIMASZ
 40
0.1875
  9
$DIMEXO
 40
0.0625
  9
$DIMDLI
 40
0.4443307087
  9
$DIMRND
 40
0.0
  9
$DIMDLE
 40
0.0
  9
$DIMEXE
 40
0.125
  9
$DIMTP
 40
0.01
  9
$DIMTM
 40
0.01
  9
$DIMTXT
 40
2.0
  9
$DIMCEN
 40
0.1052362205
  9
$DIMTSZ
 40
0.0
  9
$DIMTOL
 70
     1
  9
$DIMLIM
 70
     0
  9
$DIMTIH
 70
     1
  9
$DIMTOH
 70
     1
  9
$DIMSE1
 70
     0
  9
$DIMSE2
 70
     0
  9
$DIMTAD
 70
     0
  9
$DIMZIN
 70
     0
  9
$DIMBLK
  1

  9
$DIMASO
 70
     1
  9
$DIMSHO
 70
     1
  9
$DIMPOST
  1
\X
  9
$DIMAPOST
  1

  9
$DIMALT
 70
     1
  9
$DIMALTD
 70
     2
  9
$DIMALTF
 40
25.3999999999999986
  9
$DIMLFAC
 40
1.0
  9
$DIMTOFL
 70
     0
  9
$DIMTVP
 40
0.0
  9
$DIMTIX
 70
     0
  9
$DIMSOXD
 70
     0
  9
$DIMSAH
 70
     0
  9
$DIMBLK1
  1

  9
$DIMBLK2
  1

  9
$DIMSTYLE
  2
STANDARD
  9
$DIMCLRD
 70
     0
  9
$DIMCLRE
 70
     0
  9
$DIMCLRT
 70
     0
  9
$DIMTFAC
 40
1.0
  9
$DIMGAP
 40
0.09
  9
$LUNITS
 70
     2
  9
$LUPREC
 70
     4
  9
$SKETCHINC
 40
0.1
  9
$FILLETRAD
 40
0.0
  9
$AUNITS
 70
     0
  9
$AUPREC
 70
     0
  9
$MENU
  1
.
  9
$ELEVATION
 40
0.0
  9
$PELEVATION
 40
0.0
  9
$THICKNESS
 40
0.0
  9
$LIMCHECK
 70
     0
  9
$BLIPMODE
 70
     0
  9
$CHAMFERA
 40
0.0
  9
$CHAMFERB
 40
0.0
  9
$SKPOLY
 70
     0
  9
$TDCREATE
 40
2458060.468368056230247
  9
$TDUPDATE
 40
2459399.87445601914078
  9
$TDINDWG
 40
0.4079121528
  9
$TDUSRTIMER
 40
0.4079121528
  9
$USRTIMER
 70
     1
  9
$ANGBASE
 50
0.0
  9
$ANGDIR
 70
     0
  9
$PDMODE
 70
     0
  9
$PDSIZE
 40
0.3125
  9
$PLINEWID
 40
0.0
  9
$COORDS
 70
     1
  9
$SPLFRAME
 70
     0
  9
$SPLINETYPE
 70
     6
  9
$SPLINESEGS
 70
     8
  9
$ATTDIA
 70
     1
  9
$ATTREQ
 70
     1
  9
$HANDLING
 70
     1
  9
$HANDSEED
  5
E7D0
  9
$SURFTAB1
 70
     6
  9
$SURFTAB2
 70
     6
  9
$SURFTYPE
 70
     6
  9
$SURFU
 70
     6
  9
$SURFV
 70
     6
  9
$UCSNAME
  2

  9
$UCSORG
 10
0.0
 20
0.0
 30
0.0
  9
$UCSXDIR
 10
1.0
 20
0.0
 30
0.0
  9
$UCSYDIR
 10
0.0
 20
1.0
 30
0.0
  9
$PUCSNAME
  2

  9
$PUCSORG
 10
0.0
 20
0.0
 30
0.0
  9
$PUCSXDIR
 10
1.0
 20
0.0
 30
0.0
  9
$PUCSYDIR
 10
0.0
 20
1.0
 30
0.0
  9
$USERI1
 70
     0
  9
$USERI2
 70
     0
  9
$USERI3
 70
     0
  9
$USERI4
 70
     0
  9
$USERI5
 70
     0
  9
$USERR1
 40
0.0
  9
$USERR2
 40
0.0
  9
$USERR3
 40
0.0
  9
$USERR4
 40
0.0
  9
$USERR5
 40
0.0
  9
$WORLDVIEW
 70
     1
  9
$SHADEDGE
 70
     3
  9
$SHADEDIF
 70
    70
  9
$TILEMODE
 70
     1
  9
$MAXACTVP
 70
    64
  9
$PLIMCHECK
 70
     0
  9
$PEXTMIN
 10
1.0000000000000000E+20
 20
1.0000000000000000E+20
 30
1.0000000000000000E+20
  9
$PEXTMAX
 10
-1.0000000000000000E+20
 20
-1.0000000000000000E+20
 30
-1.0000000000000000E+20
  9
$PLIMMIN
 10
0.0
 20
0.0
  9
$PLIMMAX
 10
12.0
 20
9.0
  9
$UNITMODE
 70
     0
  9
$VISRETAIN
 70
     1
  9
$PLINEGEN
 70
     0
  9
$PSLTSCALE
 70
     1
  0
ENDSEC
  0
SECTION
  2
TABLES
  0
TABLE
  2
VPORT
 70
     1
  0
VPORT
  2
*ACTIVE
 70
     0
 10
0.0
 20
0.0
 11
1.0
 21
1.0
 12
3014.3699884622228637
 22
1537.6936344054579422
 13
0.0
 23
0.0
 14
1.0
 24
1.0
 15
0.0
 25
0.0
 16
0.0
 26
0.0
 36
9.5192988075487186
 17
4815.2983398437490905
 27
247.8086242675780966
 37
0.0
 40
2.4547062607821308
 41
2.0798479087452471
 42
50.0
 43
0.0
 44
0.0
 50
0.0
 51
0.0
 71
     0
 72
   100
 73
     1
 74
     1
 75
     0
 76
     0
 77
     0
 78
     0
  0
ENDTAB
  0
TABLE
  2
LTYPE
 70
     2
  0
LTYPE
  2
CONTINUOUS
 70
     0
  3
Solid line
 72
    65
 73
     0
 40
0.0
  0
LTYPE
  2
PHANTOM2
 70
     0
  3
___ _ _ ___ _ _ ___ _ _ ___ _ _
 72
    65
 73
     6
 40
1.25
 49
0.625
 49
-0.125
 49
0.125
 49
-0.125
 49
0.125
 49
-0.125
  0
ENDTAB
  0
TABLE
  2
LAYER
 70
     2
  0
LAYER
  2
0
 70
     0
 62
   255
  6
CONTINUOUS
  0
LAYER
  2
DEFPOINTS
 70
     0
 62
     7
  6
CONTINUOUS
  0
ENDTAB
  0
TABLE
  2
STYLE
 70
     1
  0
STYLE
  2
STANDARD
 70
     0
 40
0.0
 41
0.8
 50
0.0
 71
     0
 42
0.2
  3
txt
  4

  0
ENDTAB
  0
TABLE
  2
VIEW
 70
     0
  0
ENDTAB
  0
TABLE
  2
UCS
 70
     0
  0
ENDTAB
  0
TABLE
  2
APPID
 70
    10
  0
APPID
  2
ACAD
 70
     0
  0
APPID
  2
ACAD_MLEADERVER
 70
     0
  0
APPID
  2
ACAD_EXEMPT_FROM_CAD_STANDARDS
 70
     0
  0
APPID
  2
ACAD_NAV_VCDISPLAY
 70
     0
  0
APPID
  2
ACAECLAYERSTANDARD
 70
     0
  0
APPID
  2
ACCMTRANSPARENCY
 70
     0
  0
APPID
  2
ACAD_DSTYLE_DIMJAG
 70
     0
  0
APPID
  2
ACAD_DSTYLE_DIMTALN
 70
     0
  0
APPID
  2
ACDBATTR
 70
     0
  0
APPID
  2
ACADANNOTATIVE
 70
     0
  0
ENDTAB
  0
TABLE
  2
DIMSTYLE
 70
     2
  0
DIMSTYLE
  2
STANDARD
 70
     0
  3

  4

  5

  6

  7

 40
1.0
 41
0.1875
 42
0.0625
 43
0.38
 44
0.125
 45
0.0
 46
0.0
 47
0.01
 48
0.01
140
0.15625
141
0.09
142
0.0
143
25.3999999999999986
144
1.0
145
0.0
146
1.0
147
0.09
 71
     1
 72
     0
 73
     1
 74
     1
 75
     0
 76
     0
 77
     0
 78
     4
170
     0
171
     2
172
     0
173
     0
174
     0
175
     0
176
     0
177
     0
178
     0
  0
DIMSTYLE
  2
ANNOTATIVE
 70
     0
  3

  4

  5

  6

  7

 40
0.0
 41
0.18
 42
0.0625
 43
0.38
 44
0.18
 45
0.0
 46
0.0
 47
0.0
 48
0.0
140
0.18
141
0.09
142
0.0
143
25.3999999999999986
144
1.0
145
0.0
146
1.0
147
0.09
 71
     0
 72
     0
 73
     1
 74
     1
 75
     0
 76
     0
 77
     0
 78
     0
170
     0
171
     2
172
     0
173
     0
174
     0
175
     0
176
     0
177
     0
178
     0
  0
ENDTAB
  0
ENDSEC
  0
SECTION
  2
BLOCKS
  0
BLOCK
  8
0
  2
$MODEL_SPACE
 70
     0
 10
0.0
 20
0.0
 30
0.0
  3
$MODEL_SPACE
  1

  0
ENDBLK
  5
21
  8
0
  0
BLOCK
 67
     1
  8
0
  2
$PAPER_SPACE
 70
     0
 10
0.0
 20
0.0
 30
0.0
  3
$PAPER_SPACE
  1

  0
ENDBLK
  5
1D
 67
     1
  8
0
  0
BLOCK
  8
0
  2
_FILLED
 70
     0
 10
0.0
 20
0.0
 30
0.0
  3
_FILLED
  1

  0
SOLID
  5
D8EA
  8
0
  6
BYBLOCK
 62
     0
 10
0.0
 20
0.0
 30
0.0
 11
-1.0
 21
0.1666666667
 31
0.0
 12
-1.0
 22
-0.1666666667
 32
0.0
 13
-1.0
 23
-0.1666666667
 33
0.0
  0
ENDBLK
  5
D8EB
  8
0
  6
BYBLOCK
 62
     0
  0
ENDSEC
  0
SECTION
  2
ENTITIES
  0
ATTDEF
  5
3930
  8
DEFPOINTS
 10
7829.6640033071244034
 20
1785.5010242082469176
 30
0.0
 40
0.001
  1
K-11634T
  3

  2
MODELNUMBER
 70
     0
1001
ACDBATTR
1070
     0
1070
     1
  0
ATTDEF
  5
3931
  8
DEFPOINTS
 10
7829.6640033071244034
 20
1785.4993575415799114
 30
0.0
 40
0.001
  1

  3

  2
TRADENAME
 70
     0
1001
ACDBATTR
1070
     0
1070
     1
  0
ATTDEF
  5
3932
  8
DEFPOINTS
 10
7829.6640033071244034
 20
1785.4976908749129052
 30
0.0
 40
0.001
  1
BATH SPOUT
  3

  2
PRODUCT
 70
     0
1001
ACDBATTR
1070
     0
1070
     1
  0
ARC
  5
E671
  8
0
 10
7824.039609859473785
 20
1784.2196557792999556
 30
0.0
 40
4.9136341630212463
 50
3.1487348172105571
 51
11.1452673217107296
  0
ARC
  5
E672
  8
0
 10
7829.5113589584789224
 20
1785.4089715469190196
 30
0.0
 40
0.6934642660004608
 50
180.0916477804169062
 51
200.206350115317889
  0
ARC
  5
E673
  8
0
 10
7829.6670310854560739
 20
1785.3579450168169842
 30
0.0
 40
0.850601459974979
 50
89.9052327042995074
 51
176.6356811188398126
  0
ARC
  5
E674
  8
0
 10
7835.2972661029052688
 20
1784.2196557792999556
 30
0.0
 40
4.9136341630212463
 50
168.8547326782891957
 51
176.8512651827894047
  0
ARC
  5
E675
  8
0
 10
7829.8255170039010409
 20
1785.4089715469190196
 30
0.0
 40
0.6934642660004608
 50
339.793649884682111
 51
359.9083522195830938
  0
ARC
  5
E676
  8
0
 10
7829.669844876910247
 20
1785.3579450168060703
 30
0.0
 40
0.8506014599875287
 50
3.364318881862415
 51
90.0947673522401544
  0
LINE
  5
E677
  8
0
 10
7828.9184379862599599
 20
1784.7288957395210218
 30
0.0
 11
7828.9184379813614214
 21
1784.3525586544210455
 31
0.0
  0
LINE
  5
E678
  8
0
 10
7830.4184379813614214
 20
1784.3525586544210455
 30
0.0
 11
7830.4184379813614214
 21
1784.7291493646209801
 31
0.0
  0
ARC
  5
E679
  8
0
 10
7828.9251429221449143
 20
1784.7287833628579392
 30
0.0
 40
0.0067058775503837
 50
147.954600160928095
 51
179.0397960832308968
  0
ARC
  5
E67A
  8
0
 10
7828.9220562527607399
 20
1784.7295132784770431
 30
0.0
 40
0.003839934384834
 50
89.9999950462994178
 51
132.5647482903889056
  0
ARC
  5
E67B
  8
0
 10
7830.4098090581992437
 20
1784.728149043538906
 30
0.0
 40
0.0086867115287765
 50
6.612583988453542
 51
28.856793605244949
  0
ARC
  5
E67C
  8
0
 10
7830.4148197095555588
 20
1784.7295132783469853
 30
0.0
 40
0.0038399351149036
 50
47.4352552708664206
 51
90.032045403460728
  0
ARC
  5
E67D
  8
0
 10
7829.6684379826820077
 20
1781.1431474314840671
 30
0.0
 40
3.473499435121937
 50
80.9435078284713825
 51
99.0564922151157674
  0
ARC
  5
E67E
  8
0
 10
7829.6684379801390605
 20
1787.8305027889500707
 30
0.0
 40
3.46405415674089
 50
260.9039109112983965
 51
279.0960891322928887
  0
ARC
  5
E67F
  8
0
 10
7828.9720259292453193
 20
1784.4914582262820204
 30
0.0
 40
0.0262624781651868
 50
130.5011102194588943
 51
231.7387474685060056
  0
ARC
  5
E680
  8
0
 10
7829.1754359117758213
 20
1784.1732153278990154
 30
0.0
 40
0.4037242995761526
 50
97.6515737736437188
 51
123.0986198209448048
  0
ARC
  5
E681
  8
0
 10
7829.1782388889232607
 20
1784.8201650670100662
 30
0.0
 40
0.4141565061275698
 50
237.5082303213505952
 51
262.0284846754055934
  0
ARC
  5
E682
  8
0
 10
7830.364850033572111
 20
1784.4914582268120284
 30
0.0
 40
0.0262624781651868
 50
308.261252575091703
 51
49.4988898241276729
  0
ARC
  5
E683
  8
0
 10
7830.1614400512826251
 20
1784.1732153282739546
 30
0.0
 40
0.4037242995761526
 50
56.9013802225964866
 51
82.3484262699446248
  0
ARC
  5
E684
  8
0
 10
7830.1586370736431491
 20
1784.820165067382959
 30
0.0
 40
0.4141565061275698
 50
277.9715153681630113
 51
302.4917697222629727
  0
ARC
  5
E685
  8
0
 10
7829.6062200298438256
 20
1784.5217427356699318
 30
0.0
 40
0.0027235108306751
 50
108.4698272441728051
 51
236.7015400959164992
  0
ARC
  5
E686
  8
0
 10
7829.7308166897901174
 20
1784.5217150953919827
 30
0.0
 40
0.0025619769175992
 50
308.4973691109190099
 51
64.8353248787079508
  0
ARC
  5
E687
  8
0
 10
7829.6672867085289909
 20
1784.8150604024579025
 30
0.0
 40
0.3046919844486965
 50
261.537228820320081
 51
280.4722508466800832
  0
ARC
  5
E688
  8
0
 10
7829.6672604418508854
 20
1784.2261510567759615
 30
0.0
 40
0.3067668772886797
 50
79.6482431250001497
 51
98.2590261818406248
  0
ARC
  5
E689
  8
0
 10
7829.6269923055060644
 20
1784.5576785441890024
 30
0.0
 40
0.0442268185504592
 50
239.7692486410379047
 51
264.1000785451137745
  0
ARC
  5
E68A
  8
0
 10
7829.6285462667574393
 20
1784.4799845884069782
 30
0.0
 40
0.0500388820918999
 50
96.1404201635486118
 51
117.6080674660126988
  0
ARC
  5
E68B
  8
0
 10
7829.7184988799781422
 20
1784.538224991377092
 30
0.0
 40
0.0231595557104593
 50
280.3690312288325117
 51
306.9220307607512837
  0
ARC
  5
E68C
  8
0
 10
7829.7168058824263426
 20
1784.5006754990979516
 30
0.0
 40
0.027814241075404
 50
57.1190621449319735
 51
78.431646996858575
  0
ARC
  5
E68D
  8
0
 10
7829.5772030642947357
 20
1784.521609759734929
 30
0.0
 40
0.0038248729659638
 50
121.2687788696492959
 51
243.2159167594390965
  0
ARC
  5
E68E
  8
0
 10
7829.6680746077799995
 20
1784.9539068486919859
 30
0.0
 40
0.4487667822382269
 50
260.7345394973397106
 51
279.6892285258352899
  0
ARC
  5
E68F
  8
0
 10
7829.6677361976826433
 20
1784.0847820580179359
 30
0.0
 40
0.4533725146745236
 50
80.3894312637241342
 51
98.7473613068267184
  0
ARC
  5
E690
  8
0
 10
7829.6031863064627032
 20
1784.5641357408569547
 30
0.0
 40
0.0536488353549951
 50
238.9056979025691021
 51
262.1071169414805127
  0
ARC
  5
E691
  8
0
 10
7829.6087363561109669
 20
1784.4648639390441076
 30
0.0
 40
0.0687408834919588
 50
98.3209838716823867
 51
119.1834837480613061
  0
ARC
  5
E692
  8
0
 10
7829.759920977911861
 20
1784.5216158111279583
 30
0.0
 40
0.0035773570542455
 50
304.203871341437889
 51
50.3421493538953868
  0
ARC
  5
E693
  8
0
 10
7829.7362654542512246
 20
1784.4862087447670547
 30
0.0
 40
0.0461420124423392
 50
55.7955850751595293
 51
81.0711950825230758
  0
ARC
  5
E694
  8
0
 10
7829.7382425913274346
 20
1784.5525135950049389
 30
0.0
 40
0.0413212086547211
 50
277.4549558905675894
 51
304.9805154378407224
  0
ARC
  5
E695
  8
0
 10
7829.6702864581502581
 20
1787.046716896036969
 30
0.0
 40
2.6275589885447128
 50
261.0385961756890083
 51
278.5308684320032171
  0
ARC
  5
E696
  8
0
 10
7830.1498079845168832
 20
1784.4484763497389395
 30
0.0
 40
0.0881644239957053
 50
46.8817195237440671
 51
71.2270408266485902
  0
ARC
  5
E697
  8
0
 10
7829.6695850823698493
 20
1781.498397505838966
 30
0.0
 40
3.0912437443542822
 50
86.8784616672211172
 51
94.496266601106143
  0
ARC
  5
E698
  8
0
 10
7829.5285026575020311
 20
1783.1367240019599194
 30
0.0
 40
1.446950798153446
 50
94.0126535780480737
 51
102.4669893827145017
  0
ARC
  5
E699
  8
0
 10
7829.1795112251693354
 20
1784.4588601482130343
 30
0.0
 40
0.0752952673938756
 50
117.8021764786501961
 51
134.6810411762781996
  0
ARC
  5
E69A
  8
0
 10
7829.2985775427114277
 20
1784.1851845969379156
 30
0.0
 40
0.3735812739863177
 50
102.748425244749896
 51
114.3759995650968051
  0
ARC
  5
E69B
  8
0
 10
7829.3517956938876523
 20
1784.9422068080370991
 30
0.0
 40
0.4993014935259211
 50
246.6867361611120089
 51
259.5220280210834858
  0
ARC
  5
E69C
  8
0
 10
7829.1527947831173151
 20
1784.5164916478149735
 30
0.0
 40
0.0265457569000078
 50
188.8721177047553113
 51
230.953669760468614
  0
ARC
  5
E69D
  8
0
 10
7829.1941608483311938
 20
1784.5625690384940754
 30
0.0
 40
0.0884439958968109
 50
228.9450023517256909
 51
243.1344006493910115
  0
ARC
  5
E69E
  8
0
 10
7830.183972887287382
 20
1784.5155700128000262
 30
0.0
 40
0.0262393715044652
 50
301.4740570426903901
 51
354.0092465097288823
  0
ARC
  5
E69F
  8
0
 10
7830.006488550395261
 20
1784.845259491195975
 30
0.0
 40
0.400628992792743
 50
277.6851517354468228
 51
298.5033533370510099
  0
ARC
  5
E6A0
  8
0
 10
7829.7583624338776644
 20
1782.7728578874300638
 30
0.0
 40
1.8139421222662599
 50
79.3301161694065655
 51
87.4863818247962257
  0
ARC
  5
E6A1
  8
0
 10
7829.9812481190128892
 20
1783.989740807752014
 30
0.0
 40
0.5768656119623171
 50
70.0387666403785829
 51
78.7069590224374167
  0
ARC
  5
E6A2
  8
0
 10
7829.0897104862588094
 20
1784.4926010676590522
 30
0.0
 40
0.0225823460038354
 50
122.6489393740506983
 51
217.7188339011700009
  0
ARC
  5
E6A3
  8
0
 10
7829.1805576735696377
 20
1784.3751650227341088
 30
0.0
 40
0.1709791399501049
 50
109.108504696435304
 51
127.0555436855220961
  0
ARC
  5
E6A4
  8
0
 10
7829.7070584101693385
 20
1781.3926590661681075
 30
0.0
 40
3.2073875785976491
 50
90.6899200654709148
 51
98.0499637007253142
  0
ARC
  5
E6A5
  8
0
 10
7829.3705922385079248
 20
1783.7987571985590876
 30
0.0
 40
0.7778900073618328
 50
98.3291951961841164
 51
108.4361570663626964
  0
ARC
  5
E6A6
  8
0
 10
7829.1685773163226258
 20
1784.5815931287620515
 30
0.0
 40
0.1411598398995193
 50
226.7446210605415047
 51
251.8419048078798141
  0
ARC
  5
E6A7
  8
0
 10
7829.6804796845799501
 20
1786.7372053420899647
 30
0.0
 40
2.3596079704756692
 50
259.6834699058284741
 51
269.7076032222727235
  0
ARC
  5
E6A8
  8
0
 10
7829.3705922385079248
 20
1785.1854290862829657
 30
0.0
 40
0.7778900073618328
 50
251.5638429336372894
 51
261.6708048038158836
  0
ARC
  5
E6A9
  8
0
 10
7830.2471654764631239
 20
1784.4926010676590522
 30
0.0
 40
0.0225823460038354
 50
322.2811660988298854
 51
57.3510606259492377
  0
ARC
  5
E6AA
  8
0
 10
7830.1563182891522956
 20
1784.3751650227341088
 30
0.0
 40
0.1709791399501049
 50
52.9444563144778826
 51
70.8914953035647386
  0
ARC
  5
E6AB
  8
0
 10
7829.6298175525544139
 20
1781.3926590661619684
 30
0.0
 40
3.20738757860377
 50
81.9500362992746858
 51
89.3100799344770024
  0
ARC
  5
E6AC
  8
0
 10
7829.9662837242140085
 20
1783.7987571985590876
 30
0.0
 40
0.7778900073618328
 50
71.5638429336373321
 51
81.6708048038158694
  0
ARC
  5
E6AD
  8
0
 10
7830.168298646398398
 20
1784.5815931287620515
 30
0.0
 40
0.1411598398995193
 50
288.1580951921201859
 51
313.2553789394585237
  0
ARC
  5
E6AE
  8
0
 10
7829.6563962781419832
 20
1786.7372053420899647
 30
0.0
 40
2.3596079704756701
 50
270.2923967777272765
 51
280.3165300941715259
  0
ARC
  5
E6AF
  8
0
 10
7829.9662837242140085
 20
1785.1854290862829657
 30
0.0
 40
0.7778900073618328
 50
278.3291951961841164
 51
288.4361570663626821
  0
ARC
  5
E6B0
  8
0
 10
7829.1263385434385782
 20
1784.5156839759349623
 30
0.0
 40
0.0476529779660052
 50
183.8009767366216067
 51
232.1222262808956032
  0
ARC
  5
E6B1
  8
0
 10
7829.1911463686055868
 20
1784.5938063484190934
 30
0.0
 40
0.1491414502954261
 50
230.897103600759209
 51
251.8818569500261049
  0
ARC
  5
E6B2
  8
0
 10
7829.3344763419818264
 20
1784.975295021195052
 30
0.0
 40
0.5565652674035682
 50
250.0708575576636008
 51
259.5525152935492201
  0
ARC
  5
E6B3
  8
0
 10
7829.5911184287979268
 20
1786.3612828804600667
 30
0.0
 40
1.966113843544546
 50
259.5216161771788279
 51
268.2897291334563761
  0
ARC
  5
E6B4
  8
0
 10
7829.6665670509946722
 20
1787.5348329514808938
 30
0.0
 40
3.1416525672001359
 50
267.5530992421029168
 51
274.975006985758796
  0
ARC
  5
E6B5
  8
0
 10
7829.8455289889870983
 20
1785.6519102572619886
 30
0.0
 40
1.250393720330057
 50
274.2877293446516092
 51
284.832126843147023
  0
ARC
  5
E6B6
  8
0
 10
7830.2097791229871291
 20
1784.5159959475679443
 30
0.0
 40
0.0484308861450604
 50
307.0311303803799206
 51
355.8933202663375255
  0
ARC
  5
E6B7
  8
0
 10
7830.1137621315665456
 20
1784.6503169187828917
 30
0.0
 40
0.2135287399017645
 50
284.0539764827943827
 51
305.8924102800112905
  0
LINE
  5
E6B8
  8
0
 10
7829.6435017471612809
 20
1784.5035515157210284
 30
0.0
 11
7829.476908201059814
 21
1784.4337115387208996
 31
0.0
  0
LINE
  5
E6B9
  8
0
 10
7829.476908201059814
 20
1784.4337115387208996
 30
0.0
 11
7829.4457905286599271
 21
1784.435949752921033
 31
0.0
  0
LINE
  5
E6BA
  8
0
 10
7829.4457905286599271
 20
1784.435949752921033
 30
0.0
 11
7829.6123840746604401
 21
1784.5057897299209344
 31
0.0
  0
LINE
  5
E6BB
  8
0
 10
7829.4457905286599271
 20
1784.435949752921033
 30
0.0
 11
7829.4453954084619909
 21
1784.5024389237210016
 31
0.0
  0
LINE
  5
E6BC
  8
0
 10
7829.2738798952323123
 20
1784.4572685074640503
 30
0.0
 11
7829.2976963306537073
 21
1784.453132826854926
 31
0.0
  0
LINE
  5
E6BD
  8
0
 10
7829.2976963306537073
 20
1784.453132826854926
 30
0.0
 11
7829.422075447185307
 21
1784.4747310338079842
 31
0.0
  0
LINE
  5
E6BE
  8
0
 10
7829.2738798952614161
 20
1784.4572685074590481
 30
0.0
 11
7829.3982590118621374
 21
1784.4788667145210184
 31
0.0
  0
LINE
  5
E6BF
  8
0
 10
7829.2738798950831551
 20
1784.4572685074899709
 30
0.0
 11
7829.2740979768614125
 21
1784.4901179428209161
 31
0.0
  0
LINE
  5
E6C0
  8
0
 10
7829.3982590117957443
 20
1784.4788667145101044
 30
0.0
 11
7829.3980068492610371
 21
1784.4990303902209234
 31
0.0
  0
LINE
  5
E6C1
  8
0
 10
7829.4270046710616953
 20
1784.4768685757840103
 30
0.0
 11
7829.4274396360597166
 21
1784.5011474149839614
 31
0.0
  0
ARC
  5
E6C2
  8
0
 10
7829.4100416121273156
 20
1784.4047611995249554
 30
0.0
 40
0.0750363713250401
 50
79.5905792808998882
 51
99.0342694632936826
  0
ARC
  5
E6C3
  8
0
 10
7829.4263647780653628
 20
1784.4768105001201093
 30
0.0
 40
0.0006425230206473
 50
310.7046357877197238
 51
59.6670953197170206
  0
ARC
  5
E6C4
  8
0
 10
7829.4220867360518241
 20
1784.4700744964738988
 30
0.0
 40
0.0086218146588662
 50
57.7358102513765914
 51
79.8964016748841033
  0
ARC
  5
E6C5
  8
0
 10
7829.4210420286981389
 20
1784.4855436843579355
 30
0.0
 40
0.0108619227373287
 50
275.4594584412835729
 51
301.9119343642058197
  0
LINE
  5
E6C6
  8
0
 10
7829.1749265157613991
 20
1784.4829847951209558
 30
0.0
 11
7829.5771189140614297
 21
1784.5119134608210061
 31
0.0
  0
LINE
  5
E6C7
  8
0
 10
7829.1749265157613991
 20
1784.4829847951209558
 30
0.0
 11
7829.1620371537619576
 21
1784.4883883222209988
 31
0.0
  0
LINE
  5
E6C8
  8
0
 10
7829.1620371537619576
 20
1784.4883883222209988
 30
0.0
 11
7829.1625901115612578
 21
1784.5187227517210431
 31
0.0
  0
LINE
  5
E6C9
  8
0
 10
7829.1620371537619576
 20
1784.4883883222209988
 30
0.0
 11
7829.5643775281278067
 21
1784.5173274573080562
 31
0.0
  0
LINE
  5
E6CA
  8
0
 10
7829.1338401621960656
 20
1784.5187227517210431
 30
0.0
 11
7829.3031879813606793
 21
1784.5187227517210431
 31
0.0
  0
LINE
  5
E6CB
  8
0
 10
7829.1427498703988022
 20
1784.5245714873210545
 30
0.0
 11
7829.3031879813606793
 21
1784.5245714873210545
 31
0.0
  0
LINE
  5
E6CC
  8
0
 10
7829.3031879813606793
 20
1784.5245714873210545
 30
0.0
 11
7829.3031879813606793
 21
1784.5450758351259992
 31
0.0
  0
LINE
  5
E6CD
  8
0
 10
7829.3200270429460943
 20
1784.5217007302189813
 30
0.0
 11
7829.3204217199163395
 21
1784.5438139766720269
 31
0.0
  0
ARC
  5
E6CE
  8
0
 10
7829.3194351285283119
 20
1784.5216540731639725
 30
0.0
 40
0.0005937504193966
 50
318.815056933284211
 51
50.1988690181158574
  0
ARC
  5
E6CF
  8
0
 10
7829.3045357286064245
 20
1784.5787742909380995
 30
0.0
 40
0.0600666611769798
 50
268.7143165903235058
 51
282.7219312421322002
  0
ARC
  5
E6D0
  8
0
 10
7829.3039102195107262
 20
1784.4557101159730337
 30
0.0
 40
0.0688651587653749
 50
79.0356241978546876
 51
90.6009128149577663
  0
ARC
  5
E6D1
  8
0
 10
7829.3168002188367609
 20
1784.5246867698110691
 30
0.0
 40
0.0046063867840881
 50
282.0717793418214114
 51
311.9913764369770206
  0
ARC
  5
E6D2
  8
0
 10
7829.3157927923439274
 20
1784.5166285366190095
 30
0.0
 40
0.0067991761781261
 50
53.7291807960619181
 51
79.7019035089708012
  0
ARC
  5
E6D3
  8
0
 10
7829.582988931170803
 20
1784.4292779732670624
 30
0.0
 40
0.0828437137270501
 50
83.4739004510862941
 51
94.063184262366434
  0
ARC
  5
E6D4
  8
0
 10
7829.6129263883303793
 20
1784.5068445918889211
 30
0.0
 40
0.0006431611801902
 50
307.4989542539702256
 51
67.3509950760664537
  0
ARC
  5
E6D5
  8
0
 10
7829.6113326415897973
 20
1784.5086655724931006
 30
0.0
 40
0.0030620225346553
 50
290.0828520423971781
 51
310.4174821189004092
  0
ARC
  5
E6D6
  8
0
 10
7829.6012872920728114
 20
1784.4815109083479001
 30
0.0
 40
0.0285222242817872
 50
65.3701400091838849
 51
75.4483342207256982
  0
ARC
  5
E6D7
  8
0
 10
7829.5637855608156315
 20
1784.5439604089590375
 30
0.0
 40
0.0266395296306004
 50
271.2732965247035963
 51
290.7711514108220854
  0
ARC
  5
E6D8
  8
0
 10
7829.5634947770049621
 20
1784.4982118553300552
 30
0.0
 40
0.0277682465760571
 50
69.2404951794769659
 51
88.8189932165315668
  0
LINE
  5
E6D9
  8
0
 10
7829.2226243866352888
 20
1784.5509747207809141
 30
0.0
 11
7829.5640671082610424
 21
1784.5259742031209953
 31
0.0
  0
LINE
  5
E6DA
  8
0
 10
7829.2436765051606926
 20
1784.5553644339299808
 30
0.0
 11
7829.577263153979402
 21
1784.5313702382629799
 31
0.0
  0
LINE
  5
E6DB
  8
0
 10
7829.6123840746604401
 20
1784.5375045092209803
 30
0.0
 11
7829.4992252565416493
 21
1784.5849433773200872
 31
0.0
  0
ARC
  5
E6DC
  8
0
 10
7829.5829709537174494
 20
1784.6115736858939727
 30
0.0
 40
0.0804062932217631
 50
265.9293220951150261
 51
277.2716994239893893
  0
LINE
  5
E6DD
  8
0
 10
7829.5948460552217512
 20
1784.5321868074049689
 30
0.0
 11
7829.5952422186619515
 21
1784.533135507921088
 31
0.0
  0
LINE
  5
E6DE
  8
0
 10
7829.5952422186619515
 20
1784.533135507921088
 30
0.0
 11
7829.5951314585927321
 21
1784.5447372162389001
 31
0.0
  0
ARC
  5
E6DF
  8
0
 10
7829.613032000505882
 20
1784.536471639499041
 30
0.0
 40
0.0005394272588208
 50
323.7111610726137769
 51
41.8558802344887084
  0
ARC
  5
E6E0
  8
0
 10
7829.6112125913023192
 20
1784.5345219325060953
 30
0.0
 40
0.003204393409419
 50
46.1184550408948795
 51
68.5563111896601498
  0
ARC
  5
E6E1
  8
0
 10
7829.6256631368623857
 20
1784.4790170213138936
 30
0.0
 40
0.0578704392363355
 50
103.9536627523059025
 51
107.3427324181160998
  0
ARC
  5
E6E2
  8
0
 10
7829.6109108212485808
 20
1784.5386975321468981
 30
0.0
 40
0.0036070567872633
 50
282.7750395941645252
 51
315.1215873620607795
  0
LINE
  5
E6E3
  8
0
 10
7829.6515972183624399
 20
1784.4276776455039908
 30
0.0
 11
7829.6502353163587031
 21
1784.5048782531880533
 31
0.0
  0
LINE
  5
E6E4
  8
0
 10
7829.6852787443613124
 20
1784.4276776455039908
 30
0.0
 11
7829.6866404975598925
 21
1784.5048698327209422
 31
0.0
  0
ARC
  5
E6E5
  8
0
 10
7829.6684379818998423
 20
1784.4111932589889875
 30
0.0
 40
0.0499532315317236
 50
69.6442237078370852
 51
110.3557777239940947
  0
LINE
  5
E6E6
  8
0
 10
7829.6515972183706253
 20
1784.4276776455039908
 30
0.0
 11
7829.685278744351308
 21
1784.4276776455039908
 31
0.0
  0
ARC
  5
E6E7
  8
0
 10
7829.6580053950738147
 20
1784.4476921423040494
 30
0.0
 40
0.0577115707757278
 50
92.9214659635779441
 51
104.5552017750824945
  0
ARC
  5
E6E8
  8
0
 10
7829.5727514402333327
 20
1784.5201188678629478
 30
0.0
 40
0.0011701725293589
 50
294.2957098976270913
 51
341.556775734174721
  0
ARC
  5
E6E9
  8
0
 10
7829.5717428106272564
 20
1784.5224256074900495
 30
0.0
 40
0.0023685912420633
 50
26.3605087377681784
 51
47.6926968703415426
  0
LINE
  5
E6EA
  8
0
 10
7829.3506229928407265
 20
1784.5726994325220858
 30
0.0
 11
7829.3982590129226082
 21
1784.5644275244360415
 31
0.0
  0
LINE
  5
E6EB
  8
0
 10
7829.4220754472598856
 20
1784.5685632052209257
 30
0.0
 11
7829.3794059369984097
 21
1784.5759726879800837
 31
0.0
  0
ARC
  5
E6EC
  8
0
 10
7829.4263241946182461
 20
1784.5665062188420507
 30
0.0
 40
0.0006830641362981
 50
302.1984536267975727
 51
65.0573431042908084
  0
ARC
  5
E6ED
  8
0
 10
7829.4203751005006779
 20
1784.5553200187080165
 30
0.0
 40
0.013351897546935
 50
62.1514627514120122
 51
82.6835895994390739
  0
ARC
  5
E6EE
  8
0
 10
7829.4192145075730878
 20
1784.5809101501370151
 30
0.0
 40
0.0167425888459791
 50
276.7751209743216236
 51
296.5120596913782265
  0
ARC
  5
E6EF
  8
0
 10
7829.4102453965870154
 20
1784.6478815115920042
 30
0.0
 40
0.0843103870561816
 50
261.8265822089082917
 51
277.4585785231062118
  0
LINE
  5
E6F0
  8
0
 10
7829.4270042564439791
 20
1784.5664422461879894
 30
0.0
 11
7829.4272496988605781
 21
1784.5801277745210882
 31
0.0
  0
LINE
  5
E6F1
  8
0
 10
7829.4220754472598856
 20
1784.5685632052209257
 30
0.0
 11
7829.4222155446286706
 21
1784.5797658107499046
 31
0.0
  0
LINE
  5
E6F2
  8
0
 10
7829.577263153979402
 20
1784.5313702382629799
 30
0.0
 11
7829.5770096170608667
 21
1784.552334323246896
 31
0.0
  0
LINE
  5
E6F3
  8
0
 10
7829.6515972183624399
 20
1784.5895889143030217
 30
0.0
 11
7829.6515972183624399
 21
1784.5850721164210881
 31
0.0
  0
LINE
  5
E6F4
  8
0
 10
7829.6852787443613124
 20
1784.5896014130539697
 30
0.0
 11
7829.6852787443613124
 21
1784.5850721164210881
 31
0.0
  0
ARC
  5
E6F5
  8
0
 10
7829.6686711971578916
 20
1784.6567559708848876
 30
0.0
 40
0.0746042597662975
 50
258.3392936565351192
 51
280.4730872052002724
  0
ARC
  5
E6F6
  8
0
 10
7829.6809195913983785
 20
1784.5904281273119523
 30
0.0
 40
0.0071549868754444
 50
280.571692356217909
 51
305.0392817997598058
  0
ARC
  5
E6F7
  8
0
 10
7829.6548564453460131
 20
1784.5883922636899115
 30
0.0
 40
0.004867800091505
 50
232.211630856211201
 51
254.9505148643756058
  0
ARC
  5
E6F8
  8
0
 10
7829.6523247126442584
 20
1784.5851180176121034
 30
0.0
 40
0.0007289409109565
 50
183.6102867288547884
 51
231.7787646378650948
  0
ARC
  5
E6F9
  8
0
 10
7829.6845915790063373
 20
1784.5851019181889114
 30
0.0
 40
0.0006878112902762
 50
309.3339261895238792
 51
357.5166876831705167
  0
LINE
  5
E6FA
  8
0
 10
7829.5318037854440263
 20
1784.5865691657741081
 30
0.0
 11
7829.643563174726296
 21
1784.539716541685948
 31
0.0
  0
ARC
  5
E6FB
  8
0
 10
7829.6572651693768421
 20
1784.5933974637750907
 30
0.0
 40
0.0554020401585723
 50
255.6810603970237139
 51
268.8499342512038197
  0
LINE
  5
E6FC
  8
0
 10
7828.9184379813614214
 20
1784.3525586544210455
 30
0.0
 11
7830.4184379813614214
 21
1784.3525586544210455
 31
0.0
  0
ARC
  5
E6FD
  8
0
 10
7829.6683283059737732
 20
1785.5022586730360672
 30
0.0
 40
1.21810172488571
 50
308.0102299356623234
 51
232.0028640785704113
  0
ARC
  5
E6FE
  8
0
 10
7829.6683283059737732
 20
1785.5022586730360672
 30
0.0
 40
1.21810172488571
 50
250.7077507330369883
 51
289.2922492669629833
  0
LINE
  5
E6FF
  8
0
 10
7829.6931548647844465
 20
1784.5035515157210284
 30
0.0
 11
7829.8597484108859135
 21
1784.4337115387208996
 31
0.0
  0
LINE
  5
E700
  8
0
 10
7829.8597484108859135
 20
1784.4337115387208996
 30
0.0
 11
7829.8908660832848909
 21
1784.435949752921033
 31
0.0
  0
LINE
  5
E701
  8
0
 10
7829.8908660832848909
 20
1784.435949752921033
 30
0.0
 11
7829.7242725372852874
 21
1784.5057897299209344
 31
0.0
  0
LINE
  5
E702
  8
0
 10
7829.8908660832848909
 20
1784.435949752921033
 30
0.0
 11
7829.8912612034846461
 21
1784.5024389237210016
 31
0.0
  0
LINE
  5
E703
  8
0
 10
7830.0627767167134152
 20
1784.4572685074640503
 30
0.0
 11
7830.0389602812911107
 21
1784.453132826854926
 31
0.0
  0
LINE
  5
E704
  8
0
 10
7830.0389602812911107
 20
1784.453132826854926
 30
0.0
 11
7829.9145811647622395
 21
1784.4747310338079842
 31
0.0
  0
LINE
  5
E705
  8
0
 10
7830.0627767166861304
 20
1784.4572685074590481
 30
0.0
 11
7829.9383976000835901
 21
1784.4788667145210184
 31
0.0
  0
LINE
  5
E706
  8
0
 10
7830.0627767168616629
 20
1784.4572685074899709
 30
0.0
 11
7830.062558635084315
 21
1784.4901179428209161
 31
0.0
  0
LINE
  5
E707
  8
0
 10
7829.9383976001490737
 20
1784.4788667145101044
 30
0.0
 11
7829.9386497626846904
 21
1784.4990303902209234
 31
0.0
  0
LINE
  5
E708
  8
0
 10
7829.9096519408840322
 20
1784.4768685757840103
 30
0.0
 11
7829.9092169758851014
 21
1784.5011474149839614
 31
0.0
  0
ARC
  5
E709
  8
0
 10
7829.9266149998193214
 20
1784.4047611995249554
 30
0.0
 40
0.0750363713250401
 50
80.9657305367063032
 51
100.4094207191000976
  0
ARC
  5
E70A
  8
0
 10
7829.9102918338821837
 20
1784.4768105001201093
 30
0.0
 40
0.0006425230206473
 50
120.3329046802829936
 51
229.2953642122803046
  0
ARC
  5
E70B
  8
0
 10
7829.9145698758929939
 20
1784.4700744964738988
 30
0.0
 40
0.0086218146588662
 50
100.1035983251158967
 51
122.2641897486233944
  0
ARC
  5
E70C
  8
0
 10
7829.9156145832475886
 20
1784.4855436843579355
 30
0.0
 40
0.0108619227373287
 50
238.0880656357942087
 51
264.5405415587164271
  0
LINE
  5
E70D
  8
0
 10
7830.1617300961852379
 20
1784.4829847951209558
 30
0.0
 11
7829.7595376978852073
 21
1784.5119134608210061
 31
0.0
  0
LINE
  5
E70E
  8
0
 10
7830.1617300961852379
 20
1784.4829847951209558
 30
0.0
 11
7830.1746194581846794
 21
1784.4883883222209988
 31
0.0
  0
LINE
  5
E70F
  8
0
 10
7830.1746194581846794
 20
1784.4883883222209988
 30
0.0
 11
7830.1740665003853792
 21
1784.5187227517210431
 31
0.0
  0
LINE
  5
E710
  8
0
 10
7830.1746194581846794
 20
1784.4883883222209988
 30
0.0
 11
7829.7722790838188303
 21
1784.5173274573080562
 31
0.0
  0
LINE
  5
E711
  8
0
 10
7830.2030847023888782
 20
1784.5187227517210431
 30
0.0
 11
7830.0334686305850482
 21
1784.5187227517210431
 31
0.0
  0
LINE
  5
E712
  8
0
 10
7830.1943332098935571
 20
1784.5245714873210545
 30
0.0
 11
7830.0334686305850482
 21
1784.5245714873210545
 31
0.0
  0
LINE
  5
E713
  8
0
 10
7830.0334686305850482
 20
1784.5245714873210545
 30
0.0
 11
7830.0334686305850482
 21
1784.5450758351259992
 31
0.0
  0
LINE
  5
E714
  8
0
 10
7830.0166295689987237
 20
1784.5217007302189813
 30
0.0
 11
7830.016234892029388
 21
1784.5438139766720269
 31
0.0
  0
ARC
  5
E715
  8
0
 10
7830.0172214834192346
 20
1784.5216540731639725
 30
0.0
 40
0.0005937504193966
 50
129.8011309818841141
 51
221.1849430667157037
  0
ARC
  5
E716
  8
0
 10
7830.032120883341122
 20
1784.5787742909380995
 30
0.0
 40
0.0600666611769798
 50
257.2780687578676861
 51
271.2856834096764942
  0
ARC
  5
E717
  8
0
 10
7830.0327463924350013
 20
1784.4557101159730337
 30
0.0
 40
0.0688651587653749
 50
89.3990871850422479
 51
100.9643758021452982
  0
ARC
  5
E718
  8
0
 10
7830.0198563931107856
 20
1784.5246867698110691
 30
0.0
 40
0.0046063867840881
 50
228.0086235630230078
 51
257.9282206581785886
  0
ARC
  5
E719
  8
0
 10
7830.0208638196018001
 20
1784.5166285366190095
 30
0.0
 40
0.0067991761781261
 50
100.2980964910291988
 51
126.2708192039381032
  0
ARC
  5
E71A
  8
0
 10
7829.7535241349469288
 20
1784.4234702827450292
 30
0.0
 40
0.0886473839845723
 50
86.1102452013754203
 51
96.0082393916405579
  0
ARC
  5
E71B
  8
0
 10
7829.7237302236171672
 20
1784.5068445918889211
 30
0.0
 40
0.0006431611801902
 50
112.6490049239335036
 51
232.5010457460298028
  0
ARC
  5
E71C
  8
0
 10
7829.7253239703550207
 20
1784.5086655724931006
 30
0.0
 40
0.0030620225346553
 50
229.5825178810995908
 51
249.9171479576029071
  0
ARC
  5
E71D
  8
0
 10
7829.7400388039368408
 20
1784.4700172902551003
 30
0.0
 40
0.0409198052851605
 50
106.8259189789235961
 51
113.8662146319558985
  0
ARC
  5
E71E
  8
0
 10
7829.772871051130096
 20
1784.5439604089590375
 30
0.0
 40
0.0266395296306004
 50
249.2288485891778862
 51
268.72670347529629
  0
ARC
  5
E71F
  8
0
 10
7829.7731618349398559
 20
1784.4982118553300552
 30
0.0
 40
0.0277682465760571
 50
91.1810067834684759
 51
110.7595048205230057
  0
LINE
  5
E720
  8
0
 10
7830.1144882960152245
 20
1784.5510081143879688
 30
0.0
 11
7829.772589503684685
 21
1784.5259742031209953
 31
0.0
  0
LINE
  5
E721
  8
0
 10
7830.0941533935665575
 20
1784.5554488260140715
 30
0.0
 11
7829.7593934579663255
 21
1784.5313702382629799
 31
0.0
  0
LINE
  5
E722
  8
0
 10
7829.7242725372852874
 20
1784.5375045092209803
 30
0.0
 11
7829.8377220927350209
 21
1784.5850652613250986
 31
0.0
  0
ARC
  5
E723
  8
0
 10
7829.753605254746617
 20
1784.6153030421560288
 30
0.0
 40
0.0841321512016588
 50
263.1033633995542118
 51
273.9450054969394159
  0
LINE
  5
E724
  8
0
 10
7829.7418664077740686
 20
1784.5320530597768993
 30
0.0
 11
7829.741414393285595
 21
1784.533135507921088
 31
0.0
  0
LINE
  5
E725
  8
0
 10
7829.741414393285595
 20
1784.533135507921088
 30
0.0
 11
7829.7415251533520859
 21
1784.5447372162389001
 31
0.0
  0
ARC
  5
E726
  8
0
 10
7829.723624611438936
 20
1784.536471639499041
 30
0.0
 40
0.0005394272588208
 50
138.1441197655113058
 51
216.2888389273861947
  0
ARC
  5
E727
  8
0
 10
7829.7254440206434083
 20
1784.5345219325060953
 30
0.0
 40
0.003204393409419
 50
111.4436888103397933
 51
133.8815449591050992
  0
ARC
  5
E728
  8
0
 10
7829.7220548143814085
 20
1784.5208797583720752
 30
0.0
 40
0.0145897837774892
 50
64.9900598333505854
 51
78.561566961055604
  0
ARC
  5
E729
  8
0
 10
7829.7257457906962372
 20
1784.5386975321468981
 30
0.0
 40
0.0036070567872633
 50
224.8784126379391921
 51
257.2249604058355885
  0
ARC
  5
E72A
  8
0
 10
7829.6786512168710033
 20
1784.4476921423040494
 30
0.0
 40
0.0577115707757278
 50
75.4447982249174913
 51
87.0785340364220417
  0
ARC
  5
E72B
  8
0
 10
7829.7639051717142138
 20
1784.5201188678629478
 30
0.0
 40
0.0011701725293589
 50
207.2421040927636113
 51
245.704290102372795
  0
ARC
  5
E72C
  8
0
 10
7829.7649138013193806
 20
1784.5224256074900495
 30
0.0
 40
0.0023685912420633
 50
132.3073031296584077
 51
149.3677427512349993
  0
LINE
  5
E72D
  8
0
 10
7829.9852205895376756
 20
1784.5725582514189682
 30
0.0
 11
7829.9383975990240288
 21
1784.5644275244360415
 31
0.0
  0
LINE
  5
E72E
  8
0
 10
7829.9145811646849324
 20
1784.5685632052209257
 30
0.0
 11
7829.9568662521924125
 21
1784.5759059336689916
 31
0.0
  0
ARC
  5
E72F
  8
0
 10
7829.9103324173265719
 20
1784.5665062188420507
 30
0.0
 40
0.0006830641362981
 50
114.9426568957092059
 51
237.8015463732023136
  0
ARC
  5
E730
  8
0
 10
7829.916281511445959
 20
1784.5553200187080165
 30
0.0
 40
0.013351897546935
 50
97.3164104005609545
 51
117.8485372485880021
  0
ARC
  5
E731
  8
0
 10
7829.9174421043726397
 20
1784.5809101501370151
 30
0.0
 40
0.0167425888459791
 50
243.4879403086216882
 51
263.2248790256784901
  0
ARC
  5
E732
  8
0
 10
7829.9264112153587121
 20
1784.6478815115920042
 30
0.0
 40
0.0843103870561816
 50
262.5414214768937882
 51
278.1734177910915946
  0
LINE
  5
E733
  8
0
 10
7829.9096523554999294
 20
1784.5664422461879894
 30
0.0
 11
7829.9094002195533903
 21
1784.5805009966279613
 31
0.0
  0
LINE
  5
E734
  8
0
 10
7829.9145811646849324
 20
1784.5685632052209257
 30
0.0
 11
7829.9144372249156731
 21
1784.5800730607099922
 31
0.0
  0
LINE
  5
E735
  8
0
 10
7829.7593934579663255
 20
1784.5313702382629799
 30
0.0
 11
7829.7596469948857703
 21
1784.552334323246896
 31
0.0
  0
LINE
  5
E736
  8
0
 10
7829.8050927902941112
 20
1784.5866697652270432
 30
0.0
 11
7829.693093437220341
 21
1784.539716541685948
 31
0.0
  0
ARC
  5
E737
  8
0
 10
7829.67890952903781
 20
1784.5958705356379141
 30
0.0
 40
0.0579176509198726
 50
271.5760916787185124
 51
284.1757970594675271
  0
LINE
  5
E739
  8
0
 10
7828.9220562530908865
 20
1784.7333532128620845
 30
0.0
 11
7828.926317916516382
 21
1784.7333532128620845
 31
0.0
  0
LINE
  5
E73A
  8
0
 10
7830.4105580458617624
 20
1784.7333532128620845
 30
0.0
 11
7830.4148218572217957
 21
1784.7333532128620845
 31
0.0
  0
ENDSEC
  0
EOF
