  0
SECTION
  2
HEADER
  9
$ACADVER
  1
AC1009
  9
$INSBASE
 10
3886.0627230399591099
 20
95.1831951750162233
 30
0.0
  9
$EXTMIN
 10
3876.5844662478129976
 20
88.6674087603127532
 30
0.0
  9
$EXTMAX
 10
3888.6544141871040665
 20
98.6656875515151768
 30
0.0
  9
$LIMMIN
 10
0.0
 20
0.0
  9
$LIMMAX
 10
11.6929133858000007
 20
8.2677165353999982
  9
$ORTHOMODE
 70
     1
  9
$REGENMODE
 70
     1
  9
$FILLMODE
 70
     1
  9
$QTEXTMODE
 70
     0
  9
$MIRRTEXT
 70
     0
  9
$DRAGMODE
 70
     2
  9
$LTSCALE
 40
0.6431102362
  9
$OSMODE
 70
  4095
  9
$ATTMODE
 70
     1
  9
$TEXTSIZE
 40
0.2
  9
$TRACEWID
 40
0.05
  9
$TEXTSTYLE
  7
STANDARD
  9
$CLAYER
  8
0
  9
$CELTYPE
  6
BYLAYER
  9
$CECOLOR
 62
   256
  9
$DIMSCALE
 40
1.0
  9
$DIMASZ
 40
0.1875
  9
$DIMEXO
 40
0.0625
  9
$DIMDLI
 40
0.4443307087
  9
$DIMRND
 40
0.0
  9
$DIMDLE
 40
0.0
  9
$DIMEXE
 40
0.125
  9
$DIMTP
 40
0.01
  9
$DIMTM
 40
0.01
  9
$DIMTXT
 40
2.0
  9
$DIMCEN
 40
0.1052362205
  9
$DIMTSZ
 40
0.0
  9
$DIMTOL
 70
     1
  9
$DIMLIM
 70
     0
  9
$DIMTIH
 70
     1
  9
$DIMTOH
 70
     1
  9
$DIMSE1
 70
     0
  9
$DIMSE2
 70
     0
  9
$DIMTAD
 70
     0
  9
$DIMZIN
 70
     0
  9
$DIMBLK
  1

  9
$DIMASO
 70
     1
  9
$DIMSHO
 70
     1
  9
$DIMPOST
  1
\X
  9
$DIMAPOST
  1

  9
$DIMALT
 70
     1
  9
$DIMALTD
 70
     2
  9
$DIMALTF
 40
25.3999999999999986
  9
$DIMLFAC
 40
1.0
  9
$DIMTOFL
 70
     0
  9
$DIMTVP
 40
0.0
  9
$DIMTIX
 70
     0
  9
$DIMSOXD
 70
     0
  9
$DIMSAH
 70
     0
  9
$DIMBLK1
  1

  9
$DIMBLK2
  1

  9
$DIMSTYLE
  2
STANDARD
  9
$DIMCLRD
 70
     0
  9
$DIMCLRE
 70
     0
  9
$DIMCLRT
 70
     0
  9
$DIMTFAC
 40
1.0
  9
$DIMGAP
 40
0.09
  9
$LUNITS
 70
     2
  9
$LUPREC
 70
     4
  9
$SKETCHINC
 40
0.1
  9
$FILLETRAD
 40
0.0
  9
$AUNITS
 70
     0
  9
$AUPREC
 70
     0
  9
$MENU
  1
.
  9
$ELEVATION
 40
0.0
  9
$PELEVATION
 40
0.0
  9
$THICKNESS
 40
0.0
  9
$LIMCHECK
 70
     0
  9
$BLIPMODE
 70
     0
  9
$CHAMFERA
 40
0.0
  9
$CHAMFERB
 40
0.0
  9
$SKPOLY
 70
     0
  9
$TDCREATE
 40
2458060.468368056230247
  9
$TDUPDATE
 40
2459058.4825578709132969
  9
$TDINDWG
 40
0.422472338
  9
$TDUSRTIMER
 40
0.422472338
  9
$USRTIMER
 70
     1
  9
$ANGBASE
 50
0.0
  9
$ANGDIR
 70
     0
  9
$PDMODE
 70
     0
  9
$PDSIZE
 40
0.3125
  9
$PLINEWID
 40
0.0
  9
$COORDS
 70
     1
  9
$SPLFRAME
 70
     0
  9
$SPLINETYPE
 70
     6
  9
$SPLINESEGS
 70
     8
  9
$ATTDIA
 70
     1
  9
$ATTREQ
 70
     1
  9
$HANDLING
 70
     1
  9
$HANDSEED
  5
7F1F
  9
$SURFTAB1
 70
     6
  9
$SURFTAB2
 70
     6
  9
$SURFTYPE
 70
     6
  9
$SURFU
 70
     6
  9
$SURFV
 70
     6
  9
$UCSNAME
  2

  9
$UCSORG
 10
0.0
 20
0.0
 30
0.0
  9
$UCSXDIR
 10
1.0
 20
0.0
 30
0.0
  9
$UCSYDIR
 10
0.0
 20
1.0
 30
0.0
  9
$PUCSNAME
  2

  9
$PUCSORG
 10
0.0
 20
0.0
 30
0.0
  9
$PUCSXDIR
 10
1.0
 20
0.0
 30
0.0
  9
$PUCSYDIR
 10
0.0
 20
1.0
 30
0.0
  9
$USERI1
 70
     0
  9
$USERI2
 70
     0
  9
$USERI3
 70
     0
  9
$USERI4
 70
     0
  9
$USERI5
 70
     0
  9
$USERR1
 40
0.0
  9
$USERR2
 40
0.0
  9
$USERR3
 40
0.0
  9
$USERR4
 40
0.0
  9
$USERR5
 40
0.0
  9
$WORLDVIEW
 70
     1
  9
$SHADEDGE
 70
     3
  9
$SHADEDIF
 70
    70
  9
$TILEMODE
 70
     1
  9
$MAXACTVP
 70
    64
  9
$PLIMCHECK
 70
     0
  9
$PEXTMIN
 10
1.0000000000000000E+20
 20
1.0000000000000000E+20
 30
1.0000000000000000E+20
  9
$PEXTMAX
 10
-1.0000000000000000E+20
 20
-1.0000000000000000E+20
 30
-1.0000000000000000E+20
  9
$PLIMMIN
 10
0.0
 20
0.0
  9
$PLIMMAX
 10
12.0
 20
9.0
  9
$UNITMODE
 70
     0
  9
$VISRETAIN
 70
     1
  9
$PLINEGEN
 70
     0
  9
$PSLTSCALE
 70
     1
  0
ENDSEC
  0
SECTION
  2
TABLES
  0
TABLE
  2
VPORT
 70
     1
  0
VPORT
  2
*ACTIVE
 70
     0
 10
0.0
 20
0.0
 11
1.0
 21
1.0
 12
92.3273339243356332
 22
-25.9138975171996897
 13
0.0
 23
0.0
 14
1.0
 24
1.0
 15
0.0
 25
0.0
 16
0.0
 26
0.0
 36
5.1040778033513332
 17
3792.35791015625
 27
120.1806564331053977
 37
0.0
 40
24.173888202623889
 41
2.005224660397074
 42
50.0
 43
0.0
 44
0.0
 50
0.0
 51
0.0
 71
     0
 72
   100
 73
     1
 74
     1
 75
     0
 76
     0
 77
     0
 78
     0
  0
ENDTAB
  0
TABLE
  2
LTYPE
 70
     2
  0
LTYPE
  2
CONTINUOUS
 70
     0
  3
Solid line
 72
    65
 73
     0
 40
0.0
  0
LTYPE
  2
PHANTOM2
 70
     0
  3
___ _ _ ___ _ _ ___ _ _ ___ _ _
 72
    65
 73
     6
 40
1.25
 49
0.625
 49
-0.125
 49
0.125
 49
-0.125
 49
0.125
 49
-0.125
  0
ENDTAB
  0
TABLE
  2
LAYER
 70
     2
  0
LAYER
  2
0
 70
     0
 62
   255
  6
CONTINUOUS
  0
LAYER
  2
DEFPOINTS
 70
     0
 62
     7
  6
CONTINUOUS
  0
ENDTAB
  0
TABLE
  2
STYLE
 70
     1
  0
STYLE
  2
STANDARD
 70
     0
 40
0.0
 41
0.8
 50
0.0
 71
     0
 42
0.2
  3
txt
  4

  0
ENDTAB
  0
TABLE
  2
VIEW
 70
     0
  0
ENDTAB
  0
TABLE
  2
UCS
 70
     0
  0
ENDTAB
  0
TABLE
  2
APPID
 70
     9
  0
APPID
  2
ACAD
 70
     0
  0
APPID
  2
ACAD_MLEADERVER
 70
     0
  0
APPID
  2
ACAD_EXEMPT_FROM_CAD_STANDARDS
 70
     0
  0
APPID
  2
ACAD_NAV_VCDISPLAY
 70
     0
  0
APPID
  2
ACAECLAYERSTANDARD
 70
     0
  0
APPID
  2
ACCMTRANSPARENCY
 70
     0
  0
APPID
  2
ACAD_DSTYLE_DIMJAG
 70
     0
  0
APPID
  2
ACAD_DSTYLE_DIMTALN
 70
     0
  0
APPID
  2
ACDBATTR
 70
     0
  0
ENDTAB
  0
TABLE
  2
DIMSTYLE
 70
     1
  0
DIMSTYLE
  2
STANDARD
 70
     0
  3

  4

  5

  6

  7

 40
1.0
 41
0.1875
 42
0.0625
 43
0.38
 44
0.125
 45
0.0
 46
0.0
 47
0.01
 48
0.01
140
0.15625
141
0.09
142
0.0
143
25.3999999999999986
144
1.0
145
0.0
146
1.0
147
0.09
 71
     1
 72
     0
 73
     1
 74
     1
 75
     0
 76
     0
 77
     0
 78
     4
170
     0
171
     2
172
     0
173
     0
174
     0
175
     0
176
     0
177
     0
178
     0
  0
ENDTAB
  0
ENDSEC
  0
SECTION
  2
BLOCKS
  0
BLOCK
  8
0
  2
$MODEL_SPACE
 70
     0
 10
0.0
 20
0.0
 30
0.0
  3
$MODEL_SPACE
  1

  0
ENDBLK
  5
21
  8
0
  0
BLOCK
 67
     1
  8
0
  2
$PAPER_SPACE
 70
     0
 10
0.0
 20
0.0
 30
0.0
  3
$PAPER_SPACE
  1

  0
ENDBLK
  5
1D
 67
     1
  8
0
  0
BLOCK
  8
0
  2
_FILLED
 70
     0
 10
0.0
 20
0.0
 30
0.0
  3
_FILLED
  1

  0
SOLID
  5
69B4
  8
0
  6
BYBLOCK
 62
     0
 10
0.0
 20
0.0
 30
0.0
 11
-1.0
 21
0.1666666667
 31
0.0
 12
-1.0
 22
-0.1666666667
 32
0.0
 13
-1.0
 23
-0.1666666667
 33
0.0
  0
ENDBLK
  5
69B5
  8
0
  6
BYBLOCK
 62
     0
  0
BLOCK
  8
0
  2
A$CDFAF6206
 70
     0
 10
0.0
 20
0.0
 30
0.0
  3
A$CDFAF6206
  1

  0
LINE
  5
6A0E
  8
0
 10
7.4646650085734834
 20
10.9287685970688493
 30
0.0
 11
7.4646650085734896
 21
10.8905784766688498
 31
0.0
  0
ARC
  5
6A0F
  8
0
 10
7.7269027075262349
 20
10.8926811525838598
 30
0.0
 40
0.2622461286616791
 50
180.4593995232625048
 51
217.0214027758331099
  0
LINE
  5
6A10
  8
0
 10
9.767814609867095
 20
10.9287685970688493
 30
0.0
 11
9.767814609867095
 21
10.8905433757650094
 31
0.0
  0
ARC
  5
6A11
  8
0
 10
9.5068669568548287
 20
10.8922438613003703
 30
0.0
 40
0.2609531936261092
 50
322.8847083717149076
 51
359.6266329125650145
  0
LINE
  5
6A12
  8
0
 10
7.517522606271406
 20
10.7347792678688396
 30
0.0
 11
9.7149570120691777
 21
10.7347792678688396
 31
0.0
  0
LINE
  5
6A13
  8
0
 10
7.4646650085734834
 20
10.9287685970688493
 30
0.0
 11
9.7678146123202936
 21
10.9287685970688493
 31
0.0
  0
ARC
  5
6A14
  8
0
 10
4.0826771419203629
 20
8.527951346868889
 30
0.0
 40
4.0826771653999172
 50
13.3117747050523896
 51
32.7200330051415591
  0
ARC
  5
6A15
  8
0
 10
4.0826771460567306
 20
8.5279513475907933
 30
0.0
 40
4.0826771612084691
 50
359.6656501984817851
 51
13.3117747085593798
  0
ARC
  5
6A16
  8
0
 10
13.1498041284835097
 20
8.5279508235212234
 30
0.0
 40
4.0826788382043553
 50
147.2799733478981068
 51
166.6882233021349862
  0
ARC
  5
6A17
  8
0
 10
13.1498064934207992
 20
8.5279506557033251
 30
0.0
 40
4.0826811782395342
 50
166.688228652086309
 51
180.3343397625230011
  0
LINE
  5
6A18
  8
0
 10
8.1652847935202928
 20
8.504127000268852
 30
0.0
 11
9.0671948248202892
 21
8.5041270002687881
 31
0.0
  0
LINE
  5
6A19
  8
0
 10
8.1652847935202786
 20
8.5041270002667204
 30
0.0
 11
8.1652847935202928
 21
8.3607006934688481
 31
0.0
  0
ARC
  5
6A1A
  8
0
 10
5.6196779630382627
 20
8.3631022096452732
 30
0.0
 40
2.545607963272567
 50
342.0511668832173768
 51
359.945947387132378
  0
LINE
  5
6A1B
  8
0
 10
9.0671948248202892
 20
8.5041270002687881
 30
0.0
 11
9.0671948248202892
 21
8.2885990108688503
 31
0.0
  0
ARC
  5
6A1C
  8
0
 10
9.4521885297801163
 20
7.9614488056228501
 30
0.0
 40
0.5052201595850959
 50
139.6436242991769916
 51
174.6757930071850069
  0
ARC
  5
6A1D
  8
0
 10
9.9238413395551746
 20
8.1492417579399508
 30
0.0
 40
0.9848265662939324
 50
188.2263441834095943
 51
209.5593615864376034
  0
ARC
  5
6A1E
  8
0
 10
8.0788764238271256
 20
7.5665710856463297
 30
0.0
 40
0.0393715937169877
 50
162.1669117288323037
 51
227.2023190037006088
  0
ARC
  5
6A1F
  8
0
 10
8.7223682141740682
 20
8.2079667397440517
 30
0.0
 40
0.947895137885075
 50
225.0018610752970858
 51
261.4598823366255829
  0
ARC
  5
6A20
  8
0
 10
8.6645157662702701
 20
8.1695128573935332
 30
0.0
 40
0.9027466462812931
 50
264.7303071214498118
 51
281.8608311947915013
  0
ARC
  5
6A21
  8
0
 10
8.6645157662698935
 20
8.1695128573999671
 30
0.0
 40
0.9027466462876658
 50
299.1741886792128753
 51
299.1743179154552195
  0
ARC
  5
6A22
  8
0
 10
9.0843330931590316
 20
7.4150554710086141
 30
0.0
 40
0.0393703053609601
 50
251.9700352025496954
 51
252.4698971938937859
  0
ARC
  5
6A23
  8
0
 10
9.0843330931590316
 20
7.4150554710086141
 30
0.0
 40
0.0393703053609601
 50
297.2453716727138726
 51
6.8376113572703074
  0
LINE
  5
6A24
  8
0
 10
9.0671948248202892
 20
7.663402160468852
 30
0.0
 11
9.1234233799329516
 21
7.419742732911689
 31
0.0
  0
ARC
  5
6A25
  8
0
 10
8.8843741880892395
 20
9.8961379890094676
 30
0.0
 40
2.5255097382132701
 50
263.792800240752797
 51
274.9514951129821156
  0
ARC
  5
6A26
  8
0
 10
8.8258167405968848
 20
9.2763025889666508
 30
0.0
 40
1.9029970832759311
 50
246.0108363320686067
 51
263.5276935074397215
  0
ARC
  5
6A27
  8
0
 10
8.607491361665744
 20
8.3225444804829642
 30
0.0
 40
1.064510137163637
 50
283.1717405874071005
 51
297.7022170607311864
  0
LINE
  5
6A28
  8
0
 10
9.0671948248202892
 20
8.2885990108688503
 30
0.0
 11
26.2014378595979593
 21
8.2885990108689942
 31
0.0
  0
LINE
  5
6A29
  8
0
 10
26.2014378595979913
 20
7.6634021604689053
 30
0.0
 11
9.0671948248202892
 21
7.6634021604688618
 31
0.0
  0
LINE
  5
6A2A
  8
0
 10
27.8039676758446994
 20
10.9287685970690802
 30
0.0
 11
27.8039676758446888
 21
10.8905784766690807
 31
0.0
  0
ARC
  5
6A2B
  8
0
 10
27.5417299768919399
 20
10.8926811525840801
 30
0.0
 40
0.2622461286616791
 50
322.9785972241680838
 51
359.5406004767386889
  0
LINE
  5
6A2C
  8
0
 10
25.5008180745510913
 20
10.9287685970690305
 30
0.0
 11
25.5008180745510913
 21
10.8905433757651799
 31
0.0
  0
ARC
  5
6A2D
  8
0
 10
25.7617657275633505
 20
10.8922438613005497
 30
0.0
 40
0.2609531936261092
 50
180.3733670874362929
 51
217.1152916282862861
  0
LINE
  5
6A2E
  8
0
 10
27.7511100781467803
 20
10.7347792678690706
 30
0.0
 11
25.5536756723490015
 21
10.7347792678690208
 31
0.0
  0
LINE
  5
6A2F
  8
0
 10
27.8039676758446888
 20
10.9287685970686006
 30
0.0
 11
25.5008180745510806
 21
10.9287685970686006
 31
0.0
  0
ARC
  5
6A30
  8
0
 10
31.1859555424978616
 20
8.5279513468691981
 30
0.0
 40
4.0826771653999172
 50
147.2799669948597057
 51
166.6882252949490066
  0
ARC
  5
6A31
  8
0
 10
31.185955538361501
 20
8.5279513475911024
 30
0.0
 40
4.0826771612084691
 50
166.6882252914419098
 51
180.3343498015194086
  0
ARC
  5
6A32
  8
0
 10
22.1188285559344706
 20
8.5279508235212251
 30
0.0
 40
4.0826788382046102
 50
13.3117766978667795
 51
32.7200266521023977
  0
ARC
  5
6A33
  8
0
 10
22.1188261909974315
 20
8.5279506557034264
 30
0.0
 40
4.0826811782395342
 50
359.665660237478221
 51
13.31177134791497
  0
LINE
  5
6A34
  8
0
 10
27.1033478908979397
 20
8.5041270002690652
 30
0.0
 11
26.2014378595979416
 21
8.5041270002689835
 31
0.0
  0
LINE
  5
6A35
  8
0
 10
27.1033478908979504
 20
8.5041270002669354
 30
0.0
 11
27.1033478908979397
 21
8.3607006934690649
 31
0.0
  0
ARC
  5
6A36
  8
0
 10
29.6489547213799689
 20
8.3631022096455467
 30
0.0
 40
2.545607963272567
 50
180.0540526128687873
 51
197.9488331167837032
  0
LINE
  5
6A37
  8
0
 10
26.2014378595979416
 20
8.5041270002689835
 30
0.0
 11
26.2014378595979487
 21
8.2885990108690457
 31
0.0
  0
ARC
  5
6A38
  8
0
 10
25.8164441546381305
 20
7.9614488056230366
 30
0.0
 40
0.5052201595850959
 50
5.324206992816312
 51
40.3563757008241879
  0
ARC
  5
6A39
  8
0
 10
25.3447913448601803
 20
8.149241757940846
 30
0.0
 40
0.9848265662968968
 50
330.4406384136033807
 51
351.7736558165743759
  0
ARC
  5
6A3A
  8
0
 10
27.1897562605911212
 20
7.5665710856465473
 30
0.0
 40
0.0393715937169877
 50
312.7976809963004143
 51
17.8330882711689185
  0
ARC
  5
6A3B
  8
0
 10
26.5462644702441715
 20
8.2079667397442542
 30
0.0
 40
0.947895137885075
 50
278.5401176633754972
 51
314.9981389247041079
  0
ARC
  5
6A3C
  8
0
 10
26.6041169181479695
 20
8.1695128573937392
 30
0.0
 40
0.9027466462812931
 50
258.139168805210204
 51
275.2696928785518935
  0
ARC
  5
6A3D
  8
0
 10
26.6041169181483497
 20
8.1695128574001732
 30
0.0
 40
0.9027466462876658
 50
240.8256820845460027
 51
240.8258113207880058
  0
ARC
  5
6A3E
  8
0
 10
26.1842995912592293
 20
7.4150554710088086
 30
0.0
 40
0.0393703053609601
 50
287.5301028061073794
 51
288.0299647974517825
  0
ARC
  5
6A3F
  8
0
 10
26.1842995912592293
 20
7.4150554710088086
 30
0.0
 40
0.0393703053609601
 50
173.1623886427310026
 51
242.7546283272870085
  0
LINE
  5
6A40
  8
0
 10
26.2014378595981192
 20
7.6634021604690448
 30
0.0
 11
26.1452093044853093
 21
7.4197427329118826
 31
0.0
  0
ARC
  5
6A41
  8
0
 10
26.384258496328961
 20
9.8961379890096666
 30
0.0
 40
2.5255097382132701
 50
265.0485048870193054
 51
276.2071997592482262
  0
ARC
  5
6A42
  8
0
 10
26.4428159438213299
 20
9.2763025889668516
 30
0.0
 40
1.9029970832759311
 50
276.4723064925619838
 51
293.9891636679327007
  0
ARC
  5
6A43
  8
0
 10
26.6611413227524885
 20
8.3225444804831703
 30
0.0
 40
1.064510137163637
 50
242.2977829392704052
 51
256.8282594125943774
  0
LINE
  5
6A44
  8
0
 62
     4
 10
17.9031473532159602
 20
10.9287685970686006
 30
0.0
 11
24.6329820359843588
 21
20.0952817181593808
 31
0.0
  0
LINE
  5
6A45
  8
0
 62
     4
 10
17.9031473532159602
 20
-0.0000000300842942
 30
0.0
 11
22.3963351323106608
 21
4.993614497796286
 31
0.0
  0
ENDBLK
  5
6A49
  8
0
  0
ENDSEC
  0
SECTION
  2
ENTITIES
  0
ATTDEF
  5
7CAF
  8
DEFPOINTS
 10
3886.0627713746130212
 20
95.1815934563138484
 30
0.0
 40
0.001
  1
BATH SPOUT
  3

  2
PRODUCT
 70
     0
1001
ACDBATTR
1070
     0
1070
     1
  0
ATTDEF
  5
7CB0
  8
DEFPOINTS
 10
3886.0627713746130212
 20
95.1832601229805135
 30
0.0
 40
0.001
  1
MEIMA
  3

  2
TRADENAME
 70
     0
1001
ACDBATTR
1070
     0
1070
     1
  0
ATTDEF
  5
7CB1
  8
DEFPOINTS
 10
3886.0627713746130212
 20
95.1849267896471645
 30
0.0
 40
0.001
  1
K-11632T
  3

  2
MODELNUMBER
 70
     0
1001
ACDBATTR
1070
     0
1070
     1
  0
ARC
  5
7E65
  8
0
 10
3881.1585487932370597
 20
93.1465140464685675
 30
0.0
 40
4.067047188394878
 50
21.3185779486504785
 51
29.7177658293075417
  0
ARC
  5
7E66
  8
0
 10
3879.6064086699811924
 20
92.5585872155089788
 30
0.0
 40
5.7267464040771161
 50
11.3289952945132004
 51
21.1526101459018392
  0
ARC
  5
7E67
  8
0
 10
3884.7358738212410572
 20
95.1231951628852812
 30
0.0
 40
0.0600000121309742
 50
89.999979942390155
 51
123.6646485580488957
  0
ARC
  5
7E68
  8
0
 10
3884.7350107432889672
 20
95.1242081255818732
 30
0.0
 40
0.0586787057065935
 50
123.5115243159331015
 51
154.5962657734912966
  0
ARC
  5
7E69
  8
0
 10
3884.7628720517800502
 20
95.1116109161255849
 30
0.0
 40
0.0892519979847094
 50
154.9642315049651984
 51
166.3810499162615031
  0
ARC
  5
7E6A
  8
0
 10
3884.769113179489068
 20
95.1351144259725174
 30
0.0
 40
0.0952560076299574
 50
192.5400020697254888
 51
202.2158394995919082
  0
ARC
  5
7E6B
  8
0
 10
3878.4619098653861329
 20
92.6090353355288158
 30
0.0
 40
6.6990003559555023
 50
9.3624757142632031
 51
21.8209105208550085
  0
ARC
  5
7E6C
  8
0
 10
3863.9097739840008217
 20
90.0972719764059775
 30
0.0
 40
21.466185978519519
 50
1.2691882227169631
 51
9.6586567761930162
  0
ARC
  5
7E6D
  8
0
 10
3804.7823495424490829
 20
88.8521986946540068
 30
0.0
 40
80.6067085271668304
 50
0.4522485940182868
 51
1.2230661135107319
  0
ARC
  5
7E6E
  8
0
 10
3889.4324639603391915
 20
89.713754619576477
 30
0.0
 40
4.0521859063473009
 50
183.1874864640149951
 51
193.6205329647999065
  0
ARC
  5
7E6F
  8
0
 10
3885.5525500423827907
 20
88.7736441833939551
 30
0.0
 40
0.060001086655025
 50
193.631178082650905
 51
259.6285313596952165
  0
ARC
  5
7E70
  8
0
 10
3886.0835212928777764
 20
91.718143628324782
 30
0.0
 40
3.051991436542377
 50
259.7749711792762923
 51
262.414450015465718
  0
ARC
  5
7E71
  8
0
 10
3886.0619241154108749
 20
91.5360876448108343
 30
0.0
 40
2.8686788844980819
 50
262.3620336296431788
 51
270.0159319630021741
  0
ARC
  5
7E72
  8
0
 10
3872.4241045835437944
 20
91.2451799371727361
 30
0.0
 40
13.0276963447166594
 50
3.7957204248620608
 51
10.7876252588955506
  0
ARC
  5
7E73
  8
0
 10
3851.3610032826068164
 20
89.9107054515193056
 30
0.0
 40
34.1329931323183828
 50
0.2218102373408482
 51
3.6902757148956482
  0
ARC
  5
7E74
  8
0
 10
3800.0494617215031212
 20
89.4994951934191789
 30
0.0
 40
85.4460065090449632
 50
359.5090937452375783
 51
0.3643452955118176
  0
LINE
  5
7E75
  8
0
 10
3884.6761295364967737
 20
95.1326265100162516
 30
0.0
 11
3884.6761295364967737
 21
95.1144323292327272
 31
0.0
  0
LINE
  5
7E76
  8
0
 10
3884.7358738422449278
 20
95.1831951750162233
 30
0.0
 11
3887.3895766776981873
 21
95.1831951750162233
 31
0.0
  0
LINE
  5
7E77
  8
0
 10
3885.6510676143998353
 20
93.8001205741162352
 30
0.0
 11
3885.6510676143998353
 21
93.0462701692162568
 31
0.0
  0
LINE
  5
7E78
  8
0
 10
3885.6857996449989514
 20
93.011505697316224
 30
0.0
 11
3886.4396467777978614
 21
93.0115239821211048
 31
0.0
  0
LINE
  5
7E79
  8
0
 10
3886.4743759751968355
 20
93.0462698472162515
 30
0.0
 11
3886.4743759751968355
 21
93.8001203560162367
 31
0.0
  0
LINE
  5
7E7A
  8
0
 10
3885.6857967512992218
 20
93.8348664191993436
 30
0.0
 11
3886.4396439700990413
 21
93.8348655338162416
 31
0.0
  0
ARC
  5
7E7B
  8
0
 10
3886.43962503672401
 20
93.8001146000247275
 30
0.0
 40
0.0347509389492753
 50
0.0094902190618011
 51
89.9687835054050282
  0
ARC
  5
7E7C
  8
0
 10
3885.6858043994197942
 20
93.8001296338399015
 30
0.0
 40
0.034736786201399
 50
90.0126150143469914
 51
180.0149433494565869
  0
ARC
  5
7E7D
  8
0
 10
3885.6857786605460205
 20
93.0462167781803231
 30
0.0
 40
0.0347110872071224
 50
179.9118701696139055
 51
270.0346379430480965
  0
ARC
  5
7E7E
  8
0
 10
3886.4396868979602004
 20
93.0462130826012697
 30
0.0
 40
0.0346891236809242
 50
269.9337337989649086
 51
0.0937577537200446
  0
ARC
  5
7E7F
  8
0
 10
3885.7794496411820546
 20
93.1399230224229768
 30
0.0
 40
0.0426866087277496
 50
197.4171390809823947
 51
252.5828655933974005
  0
LINE
  5
7E80
  8
0
 10
3885.766672423098953
 20
93.0991935581162409
 30
0.0
 11
3886.358771166598217
 21
93.0991935581162409
 31
0.0
  0
ARC
  5
7E81
  8
0
 10
3886.3459940232819463
 20
93.1399229476923267
 30
0.0
 40
0.042686515043535
 50
287.4170686756943951
 51
342.5829270197705227
  0
LINE
  5
7E82
  8
0
 10
3886.3867234118988563
 20
93.1271458013162459
 30
0.0
 11
3886.3867234118988563
 21
93.7192445486162455
 31
0.0
  0
ARC
  5
7E83
  8
0
 10
3886.3459937387237915
 20
93.7064672004999011
 30
0.0
 40
0.04268684694147
 50
17.4172170224137517
 51
72.5766776698707332
  0
LINE
  5
7E84
  8
0
 10
3886.3587754268291974
 20
93.747195511918278
 30
0.0
 11
3885.7666724213991074
 21
93.7471967913162416
 31
0.0
  0
ARC
  5
7E85
  8
0
 10
3885.7794495661269139
 20
93.7064674025762656
 30
0.0
 40
0.0426865146685302
 50
107.4170708205039944
 51
162.5829273346901971
  0
LINE
  5
7E86
  8
0
 10
3885.7387201777978589
 20
93.7192445486162455
 30
0.0
 11
3885.7387201779179122
 21
93.1271458010162547
 31
0.0
  0
ARC
  5
7E87
  8
0
 10
3890.9669933039967873
 20
93.1467512861023152
 30
0.0
 40
4.0670471883970558
 50
150.2850058292920039
 51
158.6841937099489996
  0
ARC
  5
7E88
  8
0
 10
3892.5191618661410757
 20
92.5588995399398442
 30
0.0
 40
5.7267464040771161
 50
158.8501615126953936
 51
168.6737763640907133
  0
ARC
  5
7E89
  8
0
 10
3887.3898919825401208
 20
95.1239365426923058
 30
0.0
 40
0.0592594711590448
 50
56.2321721901308109
 51
90.3048579672242937
  0
ARC
  5
7E8A
  8
0
 10
3887.390435688029811
 20
95.1242723530995988
 30
0.0
 40
0.0586787057065935
 50
25.4065058851186691
 51
56.4912473426630584
  0
ARC
  5
7E8B
  8
0
 10
3887.3625704649039108
 20
95.1116719492164435
 30
0.0
 40
0.0892568784401137
 50
13.6221666229422809
 51
25.0383850754973487
  0
ARC
  5
7E8C
  8
0
 10
3887.3564375188570921
 20
95.1351392525708093
 30
0.0
 40
0.0951447186431215
 50
337.7841209229175092
 51
347.4711405996678764
  0
ARC
  5
7E8D
  8
0
 10
3893.663658228991153
 20
92.6094030245362347
 30
0.0
 40
6.6990003559555023
 50
158.181861137739304
 51
170.6402959443381064
  0
ARC
  5
7E8E
  8
0
 10
3908.2159155988160819
 20
90.0983436216432949
 30
0.0
 40
21.466185978519519
 50
170.3441148824099116
 51
178.7335834358837872
  0
ARC
  5
7E8F
  8
0
 10
3967.343400201069926
 20
88.8561306049798532
 30
0.0
 40
80.6067085271668304
 50
178.7797055450888877
 51
179.550523064581995
  0
ARC
  5
7E90
  8
0
 10
3882.6932442048278062
 20
89.7135916161531952
 30
0.0
 40
4.0521859063473009
 50
346.3822386938027194
 51
356.8152851945868065
  0
ARC
  5
7E91
  8
0
 10
3886.5732035956821164
 20
88.7736688702314751
 30
0.0
 40
0.060001086655025
 50
280.3742402988905269
 51
346.3715935759523177
  0
ARC
  5
7E92
  8
0
 10
3886.0420899069190455
 20
91.7181426262120851
 30
0.0
 40
3.051991436542377
 50
277.5883216431308256
 51
280.2278004793420223
  0
ARC
  5
7E93
  8
0
 10
3886.0636958912400587
 20
91.5360876876652867
 30
0.0
 40
2.8686788844980819
 50
269.9868396955910725
 51
277.640738028953308
  0
ARC
  5
7E94
  8
0
 10
3899.7015294796851776
 20
91.2458397039999056
 30
0.0
 40
13.0276963447166594
 50
169.2151463997024052
 51
176.2070512337379
  0
ARC
  5
7E95
  8
0
 10
3920.764695310604111
 20
89.9123841383402436
 30
0.0
 40
34.1329931323183828
 50
176.3124959437045902
 51
179.780961421259093
  0
ARC
  5
7E96
  8
0
 10
3972.0762567037900226
 20
89.5036560543928204
 30
0.0
 40
85.4460065090449632
 50
179.6384263630885982
 51
180.4936779133622053
  0
LINE
  5
7E97
  8
0
 10
3887.4493165434200819
 20
95.1326935621651444
 30
0.0
 11
3887.4493165434200819
 21
95.1144993814027941
 31
0.0
  0
LINE
  5
7E99
  8
0
 10
3886.3761795057980635
 20
93.7366497512192609
 30
0.0
 11
3886.4642062594230083
 21
93.8246786234837202
 31
0.0
  0
LINE
  5
7E9A
  8
0
 10
3885.7492656426261419
 20
93.7366513270495432
 30
0.0
 11
3885.6612307053360382
 21
93.8246811689172375
 31
0.0
  0
LINE
  5
7E9B
  8
0
 10
3885.7492656519170851
 20
93.1097390306944703
 30
0.0
 11
3885.6612165937781356
 21
93.0216899658686884
 31
0.0
  0
LINE
  5
7E9C
  8
0
 10
3886.3761779464011852
 20
93.1097390223060017
 30
0.0
 11
3886.464236984802028
 21
93.0217053439893675
 31
0.0
  0
ENDSEC
  0
EOF
