  0
SECTION
  2
HEADER
  9
$ACADVER
  1
AC1009
  9
$INSBASE
 10
3488.1442473920578777
 20
152.717387970367696
 30
0.0
  9
$EXTMIN
 10
3484.5622473920579978
 20
148.2992639609676928
 30
0.0
  9
$EXTMAX
 10
3488.1551030737300607
 20
157.1488702277677021
 30
0.0
  9
$LIMMIN
 10
0.0
 20
0.0
  9
$LIMMAX
 10
11.6929133858000007
 20
8.2677165353999982
  9
$ORTHOMODE
 70
     0
  9
$REGENMODE
 70
     1
  9
$FILLMODE
 70
     1
  9
$QTEXTMODE
 70
     0
  9
$MIRRTEXT
 70
     0
  9
$DRAGMODE
 70
     2
  9
$LTSCALE
 40
0.6431102362
  9
$OSMODE
 70
   575
  9
$ATTMODE
 70
     1
  9
$TEXTSIZE
 40
0.2
  9
$TRACEWID
 40
0.05
  9
$TEXTSTYLE
  7
STANDARD
  9
$CLAYER
  8
0
  9
$CELTYPE
  6
BYLAYER
  9
$CECOLOR
 62
   256
  9
$DIMSCALE
 40
1.0
  9
$DIMASZ
 40
0.1875
  9
$DIMEXO
 40
0.0625
  9
$DIMDLI
 40
0.4443307087
  9
$DIMRND
 40
0.0
  9
$DIMDLE
 40
0.0
  9
$DIMEXE
 40
0.125
  9
$DIMTP
 40
0.01
  9
$DIMTM
 40
0.01
  9
$DIMTXT
 40
2.0
  9
$DIMCEN
 40
0.1052362205
  9
$DIMTSZ
 40
0.0
  9
$DIMTOL
 70
     1
  9
$DIMLIM
 70
     0
  9
$DIMTIH
 70
     1
  9
$DIMTOH
 70
     1
  9
$DIMSE1
 70
     0
  9
$DIMSE2
 70
     0
  9
$DIMTAD
 70
     0
  9
$DIMZIN
 70
     0
  9
$DIMBLK
  1

  9
$DIMASO
 70
     1
  9
$DIMSHO
 70
     1
  9
$DIMPOST
  1
\X
  9
$DIMAPOST
  1

  9
$DIMALT
 70
     1
  9
$DIMALTD
 70
     2
  9
$DIMALTF
 40
25.3999999999999986
  9
$DIMLFAC
 40
1.0
  9
$DIMTOFL
 70
     0
  9
$DIMTVP
 40
0.0
  9
$DIMTIX
 70
     0
  9
$DIMSOXD
 70
     0
  9
$DIMSAH
 70
     0
  9
$DIMBLK1
  1

  9
$DIMBLK2
  1

  9
$DIMSTYLE
  2
STANDARD
  9
$DIMCLRD
 70
     0
  9
$DIMCLRE
 70
     0
  9
$DIMCLRT
 70
     0
  9
$DIMTFAC
 40
1.0
  9
$DIMGAP
 40
0.09
  9
$LUNITS
 70
     2
  9
$LUPREC
 70
     4
  9
$SKETCHINC
 40
0.1
  9
$FILLETRAD
 40
0.0
  9
$AUNITS
 70
     0
  9
$AUPREC
 70
     0
  9
$MENU
  1
.
  9
$ELEVATION
 40
0.0
  9
$PELEVATION
 40
0.0
  9
$THICKNESS
 40
0.0
  9
$LIMCHECK
 70
     0
  9
$BLIPMODE
 70
     0
  9
$CHAMFERA
 40
0.0
  9
$CHAMFERB
 40
0.0
  9
$SKPOLY
 70
     0
  9
$TDCREATE
 40
2458060.468368056230247
  9
$TDUPDATE
 40
2459397.1668634261004627
  9
$TDINDWG
 40
0.5860255787
  9
$TDUSRTIMER
 40
0.5860255787
  9
$USRTIMER
 70
     1
  9
$ANGBASE
 50
0.0
  9
$ANGDIR
 70
     0
  9
$PDMODE
 70
     0
  9
$PDSIZE
 40
0.3125
  9
$PLINEWID
 40
0.0
  9
$COORDS
 70
     2
  9
$SPLFRAME
 70
     0
  9
$SPLINETYPE
 70
     6
  9
$SPLINESEGS
 70
     8
  9
$ATTDIA
 70
     1
  9
$ATTREQ
 70
     1
  9
$HANDLING
 70
     1
  9
$HANDSEED
  5
1460F
  9
$SURFTAB1
 70
     6
  9
$SURFTAB2
 70
     6
  9
$SURFTYPE
 70
     6
  9
$SURFU
 70
     6
  9
$SURFV
 70
     6
  9
$UCSNAME
  2

  9
$UCSORG
 10
0.0
 20
0.0
 30
0.0
  9
$UCSXDIR
 10
1.0
 20
0.0
 30
0.0
  9
$UCSYDIR
 10
0.0
 20
1.0
 30
0.0
  9
$PUCSNAME
  2

  9
$PUCSORG
 10
0.0
 20
0.0
 30
0.0
  9
$PUCSXDIR
 10
1.0
 20
0.0
 30
0.0
  9
$PUCSYDIR
 10
0.0
 20
1.0
 30
0.0
  9
$USERI1
 70
     0
  9
$USERI2
 70
     0
  9
$USERI3
 70
     0
  9
$USERI4
 70
     0
  9
$USERI5
 70
     0
  9
$USERR1
 40
0.0
  9
$USERR2
 40
0.0
  9
$USERR3
 40
0.0
  9
$USERR4
 40
0.0
  9
$USERR5
 40
0.0
  9
$WORLDVIEW
 70
     1
  9
$SHADEDGE
 70
     3
  9
$SHADEDIF
 70
    70
  9
$TILEMODE
 70
     1
  9
$MAXACTVP
 70
    64
  9
$PLIMCHECK
 70
     0
  9
$PEXTMIN
 10
1.0000000000000000E+20
 20
1.0000000000000000E+20
 30
1.0000000000000000E+20
  9
$PEXTMAX
 10
-1.0000000000000000E+20
 20
-1.0000000000000000E+20
 30
-1.0000000000000000E+20
  9
$PLIMMIN
 10
0.0
 20
0.0
  9
$PLIMMAX
 10
12.0
 20
9.0
  9
$UNITMODE
 70
     0
  9
$VISRETAIN
 70
     1
  9
$PLINEGEN
 70
     0
  9
$PSLTSCALE
 70
     1
  0
ENDSEC
  0
SECTION
  2
TABLES
  0
TABLE
  2
VPORT
 70
     1
  0
VPORT
  2
*ACTIVE
 70
     0
 10
0.0
 20
0.0
 11
1.0
 21
1.0
 12
-26.8246740540403898
 22
-9.5018166547128384
 13
0.0
 23
0.0
 14
1.0
 24
1.0
 15
0.0
 25
0.0
 16
0.0
 26
0.0
 36
20.9203132949307395
 17
3515.499267578125
 27
160.6819381713866903
 37
0.0
 40
13.1235372596982405
 41
2.3500000000000001
 42
50.0
 43
0.0
 44
0.0
 50
0.0
 51
0.0
 71
     0
 72
   100
 73
     1
 74
     1
 75
     0
 76
     0
 77
     0
 78
     0
  0
ENDTAB
  0
TABLE
  2
LTYPE
 70
     2
  0
LTYPE
  2
CONTINUOUS
 70
     0
  3
Solid line
 72
    65
 73
     0
 40
0.0
  0
LTYPE
  2
PHANTOM2
 70
     0
  3
___ _ _ ___ _ _ ___ _ _ ___ _ _
 72
    65
 73
     6
 40
1.25
 49
0.625
 49
-0.125
 49
0.125
 49
-0.125
 49
0.125
 49
-0.125
  0
ENDTAB
  0
TABLE
  2
LAYER
 70
     2
  0
LAYER
  2
0
 70
     0
 62
   255
  6
CONTINUOUS
  0
LAYER
  2
DEFPOINTS
 70
     0
 62
     7
  6
CONTINUOUS
  0
ENDTAB
  0
TABLE
  2
STYLE
 70
     1
  0
STYLE
  2
STANDARD
 70
     0
 40
0.0
 41
0.8
 50
0.0
 71
     0
 42
0.2
  3
txt
  4

  0
ENDTAB
  0
TABLE
  2
VIEW
 70
     1
  0
ENDTAB
  0
TABLE
  2
UCS
 70
     0
  0
ENDTAB
  0
TABLE
  2
APPID
 70
     9
  0
APPID
  2
ACAD
 70
     0
  0
APPID
  2
ACAD_MLEADERVER
 70
     0
  0
APPID
  2
ACAD_EXEMPT_FROM_CAD_STANDARDS
 70
     0
  0
APPID
  2
ACAD_NAV_VCDISPLAY
 70
     0
  0
APPID
  2
ACAECLAYERSTANDARD
 70
     0
  0
APPID
  2
ACCMTRANSPARENCY
 70
     0
  0
APPID
  2
ACAD_DSTYLE_DIMJAG
 70
     0
  0
APPID
  2
ACAD_DSTYLE_DIMTALN
 70
     0
  0
APPID
  2
ACDBATTR
 70
     0
  0
ENDTAB
  0
TABLE
  2
DIMSTYLE
 70
     1
  0
DIMSTYLE
  2
STANDARD
 70
     0
  3

  4

  5

  6

  7

 40
1.0
 41
0.1875
 42
0.0625
 43
0.38
 44
0.125
 45
0.0
 46
0.0
 47
0.01
 48
0.01
140
0.15625
141
0.09
142
0.0
143
25.3999999999999986
144
1.0
145
0.0
146
1.0
147
0.09
 71
     1
 72
     0
 73
     1
 74
     1
 75
     0
 76
     0
 77
     0
 78
     4
170
     0
171
     2
172
     0
173
     0
174
     0
175
     0
176
     0
177
     0
178
     0
  0
ENDTAB
  0
ENDSEC
  0
SECTION
  2
BLOCKS
  0
BLOCK
  8
0
  2
$MODEL_SPACE
 70
     0
 10
0.0
 20
0.0
 30
0.0
  3
$MODEL_SPACE
  1

  0
ENDBLK
  5
21
  8
0
  0
BLOCK
 67
     1
  8
0
  2
$PAPER_SPACE
 70
     0
 10
0.0
 20
0.0
 30
0.0
  3
$PAPER_SPACE
  1

  0
ENDBLK
  5
1D
 67
     1
  8
0
  0
BLOCK
  8
0
  2
_FILLED
 70
     0
 10
0.0
 20
0.0
 30
0.0
  3
_FILLED
  1

  0
SOLID
  5
144BB
  8
0
  6
BYBLOCK
 62
     0
 10
0.0
 20
0.0
 30
0.0
 11
-1.0
 21
0.1666666667
 31
0.0
 12
-1.0
 22
-0.1666666667
 32
0.0
 13
-1.0
 23
-0.1666666667
 33
0.0
  0
ENDBLK
  5
144BC
  8
0
  6
BYBLOCK
 62
     0
  0
ENDSEC
  0
SECTION
  2
ENTITIES
  0
ATTDEF
  5
12BEB
  8
DEFPOINTS
 10
3488.144436407061221
 20
152.7208105899910038
 30
0.0
 40
0.001
  1
K-1139249W
  3

  2
MODELNUMBER
 70
     0
1001
ACDBATTR
1070
     0
1070
     1
  0
ATTDEF
  5
12BEC
  8
DEFPOINTS
 10
3488.144436407061221
 20
152.7191439233243955
 30
0.0
 40
0.001
  1
STILLNESS 
  3

  2
TRADENAME
 70
     0
1001
ACDBATTR
1070
     0
1070
     1
  0
ATTDEF
  5
12BED
  8
DEFPOINTS
 10
3488.144436407061221
 20
152.7174772566577019
 30
0.0
 40
0.001
  1
SHOWER TRIM
  3

  2
PRODUCT
 70
     0
1001
ACDBATTR
1070
     0
1070
     1
  0
LINE
  5
1453A
  8
0
 10
3485.1122473920581797
 20
148.2992639609676928
 30
0.0
 11
3484.6222473920588527
 21
148.2992639609676928
 31
0.0
  0
LINE
  5
1453B
  8
0
 10
3487.6505728201577767
 20
149.1026842156676935
 30
0.0
 11
3488.1442473920578777
 21
149.0940670939677091
 31
0.0
  0
LINE
  5
1453C
  8
0
 10
3485.1522473920581433
 20
150.360763960967688
 30
0.0
 11
3487.4842473920571138
 21
150.360763960967688
 31
0.0
  0
LINE
  5
1453D
  8
0
 10
3484.5822473920579796
 20
150.3715710948677042
 30
0.0
 11
3485.1122473920581797
 21
150.3715710948677042
 31
0.0
  0
LINE
  5
1453E
  8
0
 10
3487.4842473920571138
 20
150.4440670939677034
 30
0.0
 11
3487.5210609969581128
 21
150.4440670939677034
 31
0.0
  0
LINE
  5
1453F
  8
0
 10
3484.5622473920579978
 20
148.3592639609676951
 30
0.0
 11
3484.5622473920579978
 21
151.9177639471677139
 31
0.0
  0
LINE
  5
14540
  8
0
 10
3484.5622473920579978
 20
153.5303702408677111
 30
0.0
 11
3484.5622473920579978
 21
157.0888702261676997
 31
0.0
  0
LINE
  5
14541
  8
0
 10
3485.1322473920581615
 20
148.319263960967703
 30
0.0
 11
3485.1322473920581615
 21
151.9177639471677139
 31
0.0
  0
LINE
  5
14542
  8
0
 10
3485.1322473920581615
 20
153.5303702407676951
 30
0.0
 11
3485.1322473920581615
 21
157.1288702262677077
 31
0.0
  0
LINE
  5
14543
  8
0
 10
3485.1522473920581433
 20
155.0873702269676926
 30
0.0
 11
3485.1522473920581433
 21
153.5103702269676944
 31
0.0
  0
LINE
  5
14544
  8
0
 10
3485.1522473920581433
 20
151.9377639609676862
 30
0.0
 11
3485.1522473920581433
 21
150.360763960967688
 31
0.0
  0
LINE
  5
14545
  8
0
 10
3487.4842473920571138
 20
151.8540670939677
 30
0.0
 11
3487.505811854858166
 21
151.8540670939677
 31
0.0
  0
LINE
  5
14546
  8
0
 10
3485.1122473920581797
 20
151.9377639609676862
 30
0.0
 11
3484.5822473920579796
 21
151.9377639609676862
 31
0.0
  0
LINE
  5
14547
  8
0
 10
3485.1522473920581433
 20
151.9377639609676862
 30
0.0
 11
3487.4842473920571138
 21
151.9377639609676862
 31
0.0
  0
LINE
  5
14548
  8
0
 10
3485.1122473920581797
 20
153.5103702269676944
 30
0.0
 11
3484.5822473920579796
 21
153.5103702269676944
 31
0.0
  0
LINE
  5
14549
  8
0
 10
3485.1522473920581433
 20
153.5103702269676944
 30
0.0
 11
3487.4842473920571138
 21
153.5103702269676944
 31
0.0
  0
LINE
  5
1454A
  8
0
 10
3487.4842473920571138
 20
153.5940670939677091
 30
0.0
 11
3487.5058391193579155
 21
153.5940670939677091
 31
0.0
  0
LINE
  5
1454B
  8
0
 10
3487.5511059623581787
 20
150.4146157628676974
 30
0.0
 11
3487.5818286388580418
 21
149.1704872620676952
 31
0.0
  0
LINE
  5
1454C
  8
0
 10
3487.4842473920571138
 20
150.360763960967688
 30
0.0
 11
3487.4842473920571138
 21
151.9377639609676862
 31
0.0
  0
LINE
  5
1454D
  8
0
 10
3487.4842473920571138
 20
153.5103702269676944
 30
0.0
 11
3487.4842473920571138
 21
155.0873702269676926
 31
0.0
  0
LINE
  5
1454E
  8
0
 10
3487.5358390088499618
 20
153.5639831485592879
 30
0.0
 11
3487.5358118886360899
 21
151.8840670304659
 31
0.0
  0
LINE
  5
1454F
  8
0
 10
3487.5818286388580418
 20
156.2676469258676946
 30
0.0
 11
3487.5818286388580418
 21
149.1704872620676952
 31
0.0
  0
LINE
  5
14550
  8
0
 10
3487.5512878490580988
 20
155.0335149749676873
 30
0.0
 11
3487.5818286388580418
 21
156.2676469258676946
 31
0.0
  0
LINE
  5
14551
  8
0
 10
3488.099247392057805
 20
156.3410906844677015
 30
0.0
 11
3488.099247392057805
 21
156.3432816160677135
 31
0.0
  0
LINE
  5
14552
  8
0
 10
3488.1442473920578777
 20
149.0940670939677091
 30
0.0
 11
3488.1442473920578777
 21
156.3407088467677113
 31
0.0
  0
LINE
  5
14553
  8
0
 10
3487.4842473920571138
 20
155.0040670939677057
 30
0.0
 11
3487.5213526875349999
 21
155.0040670939677057
 31
0.0
  0
LINE
  5
14554
  8
0
 10
3484.5822473920579796
 20
155.0765630914677047
 30
0.0
 11
3485.1122473920581797
 21
155.0765630914677047
 31
0.0
  0
LINE
  5
14555
  8
0
 10
3485.1522473920581433
 20
155.0873702269676926
 30
0.0
 11
3487.4842473920571138
 21
155.0873702269676926
 31
0.0
  0
LINE
  5
14556
  8
0
 10
3488.1292473920580051
 20
156.3404467779677134
 30
0.0
 11
3488.1442473920578777
 21
156.3407088467677113
 31
0.0
  0
LINE
  5
14557
  8
0
 10
3487.6505728201577767
 20
156.3354499722676962
 30
0.0
 11
3488.099247392057805
 21
156.3432816160677135
 31
0.0
  0
LINE
  5
14558
  8
0
 10
3484.6222473920588527
 20
157.1488702262676895
 30
0.0
 11
3485.1122473920581797
 21
157.1488702262676895
 31
0.0
  0
ARC
  5
14559
  8
0
 10
3487.6517944885581528
 20
156.2654606335676988
 30
0.0
 40
0.07
 50
91.0000012692870968
 51
178.2102043763999859
  0
ARC
  5
1455A
  8
0
 10
3487.6517944886259102
 20
149.1726735543975053
 30
0.0
 40
0.0700000000691656
 50
181.7897956462462901
 51
268.9999999865257223
  0
ARC
  5
1455B
  8
0
 10
3484.6222473920588527
 20
148.3592639609676951
 30
0.0
 40
0.06
 50
180.0
 51
270.0000000168054726
  0
ARC
  5
1455C
  8
0
 10
3484.6222473920588527
 20
157.0888702262676873
 30
0.0
 40
0.06
 50
89.9999999831944564
 51
180.0
  0
ARC
  5
1455D
  8
0
 10
3485.1122473920581797
 20
148.319263960967703
 30
0.0
 40
0.02
 50
270.0
 51
0.0
  0
ARC
  5
1455E
  8
0
 10
3485.1522473920581433
 20
151.8942639609676917
 30
0.0
 40
0.02
 50
180.0
 51
270.0
  0
ARC
  5
1455F
  8
0
 10
3485.1522473920581433
 20
150.4226599994676974
 30
0.0
 40
0.02
 50
90.0
 51
180.0
  0
ARC
  5
14560
  8
0
 10
3484.5822473920579796
 20
151.9177639609677044
 30
0.0
 40
0.0200000000000058
 50
90.0
 51
180.0000395340703108
  0
ARC
  5
14561
  8
0
 10
3485.1122473920581797
 20
151.9177639609677044
 30
0.0
 40
0.020000000000015
 50
359.9999604659474812
 51
89.9999999999739515
  0
ARC
  5
14562
  8
0
 10
3485.1122473920581797
 20
157.1288702277676919
 30
0.0
 40
0.02
 50
0.0
 51
90.0
  0
ARC
  5
14563
  8
0
 10
3485.1522473920581433
 20
155.0254741864677044
 30
0.0
 40
0.02
 50
180.0
 51
270.0
  0
ARC
  5
14564
  8
0
 10
3485.1522473920581433
 20
153.553870226967689
 30
0.0
 40
0.02
 50
90.0
 51
180.0
  0
ARC
  5
14565
  8
0
 10
3484.5822473920579796
 20
153.5303702269677046
 30
0.0
 40
0.020000000000008
 50
179.9999601794602029
 51
270.0
  0
ARC
  5
14566
  8
0
 10
3485.1122473920581797
 20
153.5303702269677046
 30
0.0
 40
0.0200000000000147
 50
270.0000000000259774
 51
0.0000395340426889
  0
LINE
  5
14567
  8
0
 10
3487.5512878490580988
 20
155.0335149749676873
 30
0.0
 11
3487.5358390088499618
 21
153.5639831485592879
 31
0.0
  0
LINE
  5
14568
  8
0
 10
3487.5358118886360899
 20
151.8840670304659
 30
0.0
 11
3487.5511059623581787
 21
150.4146157628676974
 31
0.0
  0
ARC
  5
14569
  8
0
 10
3484.5821141498731777
 20
155.0566962792644006
 30
0.0
 40
0.019867259010763
 50
89.6157360149901336
 51
179.5930195404488927
  0
ARC
  5
1456A
  8
0
 10
3485.1123806359059927
 20
155.0566962823018002
 30
0.0
 40
0.0198672559846039
 50
0.4064263211489793
 51
90.3842688379342434
  0
ARC
  5
1456B
  8
0
 10
3484.5821141479559628
 20
150.3914379036910987
 30
0.0
 40
0.0198672556437684
 50
180.4063911466554941
 51
270.3842695769257034
  0
ARC
  5
1456C
  8
0
 10
3485.1123806341611271
 20
150.391437907153886
 30
0.0
 40
0.0198672590930956
 50
269.6157362543636964
 51
359.5930196213702175
  0
ARC
  5
1456D
  8
0
 10
3487.5205720836338514
 20
150.4135173777065972
 30
0.0
 40
0.0305536282603311
 50
2.0601938559513462
 51
89.083124748156834
  0
ARC
  5
1456E
  8
0
 10
3487.5058120391099692
 20
151.8840669434920869
 30
0.0
 40
0.0299998495249919
 50
269.9996481019286989
 51
0.0001661084365541
  0
ARC
  5
1456F
  8
0
 10
3487.5052946541618439
 20
153.5635241431118061
 30
0.0
 40
0.0305478033471788
 50
0.8609478177821582
 51
88.9787413065832595
  0
ARC
  5
14570
  8
0
 10
3487.5212978717459009
 20
155.0340620098967008
 30
0.0
 40
0.029994966016944
 50
269.8952919273640987
 51
358.9550069701838879
  0
ARC
  5
14571
  8
0
 10
3488.1197488561269893
 20
156.5970853269620022
 30
0.0
 40
0.2568142655981756
 50
265.4212099966957226
 51
272.1196259326663949
  0
ENDSEC
  0
EOF
