  0
SECTION
  2
HEADER
  9
$ACADVER
  1
AC1009
  9
$INSBASE
 10
3610.7648140514979787
 20
329.7032832118009082
 30
0.0
  9
$EXTMIN
 10
3593.0533569141312
 20
325.5815888012882056
 30
0.0
  9
$EXTMAX
 10
3610.780468562824808
 20
333.8249776223137246
 30
0.0
  9
$LIMMIN
 10
0.0
 20
0.0
  9
$LIMMAX
 10
11.6929133858000007
 20
8.2677165353999982
  9
$ORTHOMODE
 70
     0
  9
$REGENMODE
 70
     1
  9
$FILLMODE
 70
     1
  9
$QTEXTMODE
 70
     0
  9
$MIRRTEXT
 70
     0
  9
$DRAGMODE
 70
     2
  9
$LTSCALE
 40
0.6431102362
  9
$OSMODE
 70
  4095
  9
$ATTMODE
 70
     1
  9
$TEXTSIZE
 40
0.2
  9
$TRACEWID
 40
0.05
  9
$TEXTSTYLE
  7
STANDARD
  9
$CLAYER
  8
0
  9
$CELTYPE
  6
BYLAYER
  9
$CECOLOR
 62
   256
  9
$DIMSCALE
 40
1.0
  9
$DIMASZ
 40
0.1875
  9
$DIMEXO
 40
0.0625
  9
$DIMDLI
 40
0.4443307087
  9
$DIMRND
 40
0.0
  9
$DIMDLE
 40
0.0
  9
$DIMEXE
 40
0.125
  9
$DIMTP
 40
0.01
  9
$DIMTM
 40
0.01
  9
$DIMTXT
 40
2.0
  9
$DIMCEN
 40
0.1052362205
  9
$DIMTSZ
 40
0.0
  9
$DIMTOL
 70
     1
  9
$DIMLIM
 70
     0
  9
$DIMTIH
 70
     1
  9
$DIMTOH
 70
     1
  9
$DIMSE1
 70
     0
  9
$DIMSE2
 70
     0
  9
$DIMTAD
 70
     0
  9
$DIMZIN
 70
     0
  9
$DIMBLK
  1

  9
$DIMASO
 70
     1
  9
$DIMSHO
 70
     1
  9
$DIMPOST
  1
\X
  9
$DIMAPOST
  1

  9
$DIMALT
 70
     1
  9
$DIMALTD
 70
     2
  9
$DIMALTF
 40
25.3999999999999986
  9
$DIMLFAC
 40
1.0
  9
$DIMTOFL
 70
     0
  9
$DIMTVP
 40
0.0
  9
$DIMTIX
 70
     0
  9
$DIMSOXD
 70
     0
  9
$DIMSAH
 70
     0
  9
$DIMBLK1
  1

  9
$DIMBLK2
  1

  9
$DIMSTYLE
  2
STANDARD
  9
$DIMCLRD
 70
     0
  9
$DIMCLRE
 70
     0
  9
$DIMCLRT
 70
     0
  9
$DIMTFAC
 40
1.0
  9
$DIMGAP
 40
0.09
  9
$LUNITS
 70
     2
  9
$LUPREC
 70
     4
  9
$SKETCHINC
 40
0.1
  9
$FILLETRAD
 40
0.0
  9
$AUNITS
 70
     0
  9
$AUPREC
 70
     0
  9
$MENU
  1
.
  9
$ELEVATION
 40
0.0
  9
$PELEVATION
 40
0.0
  9
$THICKNESS
 40
0.0
  9
$LIMCHECK
 70
     0
  9
$BLIPMODE
 70
     0
  9
$CHAMFERA
 40
0.0
  9
$CHAMFERB
 40
0.0
  9
$SKPOLY
 70
     0
  9
$TDCREATE
 40
2458060.468368056230247
  9
$TDUPDATE
 40
2458961.8098726850003004
  9
$TDINDWG
 40
0.565284838
  9
$TDUSRTIMER
 40
0.565284838
  9
$USRTIMER
 70
     1
  9
$ANGBASE
 50
0.0
  9
$ANGDIR
 70
     0
  9
$PDMODE
 70
     0
  9
$PDSIZE
 40
0.3125
  9
$PLINEWID
 40
0.0
  9
$COORDS
 70
     1
  9
$SPLFRAME
 70
     0
  9
$SPLINETYPE
 70
     6
  9
$SPLINESEGS
 70
     8
  9
$ATTDIA
 70
     1
  9
$ATTREQ
 70
     1
  9
$HANDLING
 70
     1
  9
$HANDSEED
  5
A618
  9
$SURFTAB1
 70
     6
  9
$SURFTAB2
 70
     6
  9
$SURFTYPE
 70
     6
  9
$SURFU
 70
     6
  9
$SURFV
 70
     6
  9
$UCSNAME
  2

  9
$UCSORG
 10
0.0
 20
0.0
 30
0.0
  9
$UCSXDIR
 10
1.0
 20
0.0
 30
0.0
  9
$UCSYDIR
 10
0.0
 20
1.0
 30
0.0
  9
$PUCSNAME
  2

  9
$PUCSORG
 10
0.0
 20
0.0
 30
0.0
  9
$PUCSXDIR
 10
1.0
 20
0.0
 30
0.0
  9
$PUCSYDIR
 10
0.0
 20
1.0
 30
0.0
  9
$USERI1
 70
     0
  9
$USERI2
 70
     0
  9
$USERI3
 70
     0
  9
$USERI4
 70
     0
  9
$USERI5
 70
     0
  9
$USERR1
 40
0.0
  9
$USERR2
 40
0.0
  9
$USERR3
 40
0.0
  9
$USERR4
 40
0.0
  9
$USERR5
 40
0.0
  9
$WORLDVIEW
 70
     1
  9
$SHADEDGE
 70
     3
  9
$SHADEDIF
 70
    70
  9
$TILEMODE
 70
     1
  9
$MAXACTVP
 70
    64
  9
$PLIMCHECK
 70
     0
  9
$PEXTMIN
 10
1.0000000000000000E+20
 20
1.0000000000000000E+20
 30
1.0000000000000000E+20
  9
$PEXTMAX
 10
-1.0000000000000000E+20
 20
-1.0000000000000000E+20
 30
-1.0000000000000000E+20
  9
$PLIMMIN
 10
0.0
 20
0.0
  9
$PLIMMAX
 10
12.0
 20
9.0
  9
$UNITMODE
 70
     0
  9
$VISRETAIN
 70
     1
  9
$PLINEGEN
 70
     0
  9
$PSLTSCALE
 70
     1
  0
ENDSEC
  0
SECTION
  2
TABLES
  0
TABLE
  2
VPORT
 70
     1
  0
VPORT
  2
*ACTIVE
 70
     0
 10
0.0
 20
0.0
 11
1.0
 21
1.0
 12
0.0
 22
0.0
 13
0.0
 23
0.0
 14
1.0
 24
1.0
 15
0.0
 25
0.0
 16
0.0
 26
0.0
 36
74.2929039938829305
 17
3601.9169676800079287
 27
329.703216552734375
 37
0.0
 40
19.5749492343588791
 41
3.0022321428571419
 42
50.0
 43
0.0
 44
0.0
 50
0.0
 51
0.0
 71
     0
 72
   100
 73
     1
 74
     1
 75
     0
 76
     0
 77
     0
 78
     0
  0
ENDTAB
  0
TABLE
  2
LTYPE
 70
     2
  0
LTYPE
  2
CONTINUOUS
 70
     0
  3
Solid line
 72
    65
 73
     0
 40
0.0
  0
LTYPE
  2
PHANTOM2
 70
     0
  3
___ _ _ ___ _ _ ___ _ _ ___ _ _
 72
    65
 73
     6
 40
1.25
 49
0.625
 49
-0.125
 49
0.125
 49
-0.125
 49
0.125
 49
-0.125
  0
ENDTAB
  0
TABLE
  2
LAYER
 70
     2
  0
LAYER
  2
0
 70
     0
 62
   255
  6
CONTINUOUS
  0
LAYER
  2
DEFPOINTS
 70
     0
 62
     7
  6
CONTINUOUS
  0
ENDTAB
  0
TABLE
  2
STYLE
 70
     1
  0
STYLE
  2
STANDARD
 70
     0
 40
0.0
 41
0.8
 50
0.0
 71
     0
 42
0.2
  3
txt
  4

  0
ENDTAB
  0
TABLE
  2
VIEW
 70
     0
  0
ENDTAB
  0
TABLE
  2
UCS
 70
     0
  0
ENDTAB
  0
TABLE
  2
APPID
 70
     9
  0
APPID
  2
ACAD
 70
     0
  0
APPID
  2
ACAD_MLEADERVER
 70
     0
  0
APPID
  2
ACAD_EXEMPT_FROM_CAD_STANDARDS
 70
     0
  0
APPID
  2
ACAD_NAV_VCDISPLAY
 70
     0
  0
APPID
  2
ACAECLAYERSTANDARD
 70
     0
  0
APPID
  2
ACCMTRANSPARENCY
 70
     0
  0
APPID
  2
ACAD_DSTYLE_DIMJAG
 70
     0
  0
APPID
  2
ACAD_DSTYLE_DIMTALN
 70
     0
  0
APPID
  2
ACDBATTR
 70
     0
  0
ENDTAB
  0
TABLE
  2
DIMSTYLE
 70
     1
  0
DIMSTYLE
  2
STANDARD
 70
     0
  3

  4

  5

  6

  7

 40
1.0
 41
0.1875
 42
0.0625
 43
0.38
 44
0.125
 45
0.0
 46
0.0
 47
0.01
 48
0.01
140
0.15625
141
0.09
142
0.0
143
25.3999999999999986
144
1.0
145
0.0
146
1.0
147
0.09
 71
     1
 72
     0
 73
     1
 74
     1
 75
     0
 76
     0
 77
     0
 78
     4
170
     0
171
     2
172
     0
173
     0
174
     0
175
     0
176
     0
177
     0
178
     0
  0
ENDTAB
  0
ENDSEC
  0
SECTION
  2
BLOCKS
  0
BLOCK
  8
0
  2
$MODEL_SPACE
 70
     0
 10
0.0
 20
0.0
 30
0.0
  3
$MODEL_SPACE
  1

  0
ENDBLK
  5
21
  8
0
  0
BLOCK
 67
     1
  8
0
  2
$PAPER_SPACE
 70
     0
 10
0.0
 20
0.0
 30
0.0
  3
$PAPER_SPACE
  1

  0
ENDBLK
  5
1D
 67
     1
  8
0
  0
BLOCK
  8
0
  2
_FILLED
 70
     0
 10
0.0
 20
0.0
 30
0.0
  3
_FILLED
  1

  0
SOLID
  5
6F59
  8
0
  6
BYBLOCK
 62
     0
 10
0.0
 20
0.0
 30
0.0
 11
-1.0
 21
0.1666666667
 31
0.0
 12
-1.0
 22
-0.1666666667
 32
0.0
 13
-1.0
 23
-0.1666666667
 33
0.0
  0
ENDBLK
  5
6F5A
  8
0
  6
BYBLOCK
 62
     0
  0
ENDSEC
  0
SECTION
  2
ENTITIES
  0
ATTDEF
  5
3930
  8
DEFPOINTS
 10
3610.7698018961559683
 20
329.7039676976543205
 30
0.0
 40
0.001
  1
K-11160T-1
  3

  2
MODELNUMBER
 70
     0
1001
ACDBATTR
1070
     0
1070
     1
  0
ATTDEF
  5
3931
  8
DEFPOINTS
 10
3610.7698018961559683
 20
329.7023010309875986
 30
0.0
 40
0.001
  1
ODEON
  3

  2
TRADENAME
 70
     0
1001
ACDBATTR
1070
     0
1070
     1
  0
ATTDEF
  5
3932
  8
DEFPOINTS
 10
3610.7698018961559683
 20
329.7006343643208766
 30
0.0
 40
0.001
  1
BATHROOM SINK
  3

  2
PRODUCT
 70
     0
1001
ACDBATTR
1070
     0
1070
     1
  0
LINE
  5
A522
  8
0
 10
3610.7648140514979787
 20
332.5718308215880938
 30
0.0
 11
3610.7648140514979787
 21
333.7315935475082256
 31
0.0
  0
ARC
  5
A523
  8
0
 10
3610.6644628136259598
 20
333.7243664827332168
 30
0.0
 40
0.1006111395805506
 50
4.119198284819606
 51
93.2188842383490339
  0
ARC
  5
A524
  8
0
 10
3614.4207530172479892
 20
272.6685052897724972
 30
0.0
 40
61.271909407712613
 50
93.5200292151040742
 51
93.5748732947674
  0
ARC
  5
A525
  8
0
 10
3610.577869190733054
 20
327.5622631348513778
 30
0.0
 40
6.2589668793415472
 50
89.7948856199455463
 51
91.7322300270135287
  0
ARC
  5
A526
  8
0
 10
3608.5996869718987909
 20
397.415258581172111
 30
0.0
 40
63.6220459310654007
 50
270.0741332685141174
 51
271.6113075943130184
  0
LINE
  5
A527
  8
0
 10
3608.682005581365047
 20
333.7932659048881874
 30
0.0
 11
3593.1534516716651524
 21
333.7865534465880728
 31
0.0
  0
ARC
  5
A528
  8
0
 10
3593.1534329507858274
 20
333.6864774116842227
 30
0.0
 40
0.1000760366550209
 50
89.989281876076717
 51
183.3315373406815922
  0
ARC
  5
A529
  8
0
 10
3597.5420255352919412
 20
334.0239823790217883
 30
0.0
 40
4.5016104682969216
 50
184.3739788169521887
 51
211.577963494106001
  0
ARC
  5
A52A
  8
0
 10
3603.0973725490289326
 20
337.7475472178218183
 30
0.0
 40
11.1873382887013992
 50
212.9255869346040129
 51
231.9834581853041868
  0
ARC
  5
A52B
  8
0
 10
3608.7272240320407946
 20
345.0293161404596276
 30
0.0
 40
20.3915790877799488
 50
232.1222006478593016
 51
243.2728313376470055
  0
ARC
  5
A52C
  8
0
 10
3599.6018526134657805
 20
326.9053723170652006
 30
0.0
 40
0.0999640498957052
 50
242.8667480023329119
 51
359.9937423248733239
  0
LINE
  5
A52D
  8
0
 10
3599.7018166627649407
 20
326.9053613992880969
 30
0.0
 11
3599.7022378758651939
 21
332.3759634146882149
 31
0.0
  0
ARC
  5
A52E
  8
0
 10
3599.810648223606222
 20
332.3628351340352083
 30
0.0
 40
0.1092023591782701
 50
93.5421606978228652
 51
173.0952146829556
  0
LINE
  5
A52F
  8
0
 10
3599.8039013749648802
 20
332.4718288736880822
 30
0.0
 11
3610.664816662766043
 21
332.4718288736880822
 31
0.0
  0
ARC
  5
A530
  8
0
 10
3610.6583048941120069
 20
332.5783377343005895
 30
0.0
 40
0.1067077341149777
 50
273.4986106668685011
 51
356.5040015526702746
  0
ARC
  5
A531
  8
0
 10
3610.5622544255320463
 20
332.3718280236946043
 30
0.0
 40
0.1000010073082411
 50
90.2502542544761468
 51
180.1563530755350087
  0
LINE
  5
A532
  8
0
 10
3610.4622537905647732
 20
332.3715551336882186
 30
0.0
 11
3610.4622486189250594
 21
326.8462177765468937
 31
0.0
  0
ARC
  5
A533
  8
0
 10
3610.3622590658478657
 20
326.8462911834507167
 30
0.0
 40
0.0999895800218466
 50
280.8894419071996822
 51
359.9579365554537844
  0
ARC
  5
A534
  8
0
 10
3608.6997821382810798
 20
336.5666431898241058
 30
0.0
 40
9.961462888738799
 50
272.4568577557309936
 51
279.7173058370453873
  0
ARC
  5
A535
  8
0
 10
3607.8609794164631239
 20
347.8551679476340155
 30
0.0
 40
21.2785150405178598
 50
267.3483847296665772
 51
273.4104399915057115
  0
ARC
  5
A536
  8
0
 10
3597.2930247706299269
 20
163.8651191956869866
 30
0.0
 40
163.0162636712182973
 50
86.6297001578290775
 51
87.0140130536826604
  0
ARC
  5
A537
  8
0
 10
3605.5873473218398431
 20
322.5276270781059225
 30
0.0
 40
4.1371450196761064
 50
87.2641163232260766
 51
91.7807367811617354
  0
ARC
  5
A538
  8
0
 10
3605.4574135819711955
 20
326.5186963866942165
 30
0.0
 40
0.1440842795470132
 50
89.4539599291034477
 51
109.952006386681802
  0
ARC
  5
A539
  8
0
 10
3604.7000894812867955
 20
329.2057892008099884
 30
0.0
 40
2.6481010418977351
 50
253.1724443691832107
 51
285.5108582539945132
  0
ARC
  5
A53A
  8
0
 10
3604.7778575947831996
 20
329.0657534607638013
 30
0.0
 40
2.5391793375811491
 50
215.1689653218166995
 51
250.5771290740796076
  0
ARC
  5
A53B
  8
0
 10
3607.4951961358729022
 20
330.8749016063729869
 30
0.0
 40
5.803178421338667
 50
187.5538680279950086
 51
214.317294246310496
  0
ARC
  5
A53C
  8
0
 10
3646.1681488573481147
 20
337.6118191817412821
 30
0.0
 40
45.0543659564332728
 50
187.6188168260351858
 51
189.5821155594483969
  0
ARC
  5
A53D
  8
0
 10
3603.9006576054380275
 20
331.9071552360006194
 30
0.0
 40
2.4042029705604331
 50
169.3285848035662866
 51
186.4176545334053117
  0
ARC
  5
A53E
  8
0
 10
3601.4354945759600923
 20
332.370973855541024
 30
0.0
 40
0.1042163624644003
 50
349.7095385469521034
 51
75.4084833922268274
  0
ARC
  5
A53F
  8
0
 10
3599.8018496270187825
 20
327.2315950948200793
 30
0.0
 40
0.1000284489955799
 50
78.4574367894153113
 51
178.8326536866102003
  0
ARC
  5
A540
  8
0
 10
3601.342019540154979
 20
334.7730915547106747
 30
0.0
 40
7.597132859946119
 50
258.4574367894152829
 51
269.0138612311104112
  0
ARC
  5
A541
  8
0
 10
3602.0500705070721779
 20
375.9075925163068064
 30
0.0
 40
48.7377272349827635
 50
269.0138612311104112
 51
271.2069923433701888
  0
ARC
  5
A542
  8
0
 10
3604.3404528545688663
 20
328.1893665490381977
 30
0.0
 40
2.205278148422023
 50
272.2826147145340201
 51
315.8326999540374231
  0
ARC
  5
A543
  8
0
 10
3604.4443613565881606
 20
325.7864212161106821
 30
0.0
 40
0.2000638963672778
 50
94.6087461997146448
 51
173.0245493359460909
  0
LINE
  5
A544
  8
0
 10
3604.2457782776659769
 20
325.8107177877881213
 30
0.0
 11
3604.2285413839658759
 21
325.6694758024880798
 31
0.0
  0
ARC
  5
A545
  8
0
 10
3604.1292777185331033
 20
325.6815888013734934
 30
0.0
 40
0.1000000000852608
 50
270.0000000185250997
 51
353.0426780841261802
  0
LINE
  5
A546
  8
0
 10
3604.1292777185649356
 20
325.5815888012882056
 30
0.0
 11
3601.6503556068660146
 21
325.5815888012882056
 31
0.0
  0
ARC
  5
A547
  8
0
 10
3601.6503556068660146
 20
325.6815888012882283
 30
0.0
 40
0.1000000000000023
 50
186.9573218726200139
 51
270.0
  0
LINE
  5
A548
  8
0
 10
3601.5510919415091848
 20
325.6694758024880798
 30
0.0
 11
3601.3884431916658286
 21
327.0023506208249273
 31
0.0
  0
ARC
  5
A549
  8
0
 10
3601.1897755136528758
 20
326.9780989395097208
 30
0.0
 40
0.2001424251226708
 50
6.959753587297655
 51
83.8350789790068944
  0
ARC
  5
A54A
  8
0
 10
3604.4076059344870373
 20
326.9651684056906902
 30
0.0
 40
0.9795484964345854
 50
246.2874509386271029
 51
271.2097092333049204
  0
ARC
  5
A54B
  8
0
 10
3603.8496914582087811
 20
325.6421359002235931
 30
0.0
 40
0.4566451207871875
 50
68.9537975399512533
 51
92.826288335401145
  0
ARC
  5
A54C
  8
0
 10
3603.8235785737701917
 20
326.1356281932152115
 30
0.0
 40
0.0375751525417331
 50
248.4837514547897115
 51
275.4926349367070202
  0
ARC
  5
A54D
  8
0
 10
3603.8142704350698295
 20
326.1096115465081198
 30
0.0
 40
0.0099966426972665
 50
165.8723675572296941
 51
243.4190544590950083
  0
ARC
  5
A54E
  8
0
 10
3603.9047711839439216
 20
326.0858694198032026
 30
0.0
 40
0.103559401587606
 50
135.7593712629808067
 51
165.3554107354271139
  0
LINE
  5
A54F
  8
0
 10
3603.8305795650658183
 20
326.158120048488172
 30
0.0
 11
3603.933759699231814
 21
326.6709957588831799
 31
0.0
  0
ENDSEC
  0
EOF
