  0
SECTION
  2
HEADER
  9
$ACADVER
  1
AC1009
  9
$INSBASE
 10
3538.7155460117319308
 20
311.4823772647276883
 30
0.0
  9
$EXTMIN
 10
3527.6670811816020432
 20
307.3606828542148719
 30
0.0
  9
$EXTMAX
 10
3549.7640108418590899
 20
315.6040716752406183
 30
0.0
  9
$LIMMIN
 10
0.0
 20
0.0
  9
$LIMMAX
 10
11.6929133858000007
 20
8.2677165353999982
  9
$ORTHOMODE
 70
     0
  9
$REGENMODE
 70
     1
  9
$FILLMODE
 70
     1
  9
$QTEXTMODE
 70
     0
  9
$MIRRTEXT
 70
     0
  9
$DRAGMODE
 70
     2
  9
$LTSCALE
 40
0.6431102362
  9
$OSMODE
 70
  4095
  9
$ATTMODE
 70
     1
  9
$TEXTSIZE
 40
0.2
  9
$TRACEWID
 40
0.05
  9
$TEXTSTYLE
  7
STANDARD
  9
$CLAYER
  8
0
  9
$CELTYPE
  6
BYLAYER
  9
$CECOLOR
 62
   256
  9
$DIMSCALE
 40
1.0
  9
$DIMASZ
 40
0.1875
  9
$DIMEXO
 40
0.0625
  9
$DIMDLI
 40
0.4443307087
  9
$DIMRND
 40
0.0
  9
$DIMDLE
 40
0.0
  9
$DIMEXE
 40
0.125
  9
$DIMTP
 40
0.01
  9
$DIMTM
 40
0.01
  9
$DIMTXT
 40
2.0
  9
$DIMCEN
 40
0.1052362205
  9
$DIMTSZ
 40
0.0
  9
$DIMTOL
 70
     1
  9
$DIMLIM
 70
     0
  9
$DIMTIH
 70
     1
  9
$DIMTOH
 70
     1
  9
$DIMSE1
 70
     0
  9
$DIMSE2
 70
     0
  9
$DIMTAD
 70
     0
  9
$DIMZIN
 70
     0
  9
$DIMBLK
  1

  9
$DIMASO
 70
     1
  9
$DIMSHO
 70
     1
  9
$DIMPOST
  1
\X
  9
$DIMAPOST
  1

  9
$DIMALT
 70
     1
  9
$DIMALTD
 70
     2
  9
$DIMALTF
 40
25.3999999999999986
  9
$DIMLFAC
 40
1.0
  9
$DIMTOFL
 70
     0
  9
$DIMTVP
 40
0.0
  9
$DIMTIX
 70
     0
  9
$DIMSOXD
 70
     0
  9
$DIMSAH
 70
     0
  9
$DIMBLK1
  1

  9
$DIMBLK2
  1

  9
$DIMSTYLE
  2
STANDARD
  9
$DIMCLRD
 70
     0
  9
$DIMCLRE
 70
     0
  9
$DIMCLRT
 70
     0
  9
$DIMTFAC
 40
1.0
  9
$DIMGAP
 40
0.09
  9
$LUNITS
 70
     2
  9
$LUPREC
 70
     4
  9
$SKETCHINC
 40
0.1
  9
$FILLETRAD
 40
0.0
  9
$AUNITS
 70
     0
  9
$AUPREC
 70
     0
  9
$MENU
  1
.
  9
$ELEVATION
 40
0.0
  9
$PELEVATION
 40
0.0
  9
$THICKNESS
 40
0.0
  9
$LIMCHECK
 70
     0
  9
$BLIPMODE
 70
     0
  9
$CHAMFERA
 40
0.0
  9
$CHAMFERB
 40
0.0
  9
$SKPOLY
 70
     0
  9
$TDCREATE
 40
2458060.468368056230247
  9
$TDUPDATE
 40
2458961.8101157411001623
  9
$TDINDWG
 40
0.5660834491
  9
$TDUSRTIMER
 40
0.5660834491
  9
$USRTIMER
 70
     1
  9
$ANGBASE
 50
0.0
  9
$ANGDIR
 70
     0
  9
$PDMODE
 70
     0
  9
$PDSIZE
 40
0.3125
  9
$PLINEWID
 40
0.0
  9
$COORDS
 70
     1
  9
$SPLFRAME
 70
     0
  9
$SPLINETYPE
 70
     6
  9
$SPLINESEGS
 70
     8
  9
$ATTDIA
 70
     1
  9
$ATTREQ
 70
     1
  9
$HANDLING
 70
     1
  9
$HANDSEED
  5
A57A
  9
$SURFTAB1
 70
     6
  9
$SURFTAB2
 70
     6
  9
$SURFTYPE
 70
     6
  9
$SURFU
 70
     6
  9
$SURFV
 70
     6
  9
$UCSNAME
  2

  9
$UCSORG
 10
0.0
 20
0.0
 30
0.0
  9
$UCSXDIR
 10
1.0
 20
0.0
 30
0.0
  9
$UCSYDIR
 10
0.0
 20
1.0
 30
0.0
  9
$PUCSNAME
  2

  9
$PUCSORG
 10
0.0
 20
0.0
 30
0.0
  9
$PUCSXDIR
 10
1.0
 20
0.0
 30
0.0
  9
$PUCSYDIR
 10
0.0
 20
1.0
 30
0.0
  9
$USERI1
 70
     0
  9
$USERI2
 70
     0
  9
$USERI3
 70
     0
  9
$USERI4
 70
     0
  9
$USERI5
 70
     0
  9
$USERR1
 40
0.0
  9
$USERR2
 40
0.0
  9
$USERR3
 40
0.0
  9
$USERR4
 40
0.0
  9
$USERR5
 40
0.0
  9
$WORLDVIEW
 70
     1
  9
$SHADEDGE
 70
     3
  9
$SHADEDIF
 70
    70
  9
$TILEMODE
 70
     1
  9
$MAXACTVP
 70
    64
  9
$PLIMCHECK
 70
     0
  9
$PEXTMIN
 10
1.0000000000000000E+20
 20
1.0000000000000000E+20
 30
1.0000000000000000E+20
  9
$PEXTMAX
 10
-1.0000000000000000E+20
 20
-1.0000000000000000E+20
 30
-1.0000000000000000E+20
  9
$PLIMMIN
 10
0.0
 20
0.0
  9
$PLIMMAX
 10
12.0
 20
9.0
  9
$UNITMODE
 70
     0
  9
$VISRETAIN
 70
     1
  9
$PLINEGEN
 70
     0
  9
$PSLTSCALE
 70
     1
  0
ENDSEC
  0
SECTION
  2
TABLES
  0
TABLE
  2
VPORT
 70
     1
  0
VPORT
  2
*ACTIVE
 70
     0
 10
0.0
 20
0.0
 11
1.0
 21
1.0
 12
0.0
 22
0.0
 13
0.0
 23
0.0
 14
1.0
 24
1.0
 15
0.0
 25
0.0
 16
0.0
 26
0.0
 36
89.6251004252630139
 17
3538.7154541015629547
 27
311.4823760986328125
 37
0.0
 40
23.5844719748509597
 41
3.0022321428571428
 42
50.0
 43
0.0
 44
0.0
 50
0.0
 51
0.0
 71
     0
 72
   100
 73
     1
 74
     1
 75
     0
 76
     0
 77
     0
 78
     0
  0
ENDTAB
  0
TABLE
  2
LTYPE
 70
     2
  0
LTYPE
  2
CONTINUOUS
 70
     0
  3
Solid line
 72
    65
 73
     0
 40
0.0
  0
LTYPE
  2
PHANTOM2
 70
     0
  3
___ _ _ ___ _ _ ___ _ _ ___ _ _
 72
    65
 73
     6
 40
1.25
 49
0.625
 49
-0.125
 49
0.125
 49
-0.125
 49
0.125
 49
-0.125
  0
ENDTAB
  0
TABLE
  2
LAYER
 70
     2
  0
LAYER
  2
0
 70
     0
 62
   255
  6
CONTINUOUS
  0
LAYER
  2
DEFPOINTS
 70
     0
 62
     7
  6
CONTINUOUS
  0
ENDTAB
  0
TABLE
  2
STYLE
 70
     1
  0
STYLE
  2
STANDARD
 70
     0
 40
0.0
 41
0.8
 50
0.0
 71
     0
 42
0.2
  3
txt
  4

  0
ENDTAB
  0
TABLE
  2
VIEW
 70
     0
  0
ENDTAB
  0
TABLE
  2
UCS
 70
     0
  0
ENDTAB
  0
TABLE
  2
APPID
 70
     9
  0
APPID
  2
ACAD
 70
     0
  0
APPID
  2
ACAD_MLEADERVER
 70
     0
  0
APPID
  2
ACAD_EXEMPT_FROM_CAD_STANDARDS
 70
     0
  0
APPID
  2
ACAD_NAV_VCDISPLAY
 70
     0
  0
APPID
  2
ACAECLAYERSTANDARD
 70
     0
  0
APPID
  2
ACCMTRANSPARENCY
 70
     0
  0
APPID
  2
ACAD_DSTYLE_DIMJAG
 70
     0
  0
APPID
  2
ACAD_DSTYLE_DIMTALN
 70
     0
  0
APPID
  2
ACDBATTR
 70
     0
  0
ENDTAB
  0
TABLE
  2
DIMSTYLE
 70
     1
  0
DIMSTYLE
  2
STANDARD
 70
     0
  3

  4

  5

  6

  7

 40
1.0
 41
0.1875
 42
0.0625
 43
0.38
 44
0.125
 45
0.0
 46
0.0
 47
0.01
 48
0.01
140
0.15625
141
0.09
142
0.0
143
25.3999999999999986
144
1.0
145
0.0
146
1.0
147
0.09
 71
     1
 72
     0
 73
     1
 74
     1
 75
     0
 76
     0
 77
     0
 78
     4
170
     0
171
     2
172
     0
173
     0
174
     0
175
     0
176
     0
177
     0
178
     0
  0
ENDTAB
  0
ENDSEC
  0
SECTION
  2
BLOCKS
  0
BLOCK
  8
0
  2
$MODEL_SPACE
 70
     0
 10
0.0
 20
0.0
 30
0.0
  3
$MODEL_SPACE
  1

  0
ENDBLK
  5
21
  8
0
  0
BLOCK
 67
     1
  8
0
  2
$PAPER_SPACE
 70
     0
 10
0.0
 20
0.0
 30
0.0
  3
$PAPER_SPACE
  1

  0
ENDBLK
  5
1D
 67
     1
  8
0
  0
BLOCK
  8
0
  2
_FILLED
 70
     0
 10
0.0
 20
0.0
 30
0.0
  3
_FILLED
  1

  0
SOLID
  5
6F59
  8
0
  6
BYBLOCK
 62
     0
 10
0.0
 20
0.0
 30
0.0
 11
-1.0
 21
0.1666666667
 31
0.0
 12
-1.0
 22
-0.1666666667
 32
0.0
 13
-1.0
 23
-0.1666666667
 33
0.0
  0
ENDBLK
  5
6F5A
  8
0
  6
BYBLOCK
 62
     0
  0
ENDSEC
  0
SECTION
  2
ENTITIES
  0
ATTDEF
  5
3930
  8
DEFPOINTS
 10
3538.7121763401842145
 20
311.4793232425603833
 30
0.0
 40
0.001
  1
K-11160T-1
  3

  2
MODELNUMBER
 70
     0
1001
ACDBATTR
1070
     0
1070
     1
  0
ATTDEF
  5
3931
  8
DEFPOINTS
 10
3538.7121763401842145
 20
311.4776565758937181
 30
0.0
 40
0.001
  1
ODEON
  3

  2
TRADENAME
 70
     0
1001
ACDBATTR
1070
     0
1070
     1
  0
ATTDEF
  5
3932
  8
DEFPOINTS
 10
3538.7121763401842145
 20
311.4759899092271098
 30
0.0
 40
0.001
  1
BATHROOM SINK
  3

  2
PRODUCT
 70
     0
1001
ACDBATTR
1070
     0
1070
     1
  0
LINE
  5
A47F
  8
0
 10
3538.7155460117319308
 20
315.5656475437148742
 30
0.0
 11
3535.1369016573139561
 21
315.604071675240391
 31
0.0
  0
ARC
  5
A480
  8
0
 10
3536.128239917252813
 20
-197.9891514369822119
 30
0.0
 40
513.5941798524853539
 50
90.1105922455280393
 51
90.7093096439369617
  0
ARC
  5
A481
  8
0
 10
3532.5217106144568788
 20
486.1147171552016744
 30
0.0
 40
170.571238467307694
 50
268.5198047797912864
 51
269.0757179751860235
  0
ARC
  5
A482
  8
0
 10
3528.1086229918860226
 20
314.0796192460315979
 30
0.0
 40
1.5207928300957201
 50
89.7365529023419413
 51
92.1546192239092363
  0
ARC
  5
A483
  8
0
 10
3528.0533803668499786
 20
315.4291931134844731
 30
0.0
 40
0.1701547609970857
 50
90.6511151594826003
 51
106.291455938252895
  0
ARC
  5
A484
  8
0
 10
3527.8782577106680947
 20
315.9803776706593794
 30
0.0
 40
0.4082464949852966
 50
273.8184709457178201
 51
288.1823608141792192
  0
ARC
  5
A485
  8
0
 10
3528.1045463361160728
 20
305.1522856137613076
 30
0.0
 40
10.4226537109386399
 50
91.0945728177963332
 51
91.840790281649376
  0
ARC
  5
A486
  8
0
 10
3527.7678597728390741
 20
315.4687997328838946
 30
0.0
 40
0.1007785912360357
 50
88.9272900895355747
 51
181.4555101930747014
  0
ARC
  5
A487
  8
0
 10
3534.1792836212730435
 20
315.7936863928205184
 30
0.0
 40
6.5203970989034472
 50
182.878535981487488
 51
192.9682137318800983
  0
ARC
  5
A488
  8
0
 10
3527.9322283052310922
 20
314.3625251287721767
 30
0.0
 40
0.1117423151423984
 50
196.6859437622727
 51
267.1304527459308815
  0
LINE
  5
A489
  8
0
 10
3527.926634248830851
 20
314.2509229266149191
 30
0.0
 11
3528.6076288749350169
 21
314.2509229266149191
 31
0.0
  0
ARC
  5
A48A
  8
0
 10
3528.4525058017788979
 20
314.1498836516964275
 30
0.0
 40
0.1010430294462667
 50
10.5593150845551094
 51
89.5060722157097928
  0
ARC
  5
A48B
  8
0
 10
3549.911373707724124
 20
317.8233688334793214
 30
0.0
 40
21.6699924550448983
 50
189.7102068845514111
 51
204.2701919656751954
  0
ARC
  5
A48C
  8
0
 10
3530.8319275037811167
 20
309.2701182855129218
 30
0.0
 40
0.7624476265856241
 50
207.6633930105172112
 51
249.842311854498206
  0
ARC
  5
A48D
  8
0
 10
3534.0009122579717769
 20
315.5605592152194845
 30
0.0
 40
7.8015006748659834
 50
243.9037428914965915
 51
246.0552327431900039
  0
ARC
  5
A48E
  8
0
 10
3531.2921873887348738
 20
309.6896669899008998
 30
0.0
 40
1.3397452200020039
 50
250.0300526361191089
 51
281.8953548568874794
  0
ARC
  5
A48F
  8
0
 10
3532.2626984581420402
 20
304.7314804285409764
 30
0.0
 40
3.7127189337996001
 50
89.6449275059133868
 51
100.7789819823049982
  0
ARC
  5
A490
  8
0
 10
3522.6134464783581279
 20
129.5946447838437905
 30
0.0
 40
179.1108324177957911
 50
86.32307434424429
 51
86.9044340697933961
  0
ARC
  5
A491
  8
0
 10
3534.112730465947152
 20
310.4614735274548138
 30
0.0
 40
2.1247300597929031
 50
269.6539892194389267
 51
317.280681611906914
  0
ARC
  5
A492
  8
0
 10
3538.8950643225762178
 20
320.6780347361901136
 30
0.0
 40
12.0948647405722696
 50
254.3442034936944083
 51
269.1495552340766721
  0
ARC
  5
A493
  8
0
 10
3538.8957003631221596
 20
321.205384681390683
 30
0.0
 40
12.6036183067918195
 50
223.4096374511991883
 51
254.9883684824802117
  0
ARC
  5
A494
  8
0
 10
3534.4178058960928865
 20
316.7954305701379099
 30
0.0
 40
6.3213117022878089
 50
204.6289154565239983
 51
222.2638953714572096
  0
ARC
  5
A495
  8
0
 10
3528.3088463151630094
 20
313.970585230101392
 30
0.0
 40
0.4097075079980213
 50
27.7087083698765611
 51
43.1757576648238697
  0
LINE
  5
A496
  8
0
 10
3539.9550062858311321
 20
307.3606828542148719
 30
0.0
 11
3537.4760857376309104
 21
307.3606828542148719
 31
0.0
  0
ARC
  5
A497
  8
0
 10
3537.4794681401622256
 20
307.4645040099201765
 30
0.0
 40
0.1038762389523403
 50
188.8237561996687077
 51
268.1340135690358011
  0
LINE
  5
A498
  8
0
 10
3537.376821290530188
 20
307.4485698554282749
 30
0.0
 11
3537.2242064838778788
 21
308.6991371585497177
 31
0.0
  0
LINE
  5
A499
  8
0
 10
3538.7155460117319308
 20
315.5656475437148742
 30
0.0
 11
3542.3011037099049645
 21
315.604071675240391
 31
0.0
  0
ARC
  5
A49A
  8
0
 10
3541.2980378059301074
 20
-198.4820306379670001
 30
0.0
 40
514.0870808849346076
 50
89.2908338669498249
 51
89.8882067231995165
  0
ARC
  5
A49B
  8
0
 10
3544.9093814090060732
 20
486.1147171552016744
 30
0.0
 40
170.571238467307694
 50
270.9242820248139765
 51
271.4801952202087136
  0
ARC
  5
A49C
  8
0
 10
3549.3224690315760199
 20
314.0796192460315979
 30
0.0
 40
1.5207928300957201
 50
87.8453807760907637
 51
90.2634470976580587
  0
ARC
  5
A49D
  8
0
 10
3549.377711656612064
 20
315.4291931134844731
 30
0.0
 40
0.1701547609970857
 50
73.7085440617470624
 51
89.3488848405174139
  0
ARC
  5
A49E
  8
0
 10
3549.5528343127939479
 20
315.9803776706593794
 30
0.0
 40
0.4082464949852966
 50
251.8176391858208092
 51
266.1815290542821799
  0
ARC
  5
A49F
  8
0
 10
3549.3265456873459698
 20
305.1522856137613076
 30
0.0
 40
10.4226537109386399
 50
88.1592097183505956
 51
88.9054271822036668
  0
ARC
  5
A4A0
  8
0
 10
3549.6632322506238779
 20
315.4687997328838946
 30
0.0
 40
0.1007785912360357
 50
358.5444898069252986
 51
91.0727099104644537
  0
ARC
  5
A4A1
  8
0
 10
3543.251808402188999
 20
315.7936863928205184
 30
0.0
 40
6.5203970989034472
 50
347.0317862681199017
 51
357.1214640185125972
  0
ARC
  5
A4A2
  8
0
 10
3549.4947426374360475
 20
314.3677824869952246
 30
0.0
 40
0.1172626997088793
 50
274.7523648039867794
 51
341.4312386878045231
  0
LINE
  5
A4A3
  8
0
 10
3549.5044577746321011
 20
314.2509229266149191
 30
0.0
 11
3548.8234631485279351
 21
314.2509229266149191
 31
0.0
  0
ARC
  5
A4A4
  8
0
 10
3548.9785862216840542
 20
314.1498836516964275
 30
0.0
 40
0.1010430294462667
 50
90.4939277842902072
 51
169.4406849154449048
  0
ARC
  5
A4A5
  8
0
 10
3527.5197183157379186
 20
317.8233688334793214
 30
0.0
 40
21.6699924550448983
 50
335.7298080343248898
 51
350.2897931154486173
  0
ARC
  5
A4A6
  8
0
 10
3546.5991645196809259
 20
309.2701182855129218
 30
0.0
 40
0.7624476265856241
 50
290.1576881455018224
 51
332.3366069894829025
  0
ARC
  5
A4A7
  8
0
 10
3543.430179765489811
 20
315.5605592152194845
 30
0.0
 40
7.8015006748659834
 50
293.9447672568099961
 51
296.0962571085033801
  0
ARC
  5
A4A8
  8
0
 10
3546.1389046347271687
 20
309.6896669899008998
 30
0.0
 40
1.3397452200020039
 50
258.1046451431125206
 51
289.9699473638809195
  0
ARC
  5
A4A9
  8
0
 10
3545.1683935653209119
 20
304.7314804285409764
 30
0.0
 40
3.7127189337996001
 50
79.2210180176949166
 51
90.3550724940866559
  0
ARC
  5
A4AA
  8
0
 10
3556.149106100849167
 20
106.0793347725396956
 30
0.0
 40
202.6637398182795096
 50
93.1124311704717371
 51
93.628620279687425
  0
ARC
  5
A4AB
  8
0
 10
3543.318240538118971
 20
310.4613029029159748
 30
0.0
 40
2.1245253960358248
 50
222.7181518544462051
 51
270.1205826045497815
  0
ARC
  5
A4AC
  8
0
 10
3538.5360276696887922
 20
320.6780348835354175
 30
0.0
 40
12.0948648908698004
 50
270.8504457028898855
 51
285.6557964602503148
  0
ARC
  5
A4AD
  8
0
 10
3538.5353916603398829
 20
321.205384681390683
 30
0.0
 40
12.6036183067918195
 50
285.0116315175196746
 51
316.590362548800897
  0
ARC
  5
A4AE
  8
0
 10
3543.013286127369156
 20
316.7954305701379099
 30
0.0
 40
6.3213117022878089
 50
317.7361046285428188
 51
335.371084543475888
  0
ARC
  5
A4AF
  8
0
 10
3549.1222457082990331
 20
313.970585230101392
 30
0.0
 40
0.4097075079980213
 50
136.824242335176109
 51
152.2912916301233963
  0
ARC
  5
A4B0
  8
0
 10
3539.9528214392498739
 20
307.4631514238986938
 30
0.0
 40
0.1024918598115212
 50
271.2214820877890133
 51
351.8207481434960187
  0
LINE
  5
A4B1
  8
0
 10
3540.0542707329318546
 20
307.4485698554282749
 30
0.0
 11
3540.2068855395768878
 21
308.6991371584928743
 31
0.0
  0
ENDSEC
  0
EOF
