  0
SECTION
  2
HEADER
  9
$ACADVER
  1
AC1009
  9
$INSBASE
 10
3547.0245225076050701
 20
143.9215313544951869
 30
0.0
  9
$EXTMIN
 10
3544.7607430575271792
 20
141.2681158228876939
 30
0.0
  9
$EXTMAX
 10
3549.2883019576829611
 20
143.9265588512697036
 30
0.0
  9
$LIMMIN
 10
0.0
 20
0.0
  9
$LIMMAX
 10
11.6929133858000007
 20
8.2677165353999982
  9
$ORTHOMODE
 70
     0
  9
$REGENMODE
 70
     1
  9
$FILLMODE
 70
     1
  9
$QTEXTMODE
 70
     0
  9
$MIRRTEXT
 70
     0
  9
$DRAGMODE
 70
     2
  9
$LTSCALE
 40
0.6431102362
  9
$OSMODE
 70
  2039
  9
$ATTMODE
 70
     1
  9
$TEXTSIZE
 40
0.2
  9
$TRACEWID
 40
0.05
  9
$TEXTSTYLE
  7
STANDARD
  9
$CLAYER
  8
0
  9
$CELTYPE
  6
BYLAYER
  9
$CECOLOR
 62
   256
  9
$DIMSCALE
 40
1.0
  9
$DIMASZ
 40
0.1875
  9
$DIMEXO
 40
0.0625
  9
$DIMDLI
 40
0.4443307087
  9
$DIMRND
 40
0.0
  9
$DIMDLE
 40
0.0
  9
$DIMEXE
 40
0.125
  9
$DIMTP
 40
0.01
  9
$DIMTM
 40
0.01
  9
$DIMTXT
 40
2.0
  9
$DIMCEN
 40
0.1052362205
  9
$DIMTSZ
 40
0.0
  9
$DIMTOL
 70
     1
  9
$DIMLIM
 70
     0
  9
$DIMTIH
 70
     1
  9
$DIMTOH
 70
     1
  9
$DIMSE1
 70
     0
  9
$DIMSE2
 70
     0
  9
$DIMTAD
 70
     0
  9
$DIMZIN
 70
     0
  9
$DIMBLK
  1

  9
$DIMASO
 70
     1
  9
$DIMSHO
 70
     1
  9
$DIMPOST
  1
\X
  9
$DIMAPOST
  1

  9
$DIMALT
 70
     1
  9
$DIMALTD
 70
     2
  9
$DIMALTF
 40
25.3999999999999986
  9
$DIMLFAC
 40
1.0
  9
$DIMTOFL
 70
     0
  9
$DIMTVP
 40
0.0
  9
$DIMTIX
 70
     0
  9
$DIMSOXD
 70
     0
  9
$DIMSAH
 70
     0
  9
$DIMBLK1
  1

  9
$DIMBLK2
  1

  9
$DIMSTYLE
  2
STANDARD
  9
$DIMCLRD
 70
     0
  9
$DIMCLRE
 70
     0
  9
$DIMCLRT
 70
     0
  9
$DIMTFAC
 40
1.0
  9
$DIMGAP
 40
0.09
  9
$LUNITS
 70
     2
  9
$LUPREC
 70
     4
  9
$SKETCHINC
 40
0.1
  9
$FILLETRAD
 40
0.0
  9
$AUNITS
 70
     0
  9
$AUPREC
 70
     0
  9
$MENU
  1
.
  9
$ELEVATION
 40
0.0
  9
$PELEVATION
 40
0.0
  9
$THICKNESS
 40
0.0
  9
$LIMCHECK
 70
     0
  9
$BLIPMODE
 70
     0
  9
$CHAMFERA
 40
0.0
  9
$CHAMFERB
 40
0.0
  9
$SKPOLY
 70
     0
  9
$TDCREATE
 40
2458060.468368056230247
  9
$TDUPDATE
 40
2459301.6718055559322238
  9
$TDINDWG
 40
0.5620440972
  9
$TDUSRTIMER
 40
0.5620440972
  9
$USRTIMER
 70
     1
  9
$ANGBASE
 50
0.0
  9
$ANGDIR
 70
     0
  9
$PDMODE
 70
     0
  9
$PDSIZE
 40
0.3125
  9
$PLINEWID
 40
0.0
  9
$COORDS
 70
     1
  9
$SPLFRAME
 70
     0
  9
$SPLINETYPE
 70
     6
  9
$SPLINESEGS
 70
     8
  9
$ATTDIA
 70
     1
  9
$ATTREQ
 70
     1
  9
$HANDLING
 70
     1
  9
$HANDSEED
  5
10680
  9
$SURFTAB1
 70
     6
  9
$SURFTAB2
 70
     6
  9
$SURFTYPE
 70
     6
  9
$SURFU
 70
     6
  9
$SURFV
 70
     6
  9
$UCSNAME
  2

  9
$UCSORG
 10
0.0
 20
0.0
 30
0.0
  9
$UCSXDIR
 10
1.0
 20
0.0
 30
0.0
  9
$UCSYDIR
 10
0.0
 20
1.0
 30
0.0
  9
$PUCSNAME
  2

  9
$PUCSORG
 10
0.0
 20
0.0
 30
0.0
  9
$PUCSXDIR
 10
1.0
 20
0.0
 30
0.0
  9
$PUCSYDIR
 10
0.0
 20
1.0
 30
0.0
  9
$USERI1
 70
     0
  9
$USERI2
 70
     0
  9
$USERI3
 70
     0
  9
$USERI4
 70
     0
  9
$USERI5
 70
     0
  9
$USERR1
 40
0.0
  9
$USERR2
 40
0.0
  9
$USERR3
 40
0.0
  9
$USERR4
 40
0.0
  9
$USERR5
 40
0.0
  9
$WORLDVIEW
 70
     1
  9
$SHADEDGE
 70
     3
  9
$SHADEDIF
 70
    70
  9
$TILEMODE
 70
     1
  9
$MAXACTVP
 70
    64
  9
$PLIMCHECK
 70
     0
  9
$PEXTMIN
 10
1.0000000000000000E+20
 20
1.0000000000000000E+20
 30
1.0000000000000000E+20
  9
$PEXTMAX
 10
-1.0000000000000000E+20
 20
-1.0000000000000000E+20
 30
-1.0000000000000000E+20
  9
$PLIMMIN
 10
0.0
 20
0.0
  9
$PLIMMAX
 10
12.0
 20
9.0
  9
$UNITMODE
 70
     0
  9
$VISRETAIN
 70
     1
  9
$PLINEGEN
 70
     0
  9
$PSLTSCALE
 70
     1
  0
ENDSEC
  0
SECTION
  2
TABLES
  0
TABLE
  2
VPORT
 70
     1
  0
VPORT
  2
*ACTIVE
 70
     0
 10
0.0
 20
0.0
 11
1.0
 21
1.0
 12
243.3314072732298996
 22
-52.6641742388090606
 13
0.0
 23
0.0
 14
1.0
 24
1.0
 15
0.0
 25
0.0
 16
0.0
 26
0.0
 36
96.5995694866707311
 17
3303.693115234375
 27
195.2615115758877096
 37
0.0
 40
2.6805659939441
 41
2.6486111111111108
 42
50.0
 43
0.0
 44
0.0
 50
0.0
 51
0.0
 71
     0
 72
   100
 73
     1
 74
     1
 75
     0
 76
     0
 77
     0
 78
     0
  0
ENDTAB
  0
TABLE
  2
LTYPE
 70
     2
  0
LTYPE
  2
CONTINUOUS
 70
     0
  3
Solid line
 72
    65
 73
     0
 40
0.0
  0
LTYPE
  2
PHANTOM2
 70
     0
  3
___ _ _ ___ _ _ ___ _ _ ___ _ _
 72
    65
 73
     6
 40
1.25
 49
0.625
 49
-0.125
 49
0.125
 49
-0.125
 49
0.125
 49
-0.125
  0
ENDTAB
  0
TABLE
  2
LAYER
 70
     2
  0
LAYER
  2
0
 70
     0
 62
   255
  6
CONTINUOUS
  0
LAYER
  2
DEFPOINTS
 70
     0
 62
     7
  6
CONTINUOUS
  0
ENDTAB
  0
TABLE
  2
STYLE
 70
     1
  0
STYLE
  2
STANDARD
 70
     0
 40
0.0
 41
0.8
 50
0.0
 71
     0
 42
0.2
  3
txt
  4

  0
ENDTAB
  0
TABLE
  2
VIEW
 70
     0
  0
ENDTAB
  0
TABLE
  2
UCS
 70
     0
  0
ENDTAB
  0
TABLE
  2
APPID
 70
     9
  0
APPID
  2
ACAD
 70
     0
  0
APPID
  2
ACAD_MLEADERVER
 70
     0
  0
APPID
  2
ACAD_EXEMPT_FROM_CAD_STANDARDS
 70
     0
  0
APPID
  2
ACAD_NAV_VCDISPLAY
 70
     0
  0
APPID
  2
ACAECLAYERSTANDARD
 70
     0
  0
APPID
  2
ACCMTRANSPARENCY
 70
     0
  0
APPID
  2
ACAD_DSTYLE_DIMJAG
 70
     0
  0
APPID
  2
ACAD_DSTYLE_DIMTALN
 70
     0
  0
APPID
  2
ACDBATTR
 70
     0
  0
ENDTAB
  0
TABLE
  2
DIMSTYLE
 70
     1
  0
DIMSTYLE
  2
STANDARD
 70
     0
  3

  4

  5

  6

  7

 40
1.0
 41
0.1875
 42
0.0625
 43
0.38
 44
0.125
 45
0.0
 46
0.0
 47
0.01
 48
0.01
140
0.15625
141
0.09
142
0.0
143
25.3999999999999986
144
1.0
145
0.0
146
1.0
147
0.09
 71
     1
 72
     0
 73
     1
 74
     1
 75
     0
 76
     0
 77
     0
 78
     4
170
     0
171
     2
172
     0
173
     0
174
     0
175
     0
176
     0
177
     0
178
     0
  0
ENDTAB
  0
ENDSEC
  0
SECTION
  2
BLOCKS
  0
BLOCK
  8
0
  2
$MODEL_SPACE
 70
     0
 10
0.0
 20
0.0
 30
0.0
  3
$MODEL_SPACE
  1

  0
ENDBLK
  5
21
  8
0
  0
BLOCK
 67
     1
  8
0
  2
$PAPER_SPACE
 70
     0
 10
0.0
 20
0.0
 30
0.0
  3
$PAPER_SPACE
  1

  0
ENDBLK
  5
1D
 67
     1
  8
0
  0
BLOCK
  8
0
  2
_FILLED
 70
     0
 10
0.0
 20
0.0
 30
0.0
  3
_FILLED
  1

  0
SOLID
  5
9E2C
  8
0
  6
BYBLOCK
 62
     0
 10
0.0
 20
0.0
 30
0.0
 11
-1.0
 21
0.1666666667
 31
0.0
 12
-1.0
 22
-0.1666666667
 32
0.0
 13
-1.0
 23
-0.1666666667
 33
0.0
  0
ENDBLK
  5
9E2D
  8
0
  6
BYBLOCK
 62
     0
  0
BLOCK
  8
0
  2
A$C6B0F1CD5
 70
     2
 10
0.0
 20
0.0
 30
0.0
  3
A$C6B0F1CD5
  1

  0
ATTDEF
  5
B779
  8
DEFPOINTS
 10
0.0005209962714616
 20
0.000347009907216
 30
0.0
 40
0.001
  1
BATH FAUCET
  3

  2
PRODUCT
 70
     0
1001
ACDBATTR
1070
     0
1070
     1
  0
ATTDEF
  5
B77A
  8
DEFPOINTS
 10
0.0005209962714616
 20
0.0020136765738812
 30
0.0
 40
0.001
  1
SINGULIER
  3

  2
TRADENAME
 70
     0
1001
ACDBATTR
1070
     0
1070
     1
  0
ATTDEF
  5
B77B
  8
DEFPOINTS
 10
0.0005209962714616
 20
0.0036803432405463
 30
0.0
 40
0.001
  1
K-10873W
  3

  2
MODELNUMBER
 70
     0
1001
ACDBATTR
1070
     0
1070
     1
  0
ENDBLK
  5
B77F
  8
0
  0
ENDSEC
  0
SECTION
  2
ENTITIES
  0
ATTDEF
  5
F62A
  8
DEFPOINTS
 10
3547.024787060287963
 20
143.9255588512696136
 30
0.0
 40
0.001
  1
K-10879M-4
  3

  2
MODELNUMBER
 70
     0
1001
ACDBATTR
1070
     0
1070
     1
  0
ATTDEF
  5
F62B
  8
DEFPOINTS
 10
3547.024787060287963
 20
143.9238921846028916
 30
0.0
 40
0.001
  1
SINGULIER
  3

  2
TRADENAME
 70
     0
1001
ACDBATTR
1070
     0
1070
     1
  0
ATTDEF
  5
F62C
  8
DEFPOINTS
 10
3547.024787060287963
 20
143.922225517936198
 30
0.0
 40
0.001
  1
VALVE TRIM
  3

  2
PRODUCT
 70
     0
1001
ACDBATTR
1070
     0
1070
     1
  0
LINE
  5
1008A
  8
0
 10
3544.7607430575271792
 20
143.9215302883104073
 30
0.0
 11
3547.0245225076050701
 21
143.9215313544951869
 31
0.0
  0
LINE
  5
1008B
  8
0
 10
3547.0242990764481874
 20
142.0120825355951979
 30
0.0
 11
3547.0245225076050701
 21
142.0120825355951979
 31
0.0
  0
ARC
  5
1008C
  8
0
 10
3547.0247027250197789
 20
141.6240852846844973
 30
0.0
 40
0.1970852165822894
 50
90.047914766870079
 51
168.1964171382396955
  0
ARC
  5
1008D
  8
0
 10
3547.024221020044024
 20
141.6241868233354921
 30
0.0
 40
0.1965929269846577
 50
168.1966664171202126
 51
215.9485576430539879
  0
ARC
  5
1008E
  8
0
 10
3547.0245867636940602
 20
141.6244520502604018
 30
0.0
 40
0.1970447164701061
 50
215.9485576430539879
 51
269.985794104891113
  0
ARC
  5
1008F
  8
0
 10
3547.0245867003927742
 20
141.6241967411932876
 30
0.0
 40
0.196789407395226
 50
269.985794104891113
 51
332.0146065439811878
  0
ARC
  5
10090
  8
0
 10
3547.0243986422260605
 20
141.6242966720064089
 30
0.0
 40
0.1970023675825878
 50
332.0146065439811878
 51
39.8389942303692806
  0
ARC
  5
10091
  8
0
 10
3547.0246733330259303
 20
141.6245258526546138
 30
0.0
 40
0.1966446263284551
 50
39.8389942303692806
 51
90.039458258558426
  0
LINE
  5
10092
  8
0
 10
3544.7607430575271792
 20
143.9215302883104073
 30
0.0
 11
3544.8124823195448698
 21
143.500273680349693
 31
0.0
  0
ARC
  5
10093
  8
0
 10
3544.8515589397420626
 20
143.5050716860068007
 30
0.0
 40
0.0393700787951839
 50
187.0000000067099108
 51
268.0861039191671011
  0
ARC
  5
10094
  8
0
 10
3547.0245340637097797
 20
208.5325834079181959
 30
0.0
 40
65.1031780032680842
 50
268.086102487630626
 51
269.1004759539359839
  0
ARC
  5
10095
  8
0
 10
3547.0245379085499735
 20
208.5327518272765985
 30
0.0
 40
65.2017716538813943
 50
268.9954949471987788
 51
269.9999999391351935
  0
ARC
  5
10096
  8
0
 10
3545.8821746814501239
 20
143.3803812660819972
 30
0.0
 40
0.0393869255287148
 50
188.5115763503424091
 51
268.9954949471987788
  0
ARC
  5
10097
  8
0
 10
3545.7654299403761797
 20
143.3629095153268054
 30
0.0
 40
0.078657966959848
 50
8.5115885850897275
 51
88.9434711792584665
  0
LINE
  5
10098
  8
0
 10
3546.0599556543302242
 20
143.3394400059794123
 30
0.0
 11
3546.0599556543302242
 21
142.4136625992730956
 31
0.0
  0
LINE
  5
10099
  8
0
 10
3546.0750411011431424
 20
142.3605926665848926
 30
0.0
 11
3546.1111538877480598
 21
141.3443767530951902
 31
0.0
  0
ARC
  5
1009A
  8
0
 10
3546.1898769905769768
 20
141.3468786727677013
 30
0.0
 40
0.0787628498799874
 50
181.8203195591187011
 51
270.0163516721038945
  0
LINE
  5
1009B
  8
0
 10
3546.1898994687480808
 20
141.2681158260951975
 30
0.0
 11
3547.0245379084981323
 21
141.2681160684429074
 31
0.0
  0
ARC
  5
1009C
  8
0
 10
3546.8153890300432067
 20
142.5360318643309085
 30
0.0
 40
0.7608508184470518
 50
193.3313926655735031
 51
198.2834232220619981
  0
ARC
  5
1009D
  8
0
 10
3546.4526471942190256
 20
142.4700067681532971
 30
0.0
 40
0.3989949170562402
 50
205.642569796942098
 51
237.8485397419856042
  0
ARC
  5
1009E
  8
0
 10
3546.8702019286902214
 20
143.1082778495014907
 30
0.0
 40
1.1616717567145001
 50
237.1649967190163864
 51
253.6995711705293957
  0
ARC
  5
1009F
  8
0
 10
3546.9613623064610692
 20
143.4200133682788021
 30
0.0
 40
1.486462840555602
 50
253.6995711705293957
 51
263.2122379153291263
  0
ARC
  5
100A0
  8
0
 10
3547.0233757119272013
 20
143.8098498366524893
 30
0.0
 40
1.8809602297910319
 50
262.7399897337978132
 51
270.0354015792830182
  0
ARC
  5
100A1
  8
0
 10
3546.3131413293740479
 20
142.3679252082980895
 30
0.0
 40
0.1870307008154973
 50
182.2497553939292914
 51
223.7613121415026001
  0
ARC
  5
100A2
  8
0
 10
3546.4674583617529606
 20
142.4988119071101096
 30
0.0
 40
0.3892026120939158
 50
221.9643849818390891
 51
234.9248205963075122
  0
ARC
  5
100A3
  8
0
 10
3546.7616687655031456
 20
142.9690540553696962
 30
0.0
 40
0.9435759218647402
 50
236.7129835459130902
 51
247.3635174247928887
  0
ARC
  5
100A4
  8
0
 10
3546.9291990483420705
 20
143.4055613339928925
 30
0.0
 40
1.4110000175458819
 50
247.9068254652343057
 51
260.9612845255441016
  0
ARC
  5
100A5
  8
0
 10
3547.0210832579177804
 20
143.9329302624965976
 30
0.0
 40
1.9462714752228709
 50
260.7289354172677918
 51
270.1017006143662229
  0
LINE
  5
100A6
  8
0
 10
3547.0247767405480772
 20
142.0120825355951979
 30
0.0
 11
3546.707528373848163
 21
142.0120825355951979
 31
0.0
  0
ARC
  5
100A7
  8
0
 10
3546.0014012236138115
 20
143.35881630053359
 30
0.0
 40
0.078537153424373
 50
8.6822308449422678
 51
89.2341654326967131
  0
ARC
  5
100A8
  8
0
 10
3546.1184323346501515
 20
143.377210469094905
 30
0.0
 40
0.0399328941774505
 50
189.4241034746065111
 51
268.5231068191903887
  0
ARC
  5
100CC
  8
0
 10
3546.0707055852731173
 20
142.4146850811841887
 30
0.0
 40
0.0107984482466996
 50
185.4333542844561009
 51
272.4454235363606927
  0
LINE
  5
100CD
  8
0
 10
3546.0711663306051378
 20
142.4038964668951905
 30
0.0
 11
3547.0245225076050701
 21
142.4038903926553985
 31
0.0
  0
ARC
  5
100CE
  8
0
 10
3547.0195945186119388
 20
142.3758253352779093
 30
0.0
 40
0.8026916484708502
 50
181.1111225708789902
 51
193.9265447682622892
  0
ARC
  5
100CF
  8
0
 10
3545.8935000086030414
 20
142.3539845310380088
 30
0.0
 40
0.3236146447737312
 50
1.1111225708790351
 51
2.2262653342381902
  0
ARC
  5
100D0
  8
0
 10
3546.1289443806699637
 20
142.3631374842576918
 30
0.0
 40
0.0879924283115443
 50
2.2262653342381902
 51
27.593809467009681
  0
LINE
  5
100D1
  8
0
 10
3546.0750411011431424
 20
142.3605926665848926
 30
0.0
 11
3546.2170538030050011
 21
142.3602599146952059
 31
0.0
  0
LINE
  5
100FA
  8
0
 10
3549.2883019576829611
 20
143.9215302883104073
 30
0.0
 11
3547.0245225076050701
 21
143.9215313544951869
 31
0.0
  0
LINE
  5
100FB
  8
0
 10
3549.2883019576829611
 20
143.9215302883104073
 30
0.0
 11
3549.2365626956648157
 21
143.500273680349693
 31
0.0
  0
ARC
  5
100FC
  8
0
 10
3549.1974860754671681
 20
143.5050716860068007
 30
0.0
 40
0.0393700787951839
 50
271.9138960808328989
 51
352.9999999932900892
  0
ARC
  5
100FD
  8
0
 10
3547.0245109514999058
 20
208.5325834079181959
 30
0.0
 40
65.1031780032680842
 50
270.8995240460640161
 51
271.913897512369374
  0
ARC
  5
100FE
  8
0
 10
3547.0245071066588025
 20
208.5327518272765985
 30
0.0
 40
65.2017716538813943
 50
270.0000000608646928
 51
271.0045050528012212
  0
ARC
  5
100FF
  8
0
 10
3548.1668703337600164
 20
143.3803812660819972
 30
0.0
 40
0.0393869255287148
 50
271.0045050528012212
 51
351.4884236496575909
  0
ARC
  5
10100
  8
0
 10
3548.283615074833051
 20
143.3629095153268054
 30
0.0
 40
0.078657966959848
 50
91.0565288207415335
 51
171.488411414910189
  0
LINE
  5
10101
  8
0
 10
3547.9890893608799161
 20
143.3394400059794123
 30
0.0
 11
3547.9890893608799161
 21
142.4136625992730956
 31
0.0
  0
LINE
  5
10102
  8
0
 10
3547.9740039140669978
 20
142.3605926665848926
 30
0.0
 11
3547.93789112746299
 21
141.3443767530951902
 31
0.0
  0
ARC
  5
10103
  8
0
 10
3547.8591680246317992
 20
141.3468786727677013
 30
0.0
 40
0.0787628498799874
 50
269.9836483278961055
 51
358.1796804408813273
  0
LINE
  5
10104
  8
0
 10
3547.8591455464629689
 20
141.2681158260951975
 30
0.0
 11
3547.024507106712008
 21
141.2681160684429074
 31
0.0
  0
ARC
  5
10105
  8
0
 10
3547.2336559851669335
 20
142.5360318643309085
 30
0.0
 40
0.7608508184470518
 50
341.7165767779379735
 51
346.6686073344264969
  0
ARC
  5
10106
  8
0
 10
3547.5963978209911147
 20
142.4700067681532971
 30
0.0
 40
0.3989949170562402
 50
302.1514602580144242
 51
334.357430203057902
  0
ARC
  5
10107
  8
0
 10
3547.1788430865199189
 20
143.1082778495014907
 30
0.0
 40
1.1616717567145001
 50
286.3004288294706043
 51
302.8350032809835852
  0
ARC
  5
10108
  8
0
 10
3547.087682708749071
 20
143.4200133682788021
 30
0.0
 40
1.486462840555602
 50
276.7877620846708737
 51
286.3004288294706043
  0
ARC
  5
10109
  8
0
 10
3547.0256693032829389
 20
143.8098498366524893
 30
0.0
 40
1.8809602297910319
 50
269.9645984207169818
 51
277.2600102662023005
  0
ARC
  5
1010A
  8
0
 10
3547.7359036858360923
 20
142.3679252082980895
 30
0.0
 40
0.1870307008154973
 50
316.2386878584974284
 51
357.7502446060706802
  0
ARC
  5
1010B
  8
0
 10
3547.5815866534558154
 20
142.4988119071101096
 30
0.0
 40
0.3892026120939158
 50
305.0751794036925162
 51
318.0356150181609109
  0
ARC
  5
1010C
  8
0
 10
3547.2873762497069947
 20
142.9690540553696962
 30
0.0
 40
0.9435759218647402
 50
292.6364825752071965
 51
303.2870164540868245
  0
ARC
  5
1010D
  8
0
 10
3547.1198459668680698
 20
143.4055613339928925
 30
0.0
 40
1.4110000175458819
 50
279.0387154744560121
 51
292.0931745347656943
  0
ARC
  5
1010E
  8
0
 10
3547.0279617572919051
 20
143.9329302624965976
 30
0.0
 40
1.9462714752228709
 50
269.8982993856337771
 51
279.2710645827322082
  0
LINE
  5
1010F
  8
0
 10
3547.024268274662063
 20
142.0120825355951979
 30
0.0
 11
3547.3415166413619772
 21
142.0120825355951979
 31
0.0
  0
ARC
  5
10110
  8
0
 10
3548.0476437915958741
 20
143.35881630053359
 30
0.0
 40
0.078537153424373
 50
90.7658345673032869
 51
171.3177691550577038
  0
ARC
  5
10111
  8
0
 10
3547.9306126805599888
 20
143.377210469094905
 30
0.0
 40
0.0399328941774505
 50
271.4768931808094976
 51
350.5758965253934889
  0
ARC
  5
10113
  8
0
 10
3547.9783394299370229
 20
142.4146850811841887
 30
0.0
 40
0.0107984482466996
 50
267.5545764636391937
 51
354.5666457155439275
  0
LINE
  5
10114
  8
0
 10
3547.9778786846050025
 20
142.4038964668951905
 30
0.0
 11
3547.0245225076050701
 21
142.4038903926553985
 31
0.0
  0
ARC
  5
10115
  8
0
 10
3547.0294504965982014
 20
142.3758253352779093
 30
0.0
 40
0.8026916484708502
 50
346.0734552317376824
 51
358.8888774291210098
  0
ARC
  5
10116
  8
0
 10
3548.1555450066070989
 20
142.3539845310380088
 30
0.0
 40
0.3236146447737312
 50
177.7737346657617934
 51
178.8888774291210098
  0
ARC
  5
10117
  8
0
 10
3547.920100634541086
 20
142.3631374842576918
 30
0.0
 40
0.0879924283115443
 50
152.4061905329903084
 51
177.7737346657617934
  0
LINE
  5
10118
  8
0
 10
3547.9740039140669978
 20
142.3605926665848926
 30
0.0
 11
3547.8319912122051392
 21
142.3602599146952059
 31
0.0
  0
ENDSEC
  0
EOF
