  0
SECTION
  2
HEADER
  9
$ACADVER
  1
AC1009
  9
$INSBASE
 10
3547.0245225076050701
 20
136.0578285994955934
 30
0.0
  9
$EXTMIN
 10
3544.7607430559301065
 20
132.7113719065955877
 30
0.0
  9
$EXTMAX
 10
3549.2883019592800338
 20
139.4042852923955991
 30
0.0
  9
$LIMMIN
 10
0.0
 20
0.0
  9
$LIMMAX
 10
11.6929133858000007
 20
8.2677165353999982
  9
$ORTHOMODE
 70
     0
  9
$REGENMODE
 70
     1
  9
$FILLMODE
 70
     1
  9
$QTEXTMODE
 70
     0
  9
$MIRRTEXT
 70
     0
  9
$DRAGMODE
 70
     2
  9
$LTSCALE
 40
0.6431102362
  9
$OSMODE
 70
  2039
  9
$ATTMODE
 70
     1
  9
$TEXTSIZE
 40
0.2
  9
$TRACEWID
 40
0.05
  9
$TEXTSTYLE
  7
STANDARD
  9
$CLAYER
  8
0
  9
$CELTYPE
  6
BYLAYER
  9
$CECOLOR
 62
   256
  9
$DIMSCALE
 40
1.0
  9
$DIMASZ
 40
0.1875
  9
$DIMEXO
 40
0.0625
  9
$DIMDLI
 40
0.4443307087
  9
$DIMRND
 40
0.0
  9
$DIMDLE
 40
0.0
  9
$DIMEXE
 40
0.125
  9
$DIMTP
 40
0.01
  9
$DIMTM
 40
0.01
  9
$DIMTXT
 40
2.0
  9
$DIMCEN
 40
0.1052362205
  9
$DIMTSZ
 40
0.0
  9
$DIMTOL
 70
     1
  9
$DIMLIM
 70
     0
  9
$DIMTIH
 70
     1
  9
$DIMTOH
 70
     1
  9
$DIMSE1
 70
     0
  9
$DIMSE2
 70
     0
  9
$DIMTAD
 70
     0
  9
$DIMZIN
 70
     0
  9
$DIMBLK
  1

  9
$DIMASO
 70
     1
  9
$DIMSHO
 70
     1
  9
$DIMPOST
  1
\X
  9
$DIMAPOST
  1

  9
$DIMALT
 70
     1
  9
$DIMALTD
 70
     2
  9
$DIMALTF
 40
25.3999999999999986
  9
$DIMLFAC
 40
1.0
  9
$DIMTOFL
 70
     0
  9
$DIMTVP
 40
0.0
  9
$DIMTIX
 70
     0
  9
$DIMSOXD
 70
     0
  9
$DIMSAH
 70
     0
  9
$DIMBLK1
  1

  9
$DIMBLK2
  1

  9
$DIMSTYLE
  2
STANDARD
  9
$DIMCLRD
 70
     0
  9
$DIMCLRE
 70
     0
  9
$DIMCLRT
 70
     0
  9
$DIMTFAC
 40
1.0
  9
$DIMGAP
 40
0.09
  9
$LUNITS
 70
     2
  9
$LUPREC
 70
     4
  9
$SKETCHINC
 40
0.1
  9
$FILLETRAD
 40
0.0
  9
$AUNITS
 70
     0
  9
$AUPREC
 70
     0
  9
$MENU
  1
.
  9
$ELEVATION
 40
0.0
  9
$PELEVATION
 40
0.0
  9
$THICKNESS
 40
0.0
  9
$LIMCHECK
 70
     0
  9
$BLIPMODE
 70
     0
  9
$CHAMFERA
 40
0.0
  9
$CHAMFERB
 40
0.0
  9
$SKPOLY
 70
     0
  9
$TDCREATE
 40
2458060.468368056230247
  9
$TDUPDATE
 40
2459301.6715624998323619
  9
$TDINDWG
 40
0.5622987269
  9
$TDUSRTIMER
 40
0.5622987269
  9
$USRTIMER
 70
     1
  9
$ANGBASE
 50
0.0
  9
$ANGDIR
 70
     0
  9
$PDMODE
 70
     0
  9
$PDSIZE
 40
0.3125
  9
$PLINEWID
 40
0.0
  9
$COORDS
 70
     1
  9
$SPLFRAME
 70
     0
  9
$SPLINETYPE
 70
     6
  9
$SPLINESEGS
 70
     8
  9
$ATTDIA
 70
     1
  9
$ATTREQ
 70
     1
  9
$HANDLING
 70
     1
  9
$HANDSEED
  5
10680
  9
$SURFTAB1
 70
     6
  9
$SURFTAB2
 70
     6
  9
$SURFTYPE
 70
     6
  9
$SURFU
 70
     6
  9
$SURFV
 70
     6
  9
$UCSNAME
  2

  9
$UCSORG
 10
0.0
 20
0.0
 30
0.0
  9
$UCSXDIR
 10
1.0
 20
0.0
 30
0.0
  9
$UCSYDIR
 10
0.0
 20
1.0
 30
0.0
  9
$PUCSNAME
  2

  9
$PUCSORG
 10
0.0
 20
0.0
 30
0.0
  9
$PUCSXDIR
 10
1.0
 20
0.0
 30
0.0
  9
$PUCSYDIR
 10
0.0
 20
1.0
 30
0.0
  9
$USERI1
 70
     0
  9
$USERI2
 70
     0
  9
$USERI3
 70
     0
  9
$USERI4
 70
     0
  9
$USERI5
 70
     0
  9
$USERR1
 40
0.0
  9
$USERR2
 40
0.0
  9
$USERR3
 40
0.0
  9
$USERR4
 40
0.0
  9
$USERR5
 40
0.0
  9
$WORLDVIEW
 70
     1
  9
$SHADEDGE
 70
     3
  9
$SHADEDIF
 70
    70
  9
$TILEMODE
 70
     1
  9
$MAXACTVP
 70
    64
  9
$PLIMCHECK
 70
     0
  9
$PEXTMIN
 10
1.0000000000000000E+20
 20
1.0000000000000000E+20
 30
1.0000000000000000E+20
  9
$PEXTMAX
 10
-1.0000000000000000E+20
 20
-1.0000000000000000E+20
 30
-1.0000000000000000E+20
  9
$PLIMMIN
 10
0.0
 20
0.0
  9
$PLIMMAX
 10
12.0
 20
9.0
  9
$UNITMODE
 70
     0
  9
$VISRETAIN
 70
     1
  9
$PLINEGEN
 70
     0
  9
$PSLTSCALE
 70
     1
  0
ENDSEC
  0
SECTION
  2
TABLES
  0
TABLE
  2
VPORT
 70
     1
  0
VPORT
  2
*ACTIVE
 70
     0
 10
0.0
 20
0.0
 11
1.0
 21
1.0
 12
243.331407273229587
 22
-59.2036829763921801
 13
0.0
 23
0.0
 14
1.0
 24
1.0
 15
0.0
 25
0.0
 16
0.0
 26
0.0
 36
96.5995694866707311
 17
3303.693115234375
 27
195.2615115758877096
 37
0.0
 40
6.7486103071797601
 41
2.6486111111111108
 42
50.0
 43
0.0
 44
0.0
 50
0.0
 51
0.0
 71
     0
 72
   100
 73
     1
 74
     1
 75
     0
 76
     0
 77
     0
 78
     0
  0
ENDTAB
  0
TABLE
  2
LTYPE
 70
     2
  0
LTYPE
  2
CONTINUOUS
 70
     0
  3
Solid line
 72
    65
 73
     0
 40
0.0
  0
LTYPE
  2
PHANTOM2
 70
     0
  3
___ _ _ ___ _ _ ___ _ _ ___ _ _
 72
    65
 73
     6
 40
1.25
 49
0.625
 49
-0.125
 49
0.125
 49
-0.125
 49
0.125
 49
-0.125
  0
ENDTAB
  0
TABLE
  2
LAYER
 70
     2
  0
LAYER
  2
0
 70
     0
 62
   255
  6
CONTINUOUS
  0
LAYER
  2
DEFPOINTS
 70
     0
 62
     7
  6
CONTINUOUS
  0
ENDTAB
  0
TABLE
  2
STYLE
 70
     1
  0
STYLE
  2
STANDARD
 70
     0
 40
0.0
 41
0.8
 50
0.0
 71
     0
 42
0.2
  3
txt
  4

  0
ENDTAB
  0
TABLE
  2
VIEW
 70
     0
  0
ENDTAB
  0
TABLE
  2
UCS
 70
     0
  0
ENDTAB
  0
TABLE
  2
APPID
 70
     9
  0
APPID
  2
ACAD
 70
     0
  0
APPID
  2
ACAD_MLEADERVER
 70
     0
  0
APPID
  2
ACAD_EXEMPT_FROM_CAD_STANDARDS
 70
     0
  0
APPID
  2
ACAD_NAV_VCDISPLAY
 70
     0
  0
APPID
  2
ACAECLAYERSTANDARD
 70
     0
  0
APPID
  2
ACCMTRANSPARENCY
 70
     0
  0
APPID
  2
ACAD_DSTYLE_DIMJAG
 70
     0
  0
APPID
  2
ACAD_DSTYLE_DIMTALN
 70
     0
  0
APPID
  2
ACDBATTR
 70
     0
  0
ENDTAB
  0
TABLE
  2
DIMSTYLE
 70
     1
  0
DIMSTYLE
  2
STANDARD
 70
     0
  3

  4

  5

  6

  7

 40
1.0
 41
0.1875
 42
0.0625
 43
0.38
 44
0.125
 45
0.0
 46
0.0
 47
0.01
 48
0.01
140
0.15625
141
0.09
142
0.0
143
25.3999999999999986
144
1.0
145
0.0
146
1.0
147
0.09
 71
     1
 72
     0
 73
     1
 74
     1
 75
     0
 76
     0
 77
     0
 78
     4
170
     0
171
     2
172
     0
173
     0
174
     0
175
     0
176
     0
177
     0
178
     0
  0
ENDTAB
  0
ENDSEC
  0
SECTION
  2
BLOCKS
  0
BLOCK
  8
0
  2
$MODEL_SPACE
 70
     0
 10
0.0
 20
0.0
 30
0.0
  3
$MODEL_SPACE
  1

  0
ENDBLK
  5
21
  8
0
  0
BLOCK
 67
     1
  8
0
  2
$PAPER_SPACE
 70
     0
 10
0.0
 20
0.0
 30
0.0
  3
$PAPER_SPACE
  1

  0
ENDBLK
  5
1D
 67
     1
  8
0
  0
BLOCK
  8
0
  2
_FILLED
 70
     0
 10
0.0
 20
0.0
 30
0.0
  3
_FILLED
  1

  0
SOLID
  5
9E2C
  8
0
  6
BYBLOCK
 62
     0
 10
0.0
 20
0.0
 30
0.0
 11
-1.0
 21
0.1666666667
 31
0.0
 12
-1.0
 22
-0.1666666667
 32
0.0
 13
-1.0
 23
-0.1666666667
 33
0.0
  0
ENDBLK
  5
9E2D
  8
0
  6
BYBLOCK
 62
     0
  0
BLOCK
  8
0
  2
A$C6B0F1CD5
 70
     2
 10
0.0
 20
0.0
 30
0.0
  3
A$C6B0F1CD5
  1

  0
ATTDEF
  5
B779
  8
DEFPOINTS
 10
0.0005209962714616
 20
0.000347009907216
 30
0.0
 40
0.001
  1
BATH FAUCET
  3

  2
PRODUCT
 70
     0
1001
ACDBATTR
1070
     0
1070
     1
  0
ATTDEF
  5
B77A
  8
DEFPOINTS
 10
0.0005209962714616
 20
0.0020136765738812
 30
0.0
 40
0.001
  1
SINGULIER
  3

  2
TRADENAME
 70
     0
1001
ACDBATTR
1070
     0
1070
     1
  0
ATTDEF
  5
B77B
  8
DEFPOINTS
 10
0.0005209962714616
 20
0.0036803432405463
 30
0.0
 40
0.001
  1
K-10873W
  3

  2
MODELNUMBER
 70
     0
1001
ACDBATTR
1070
     0
1070
     1
  0
ENDBLK
  5
B77F
  8
0
  0
ENDSEC
  0
SECTION
  2
ENTITIES
  0
LINE
  5
1003C
  8
0
 10
3548.8946011718799127
 20
139.4042852923955138
 30
0.0
 11
3545.1544438433297728
 21
139.4042852923955138
 31
0.0
  0
ARC
  5
1003D
  8
0
 10
3545.1544438433297728
 20
139.0105845049955917
 30
0.0
 40
0.3937007874000002
 50
90.0
 51
180.0
  0
LINE
  5
1003E
  8
0
 10
3544.7607430571270015
 20
139.0106152056889925
 30
0.0
 11
3544.7607430579269021
 21
133.1050726939955098
 31
0.0
  0
ARC
  5
1003F
  8
0
 10
3545.1544438454598094
 20
133.1050726941286939
 30
0.0
 40
0.3937007875331151
 50
180.0000000193718961
 51
269.9999996900485257
  0
LINE
  5
10040
  8
0
 10
3545.1544438454598094
 20
132.7113719065955877
 30
0.0
 11
3546.5023782531297911
 21
132.7113719065955877
 31
0.0
  0
LINE
  5
10041
  8
0
 10
3546.5023782531297911
 20
132.7113719065955877
 30
0.0
 11
3546.5095673266300764
 21
132.7214612963954892
 31
0.0
  0
ARC
  5
10042
  8
0
 10
3546.5113782324838212
 20
132.7199851051638007
 30
0.0
 40
0.0023363476976485
 50
117.4740378744964033
 51
140.8142066686542933
  0
ARC
  5
10043
  8
0
 10
3546.5437785948838609
 20
132.580401478008099
 30
0.0
 40
0.1455587528689343
 50
88.0279374051877141
 51
103.2969566349107993
  0
LINE
  5
10044
  8
0
 10
3546.5487875903299937
 20
132.725874020095489
 30
0.0
 11
3546.7915961592298117
 21
132.725874020095489
 31
0.0
  0
LINE
  5
10045
  8
0
 10
3546.8380054964300143
 20
132.7113719065955877
 30
0.0
 11
3546.8308164229301838
 21
132.7214612963954892
 31
0.0
  0
ARC
  5
10046
  8
0
 10
3546.7926826081052241
 20
132.4826086299067924
 30
0.0
 40
0.2432678163000518
 50
83.0150431778961462
 51
90.2558872893939963
  0
ARC
  5
10047
  8
0
 10
3546.8181148813491745
 20
132.6901884235197997
 30
0.0
 40
0.0341358693413169
 50
71.1438624073696104
 51
83.0150431778961462
  0
ARC
  5
10048
  8
0
 10
3546.8277217297982133
 20
132.7183179830084896
 30
0.0
 40
0.0044110707016509
 50
45.4465664687684878
 51
71.1438624073701504
  0
LINE
  5
10049
  8
0
 10
3546.8380054964300143
 20
132.7113719065955877
 30
0.0
 11
3547.2110395187801259
 21
132.7113719065955877
 31
0.0
  0
LINE
  5
1004A
  8
0
 10
3546.0793111712800965
 20
139.2977168156949119
 30
0.0
 11
3547.9697310520800784
 21
139.297716807941498
 31
0.0
  0
LINE
  5
1004B
  8
0
 10
3547.969734005780083
 20
132.8179406214115943
 30
0.0
 11
3546.0793110094300573
 21
132.8179408882955954
 31
0.0
  0
ARC
  5
1004C
  8
0
 10
3546.0405096555718956
 20
132.8902672004660133
 30
0.0
 40
0.0820770399894344
 50
277.2140986000071052
 51
298.2125045596598056
  0
ARC
  5
1004D
  8
0
 10
3545.999998565513124
 20
133.2102546868578088
 30
0.0
 40
0.4046187269920446
 50
270.3860942395265852
 51
277.2151202447133187
  0
LINE
  5
1004E
  8
0
 10
3546.002725114984969
 20
132.8056451464850909
 30
0.0
 11
3545.1533163705539664
 21
132.8033285749907009
 31
0.0
  0
ARC
  5
1004F
  8
0
 10
3545.1521189057639276
 20
133.1052240459571863
 30
0.0
 40
0.3018978458220551
 50
180.0287251853335988
 51
270.227261835089223
  0
LINE
  5
10050
  8
0
 10
3544.8502210978831499
 20
133.105072689761613
 30
0.0
 11
3544.8502211110821918
 21
139.0105845047955881
 31
0.0
  0
ARC
  5
10051
  8
0
 10
3545.1521043936190836
 20
139.0104561538257997
 30
0.0
 40
0.3018756714751189
 50
89.7707455652478785
 51
179.9756390420347998
  0
LINE
  5
10052
  8
0
 10
3545.1533122688301773
 20
139.3123294087955912
 30
0.0
 11
3546.0027251191299911
 21
139.3100115050955878
 31
0.0
  0
ARC
  5
10053
  8
0
 10
3546.0020953562320756
 20
138.9226544193373059
 30
0.0
 40
0.3873575976903861
 50
84.0982282530840166
 51
89.9068489368791859
  0
ARC
  5
10054
  8
0
 10
3546.0297524164939205
 20
139.1901699198184872
 30
0.0
 40
0.1184162361695797
 50
65.2592465508302695
 51
84.0999906341594539
  0
LINE
  5
10055
  8
0
 10
3547.0245225076050701
 20
133.7414069486954986
 30
0.0
 11
3546.5998564797660038
 21
133.7414067256956116
 31
0.0
  0
ARC
  5
10056
  8
0
 10
3546.5998607211568014
 20
133.8202277962537039
 30
0.0
 40
0.0788210706722716
 50
220.8241894309605016
 51
269.9969168930081764
  0
ARC
  5
10057
  8
0
 10
3546.6016331565210749
 20
133.8217590277278077
 30
0.0
 40
0.081163333882698
 50
184.3321894737485138
 51
220.8241894309605016
  0
ARC
  5
10058
  8
0
 10
3547.9050185419341688
 20
133.8947914420108134
 30
0.0
 40
1.386578491558913
 50
179.8802086682028119
 51
183.2729462097931048
  0
LINE
  5
10059
  8
0
 10
3546.5184430809140395
 20
133.8976904332548941
 30
0.0
 11
3546.5174103274921436
 21
135.7589186109607908
 31
0.0
  0
ARC
  5
1005A
  8
0
 10
3535.8530486980112073
 20
135.7042161407194953
 30
0.0
 40
10.6644538381172698
 50
0.2932422939113213
 51
1.8436319697057839
  0
ARC
  5
1005B
  8
0
 10
3546.1251933088378792
 20
136.0438742552898077
 30
0.0
 40
0.3868040621834786
 50
0.5091529733458504
 51
27.8031922405305991
  0
ARC
  5
1005C
  8
0
 10
3546.0189717547759756
 20
136.1052213710136982
 30
0.0
 40
0.4639124447928431
 50
14.8725358728397392
 51
43.3158048094782586
  0
ARC
  5
1005D
  8
0
 10
3547.009567110188982
 20
137.091943393381996
 30
0.0
 40
0.9345260090461323
 50
89.0811456726437569
 51
225.6680345039276006
  0
ARC
  5
1005E
  8
0
 10
3547.0262549215599392
 20
137.0941994629189935
 30
0.0
 40
0.836375121875937
 50
90.1165562736167374
 51
225.0716376413836031
  0
ARC
  5
1005F
  8
0
 10
3545.9366821855701346
 20
136.0599402872491055
 30
0.0
 40
0.6666121952298196
 50
358.913135753664676
 51
41.5462731141965165
  0
LINE
  5
10060
  8
0
 10
3546.6031744486617754
 20
136.0472958391445957
 30
0.0
 11
3546.6031743894800456
 21
133.7414067274378056
 31
0.0
  0
LINE
  5
10061
  8
0
 10
3546.0793139631300619
 20
139.2977168420956104
 30
0.0
 11
3546.0793142535299012
 21
137.9306458336955927
 31
0.0
  0
ARC
  5
10062
  8
0
 10
3545.6864694256969415
 20
137.9306457502455032
 30
0.0
 40
0.3928448278330094
 50
328.2184893587098031
 51
0.0000121710539422
  0
ARC
  5
10063
  8
0
 10
3547.0253070569178817
 20
137.1011292639240082
 30
0.0
 40
1.182142093970568
 50
148.2184893587096894
 51
211.7807927542081927
  0
ARC
  5
10064
  8
0
 10
3545.686402776218074
 20
136.2715946984286006
 30
0.0
 40
0.3929110061595034
 50
359.9934761691545191
 51
31.7807927542082105
  0
LINE
  5
10065
  8
0
 10
3546.079313779830045
 20
136.271549960666789
 30
0.0
 11
3546.0793110094300573
 21
132.8179408882955954
 31
0.0
  0
ARC
  5
10066
  8
0
 10
3547.0245225834310077
 20
137.1011356860956028
 30
0.0
 40
0.9645669291000016
 50
89.9981639809822838
 51
230.1169580282933111
  0
ARC
  5
100AA
  8
0
 10
3547.023252038587998
 20
134.5411431889035896
 30
0.0
 40
0.5416074023858695
 50
158.8940272447404141
 51
201.1695570132073101
  0
ARC
  5
100D3
  8
0
 10
3548.8946011718799127
 20
139.0105845049955917
 30
0.0
 40
0.3937007874000002
 50
0.0
 51
90.0
  0
LINE
  5
100D4
  8
0
 10
3549.2883019580831387
 20
139.0106152056889925
 30
0.0
 11
3549.2883019572827834
 21
133.1050726939955098
 31
0.0
  0
ARC
  5
100D5
  8
0
 10
3548.8946011697498761
 20
133.1050726941286939
 30
0.0
 40
0.3937007875331151
 50
270.0000003099514743
 51
359.9999999806279902
  0
LINE
  5
100D6
  8
0
 10
3548.8946011697498761
 20
132.7113719065955877
 30
0.0
 11
3547.5466667620789849
 21
132.7113719065955877
 31
0.0
  0
LINE
  5
100D7
  8
0
 10
3547.5466667620789849
 20
132.7113719065955877
 30
0.0
 11
3547.5394776885800638
 21
132.7214612963954892
 31
0.0
  0
ARC
  5
100D8
  8
0
 10
3547.5376667827258643
 20
132.7199851051638007
 30
0.0
 40
0.0023363476976485
 50
39.1857933313456783
 51
62.5259621255035825
  0
ARC
  5
100D9
  8
0
 10
3547.5052664203249151
 20
132.580401478008099
 30
0.0
 40
0.1455587528689343
 50
76.7030433650891723
 51
91.9720625948123143
  0
LINE
  5
100DA
  8
0
 10
3547.5002574248801466
 20
132.725874020095489
 30
0.0
 11
3547.2574488559798738
 21
132.725874020095489
 31
0.0
  0
LINE
  5
100DB
  8
0
 10
3547.2110395187801259
 20
132.7113719065955877
 30
0.0
 11
3547.2182285922799565
 21
132.7214612963954892
 31
0.0
  0
ARC
  5
100DC
  8
0
 10
3547.2563624071049162
 20
132.4826086299067924
 30
0.0
 40
0.2432678163000518
 50
89.7441127106060037
 51
96.9849568221038538
  0
ARC
  5
100DD
  8
0
 10
3547.2309301338609657
 20
132.6901884235197997
 30
0.0
 40
0.0341358693413169
 50
96.9849568221038538
 51
108.8561375926304038
  0
ARC
  5
100DE
  8
0
 10
3547.2213232854119269
 20
132.7183179830084896
 30
0.0
 40
0.0044110707016509
 50
108.8561375926299064
 51
134.5534335312314909
  0
ARC
  5
100DF
  8
0
 10
3548.0085353596391542
 20
132.8902672004660133
 30
0.0
 40
0.0820770399894344
 50
241.7874954403401091
 51
262.7859013999927811
  0
ARC
  5
100E0
  8
0
 10
3548.0490464496961067
 20
133.2102546868578088
 30
0.0
 40
0.4046187269920446
 50
262.7848797552866813
 51
269.6139057604734148
  0
LINE
  5
100E1
  8
0
 10
3548.0463199002238071
 20
132.8056451464850909
 30
0.0
 11
3548.8957286446570834
 21
132.8033285749907009
 31
0.0
  0
ARC
  5
100E2
  8
0
 10
3548.8969261094462126
 20
133.1052240459571863
 30
0.0
 40
0.3018978458220551
 50
269.772738164910777
 51
359.9712748146662875
  0
LINE
  5
100E3
  8
0
 10
3549.1988239173269903
 20
133.105072689761613
 30
0.0
 11
3549.1988239041279485
 21
139.0105845047955881
 31
0.0
  0
ARC
  5
100E4
  8
0
 10
3548.8969406215910567
 20
139.0104561538257997
 30
0.0
 40
0.3018756714751189
 50
0.0243609579651629
 51
90.2292544347521073
  0
LINE
  5
100E5
  8
0
 10
3548.8957327463790534
 20
139.3123294087955912
 30
0.0
 11
3548.0463198960801492
 21
139.3100115050955878
 31
0.0
  0
ARC
  5
100E6
  8
0
 10
3548.0469496589771552
 20
138.9226544193373059
 30
0.0
 40
0.3873575976903861
 50
90.0931510631208567
 51
95.9017717469159976
  0
ARC
  5
100E7
  8
0
 10
3548.0192925987148556
 20
139.1901699198184872
 30
0.0
 40
0.1184162361695797
 50
95.9000093658405461
 51
114.7407534491697021
  0
LINE
  5
100E8
  8
0
 10
3547.0245225076050701
 20
133.7414069486954986
 30
0.0
 11
3547.4491885354441365
 21
133.7414067256956116
 31
0.0
  0
ARC
  5
100E9
  8
0
 10
3547.4491842940528841
 20
133.8202277962537039
 30
0.0
 40
0.0788210706722716
 50
270.0030831069918236
 51
319.1758105690395269
  0
ARC
  5
100EA
  8
0
 10
3547.4474118586890654
 20
133.8217590277278077
 30
0.0
 40
0.081163333882698
 50
319.1758105690395269
 51
355.6678105262514009
  0
ARC
  5
100EB
  8
0
 10
3546.1440264732759715
 20
133.8947914420108134
 30
0.0
 40
1.386578491558913
 50
356.7270537902069236
 51
0.1197913317972346
  0
LINE
  5
100EC
  8
0
 10
3547.5306019342961008
 20
133.8976904332548941
 30
0.0
 11
3547.5316346877179967
 21
135.7589186109607908
 31
0.0
  0
ARC
  5
100ED
  8
0
 10
3558.1959963171980235
 20
135.7042161407194953
 30
0.0
 40
10.6644538381172698
 50
178.1563680302942032
 51
179.7067577060886094
  0
ARC
  5
100EE
  8
0
 10
3547.9238517063718064
 20
136.0438742552898077
 30
0.0
 40
0.3868040621834786
 50
152.196807759469408
 51
179.4908470266541087
  0
ARC
  5
100EF
  8
0
 10
3548.0300732604341647
 20
136.1052213710136982
 30
0.0
 40
0.4639124447928431
 50
136.6841951905217059
 51
165.1274641271602093
  0
ARC
  5
100F0
  8
0
 10
3547.039477905019794
 20
137.091943393381996
 30
0.0
 40
0.9345260090461323
 50
314.3319654960724279
 51
90.9188543273562573
  0
ARC
  5
100F1
  8
0
 10
3547.022790093650201
 20
137.0941994629189935
 30
0.0
 40
0.836375121875937
 50
314.9283623586164254
 51
89.8834437263832768
  0
ARC
  5
100F2
  8
0
 10
3548.1123628296400057
 20
136.0599402872491055
 30
0.0
 40
0.6666121952298196
 50
138.4537268858034054
 51
181.0868642463352955
  0
LINE
  5
100F3
  8
0
 10
3547.4458705665479101
 20
136.0472958391445957
 30
0.0
 11
3547.4458706257300946
 21
133.7414067274378056
 31
0.0
  0
LINE
  5
100F4
  8
0
 10
3547.9697310520800784
 20
139.2977168420956104
 30
0.0
 11
3547.9697307616797843
 21
137.9306458336955927
 31
0.0
  0
ARC
  5
100F5
  8
0
 10
3548.3625755895131988
 20
137.9306457502455032
 30
0.0
 40
0.3928448278330094
 50
179.99998782894599
 51
211.7815106412901969
  0
ARC
  5
100F6
  8
0
 10
3547.0237379582918038
 20
137.1011292639240082
 30
0.0
 40
1.182142093970568
 50
328.2192072457917789
 51
31.7815106412902502
  0
ARC
  5
100F7
  8
0
 10
3548.3626422389929758
 20
136.2715946984286006
 30
0.0
 40
0.3929110061595034
 50
148.2192072457918073
 51
180.0065238308453957
  0
LINE
  5
100F8
  8
0
 10
3547.9697312353800953
 20
136.271549960666789
 30
0.0
 11
3547.969734005780083
 21
132.8179408882955954
 31
0.0
  0
ARC
  5
100F9
  8
0
 10
3547.0245224317800421
 20
137.1011356860956028
 30
0.0
 40
0.9645669291000016
 50
309.8830419717068025
 51
90.0018360190177162
  0
ARC
  5
10112
  8
0
 10
3547.0257929766221423
 20
134.5411431889035896
 30
0.0
 40
0.5416074023858695
 50
338.8304429867927183
 51
21.1059727552596108
  0
ATTDEF
  5
1011A
  8
DEFPOINTS
 10
3547.0259945038351361
 20
136.0539401848074874
 30
0.0
 40
0.001
  1
K-10879M-4
  3

  2
MODELNUMBER
 70
     0
1001
ACDBATTR
1070
     0
1070
     1
  0
ATTDEF
  5
1011B
  8
DEFPOINTS
 10
3547.0259945038351361
 20
136.0522735181407938
 30
0.0
 40
0.001
  1
SINGULIER
  3

  2
TRADENAME
 70
     0
1001
ACDBATTR
1070
     0
1070
     1
  0
ATTDEF
  5
1011C
  8
DEFPOINTS
 10
3547.0259945038351361
 20
136.0506068514741003
 30
0.0
 40
0.001
  1
VALVE TRIM
  3

  2
PRODUCT
 70
     0
1001
ACDBATTR
1070
     0
1070
     1
  0
ENDSEC
  0
EOF
