  0
SECTION
  2
HEADER
  9
$ACADVER
  1
AC1009
  9
$INSBASE
 10
3554.4430732910041115
 20
136.0578285994955934
 30
0.0
  9
$EXTMIN
 10
3551.7890331256257923
 20
132.7113719065955877
 30
0.0
  9
$EXTMAX
 10
3554.4550286210128434
 20
139.4042852923955138
 30
0.0
  9
$LIMMIN
 10
0.0
 20
0.0
  9
$LIMMAX
 10
11.6929133858000007
 20
8.2677165353999982
  9
$ORTHOMODE
 70
     0
  9
$REGENMODE
 70
     1
  9
$FILLMODE
 70
     1
  9
$QTEXTMODE
 70
     0
  9
$MIRRTEXT
 70
     0
  9
$DRAGMODE
 70
     2
  9
$LTSCALE
 40
0.6431102362
  9
$OSMODE
 70
  4095
  9
$ATTMODE
 70
     1
  9
$TEXTSIZE
 40
0.2
  9
$TRACEWID
 40
0.05
  9
$TEXTSTYLE
  7
STANDARD
  9
$CLAYER
  8
0
  9
$CELTYPE
  6
BYLAYER
  9
$CECOLOR
 62
   256
  9
$DIMSCALE
 40
1.0
  9
$DIMASZ
 40
0.1875
  9
$DIMEXO
 40
0.0625
  9
$DIMDLI
 40
0.4443307087
  9
$DIMRND
 40
0.0
  9
$DIMDLE
 40
0.0
  9
$DIMEXE
 40
0.125
  9
$DIMTP
 40
0.01
  9
$DIMTM
 40
0.01
  9
$DIMTXT
 40
2.0
  9
$DIMCEN
 40
0.1052362205
  9
$DIMTSZ
 40
0.0
  9
$DIMTOL
 70
     1
  9
$DIMLIM
 70
     0
  9
$DIMTIH
 70
     1
  9
$DIMTOH
 70
     1
  9
$DIMSE1
 70
     0
  9
$DIMSE2
 70
     0
  9
$DIMTAD
 70
     0
  9
$DIMZIN
 70
     0
  9
$DIMBLK
  1

  9
$DIMASO
 70
     1
  9
$DIMSHO
 70
     1
  9
$DIMPOST
  1
\X
  9
$DIMAPOST
  1

  9
$DIMALT
 70
     1
  9
$DIMALTD
 70
     2
  9
$DIMALTF
 40
25.3999999999999986
  9
$DIMLFAC
 40
1.0
  9
$DIMTOFL
 70
     0
  9
$DIMTVP
 40
0.0
  9
$DIMTIX
 70
     0
  9
$DIMSOXD
 70
     0
  9
$DIMSAH
 70
     0
  9
$DIMBLK1
  1

  9
$DIMBLK2
  1

  9
$DIMSTYLE
  2
STANDARD
  9
$DIMCLRD
 70
     0
  9
$DIMCLRE
 70
     0
  9
$DIMCLRT
 70
     0
  9
$DIMTFAC
 40
1.0
  9
$DIMGAP
 40
0.09
  9
$LUNITS
 70
     2
  9
$LUPREC
 70
     4
  9
$SKETCHINC
 40
0.1
  9
$FILLETRAD
 40
0.0
  9
$AUNITS
 70
     0
  9
$AUPREC
 70
     0
  9
$MENU
  1
.
  9
$ELEVATION
 40
0.0
  9
$PELEVATION
 40
0.0
  9
$THICKNESS
 40
0.0
  9
$LIMCHECK
 70
     0
  9
$BLIPMODE
 70
     0
  9
$CHAMFERA
 40
0.0
  9
$CHAMFERB
 40
0.0
  9
$SKPOLY
 70
     0
  9
$TDCREATE
 40
2458060.468368056230247
  9
$TDUPDATE
 40
2459095.7821180559694767
  9
$TDINDWG
 40
0.5608519676
  9
$TDUSRTIMER
 40
0.5608519676
  9
$USRTIMER
 70
     1
  9
$ANGBASE
 50
0.0
  9
$ANGDIR
 70
     0
  9
$PDMODE
 70
     0
  9
$PDSIZE
 40
0.3125
  9
$PLINEWID
 40
0.0
  9
$COORDS
 70
     1
  9
$SPLFRAME
 70
     0
  9
$SPLINETYPE
 70
     6
  9
$SPLINESEGS
 70
     8
  9
$ATTDIA
 70
     1
  9
$ATTREQ
 70
     1
  9
$HANDLING
 70
     1
  9
$HANDSEED
  5
1088B
  9
$SURFTAB1
 70
     6
  9
$SURFTAB2
 70
     6
  9
$SURFTYPE
 70
     6
  9
$SURFU
 70
     6
  9
$SURFV
 70
     6
  9
$UCSNAME
  2

  9
$UCSORG
 10
0.0
 20
0.0
 30
0.0
  9
$UCSXDIR
 10
1.0
 20
0.0
 30
0.0
  9
$UCSYDIR
 10
0.0
 20
1.0
 30
0.0
  9
$PUCSNAME
  2

  9
$PUCSORG
 10
0.0
 20
0.0
 30
0.0
  9
$PUCSXDIR
 10
1.0
 20
0.0
 30
0.0
  9
$PUCSYDIR
 10
0.0
 20
1.0
 30
0.0
  9
$USERI1
 70
     0
  9
$USERI2
 70
     0
  9
$USERI3
 70
     0
  9
$USERI4
 70
     0
  9
$USERI5
 70
     0
  9
$USERR1
 40
0.0
  9
$USERR2
 40
0.0
  9
$USERR3
 40
0.0
  9
$USERR4
 40
0.0
  9
$USERR5
 40
0.0
  9
$WORLDVIEW
 70
     1
  9
$SHADEDGE
 70
     3
  9
$SHADEDIF
 70
    70
  9
$TILEMODE
 70
     1
  9
$MAXACTVP
 70
    64
  9
$PLIMCHECK
 70
     0
  9
$PEXTMIN
 10
1.0000000000000000E+20
 20
1.0000000000000000E+20
 30
1.0000000000000000E+20
  9
$PEXTMAX
 10
-1.0000000000000000E+20
 20
-1.0000000000000000E+20
 30
-1.0000000000000000E+20
  9
$PLIMMIN
 10
0.0
 20
0.0
  9
$PLIMMAX
 10
12.0
 20
9.0
  9
$UNITMODE
 70
     0
  9
$VISRETAIN
 70
     1
  9
$PLINEGEN
 70
     0
  9
$PSLTSCALE
 70
     1
  0
ENDSEC
  0
SECTION
  2
TABLES
  0
TABLE
  2
VPORT
 70
     1
  0
VPORT
  2
*ACTIVE
 70
     0
 10
0.0
 20
0.0
 11
1.0
 21
1.0
 12
249.4289156389442894
 22
-59.2036829763921801
 13
0.0
 23
0.0
 14
1.0
 24
1.0
 15
0.0
 25
0.0
 16
0.0
 26
0.0
 36
96.5995694866707311
 17
3303.693115234375
 27
195.2615115758877096
 37
0.0
 40
6.7486103071797308
 41
2.6486111111111108
 42
50.0
 43
0.0
 44
0.0
 50
0.0
 51
0.0
 71
     0
 72
   100
 73
     1
 74
     1
 75
     0
 76
     0
 77
     0
 78
     0
  0
ENDTAB
  0
TABLE
  2
LTYPE
 70
     2
  0
LTYPE
  2
CONTINUOUS
 70
     0
  3
Solid line
 72
    65
 73
     0
 40
0.0
  0
LTYPE
  2
PHANTOM2
 70
     0
  3
___ _ _ ___ _ _ ___ _ _ ___ _ _
 72
    65
 73
     6
 40
1.25
 49
0.625
 49
-0.125
 49
0.125
 49
-0.125
 49
0.125
 49
-0.125
  0
ENDTAB
  0
TABLE
  2
LAYER
 70
     2
  0
LAYER
  2
0
 70
     0
 62
   255
  6
CONTINUOUS
  0
LAYER
  2
DEFPOINTS
 70
     0
 62
     7
  6
CONTINUOUS
  0
ENDTAB
  0
TABLE
  2
STYLE
 70
     1
  0
STYLE
  2
STANDARD
 70
     0
 40
0.0
 41
0.8
 50
0.0
 71
     0
 42
0.2
  3
txt
  4

  0
ENDTAB
  0
TABLE
  2
VIEW
 70
     0
  0
ENDTAB
  0
TABLE
  2
UCS
 70
     0
  0
ENDTAB
  0
TABLE
  2
APPID
 70
     9
  0
APPID
  2
ACAD
 70
     0
  0
APPID
  2
ACAD_MLEADERVER
 70
     0
  0
APPID
  2
ACAD_EXEMPT_FROM_CAD_STANDARDS
 70
     0
  0
APPID
  2
ACAD_NAV_VCDISPLAY
 70
     0
  0
APPID
  2
ACAECLAYERSTANDARD
 70
     0
  0
APPID
  2
ACCMTRANSPARENCY
 70
     0
  0
APPID
  2
ACAD_DSTYLE_DIMJAG
 70
     0
  0
APPID
  2
ACAD_DSTYLE_DIMTALN
 70
     0
  0
APPID
  2
ACDBATTR
 70
     0
  0
ENDTAB
  0
TABLE
  2
DIMSTYLE
 70
     1
  0
DIMSTYLE
  2
STANDARD
 70
     0
  3

  4

  5

  6

  7

 40
1.0
 41
0.1875
 42
0.0625
 43
0.38
 44
0.125
 45
0.0
 46
0.0
 47
0.01
 48
0.01
140
0.15625
141
0.09
142
0.0
143
25.3999999999999986
144
1.0
145
0.0
146
1.0
147
0.09
 71
     1
 72
     0
 73
     1
 74
     1
 75
     0
 76
     0
 77
     0
 78
     4
170
     0
171
     2
172
     0
173
     0
174
     0
175
     0
176
     0
177
     0
178
     0
  0
ENDTAB
  0
ENDSEC
  0
SECTION
  2
BLOCKS
  0
BLOCK
  8
0
  2
$MODEL_SPACE
 70
     0
 10
0.0
 20
0.0
 30
0.0
  3
$MODEL_SPACE
  1

  0
ENDBLK
  5
21
  8
0
  0
BLOCK
 67
     1
  8
0
  2
$PAPER_SPACE
 70
     0
 10
0.0
 20
0.0
 30
0.0
  3
$PAPER_SPACE
  1

  0
ENDBLK
  5
1D
 67
     1
  8
0
  0
BLOCK
  8
0
  2
_FILLED
 70
     0
 10
0.0
 20
0.0
 30
0.0
  3
_FILLED
  1

  0
SOLID
  5
9E2C
  8
0
  6
BYBLOCK
 62
     0
 10
0.0
 20
0.0
 30
0.0
 11
-1.0
 21
0.1666666667
 31
0.0
 12
-1.0
 22
-0.1666666667
 32
0.0
 13
-1.0
 23
-0.1666666667
 33
0.0
  0
ENDBLK
  5
9E2D
  8
0
  6
BYBLOCK
 62
     0
  0
BLOCK
  8
0
  2
A$C6B0F1CD5
 70
     2
 10
0.0
 20
0.0
 30
0.0
  3
A$C6B0F1CD5
  1

  0
ATTDEF
  5
B779
  8
DEFPOINTS
 10
0.0005209962714616
 20
0.000347009907216
 30
0.0
 40
0.001
  1
BATH FAUCET
  3

  2
PRODUCT
 70
     0
1001
ACDBATTR
1070
     0
1070
     1
  0
ATTDEF
  5
B77A
  8
DEFPOINTS
 10
0.0005209962714616
 20
0.0020136765738812
 30
0.0
 40
0.001
  1
SINGULIER
  3

  2
TRADENAME
 70
     0
1001
ACDBATTR
1070
     0
1070
     1
  0
ATTDEF
  5
B77B
  8
DEFPOINTS
 10
0.0005209962714616
 20
0.0036803432405463
 30
0.0
 40
0.001
  1
K-10873W
  3

  2
MODELNUMBER
 70
     0
1001
ACDBATTR
1070
     0
1070
     1
  0
ENDBLK
  5
B77F
  8
0
  0
ENDSEC
  0
SECTION
  2
ENTITIES
  0
LINE
  5
10067
  8
0
 10
3554.4430732910041115
 20
139.4042852923955138
 30
0.0
 11
3554.4430732910041115
 21
132.7113719065955877
 31
0.0
  0
LINE
  5
10068
  8
0
 10
3554.4430732910041115
 20
132.7113719065955877
 30
0.0
 11
3553.8934083076778734
 21
132.7798440337041939
 31
0.0
  0
ARC
  5
10069
  8
0
 10
3553.8984175261730343
 20
132.8349725225839109
 30
0.0
 40
0.0553556009459523
 50
233.625629287939887
 51
264.8081092413009969
  0
ARC
  5
1006A
  8
0
 10
3553.891892190505132
 20
132.8196960317451953
 30
0.0
 40
0.0393700786999922
 50
179.9999999999951115
 51
228.0781570383049086
  0
LINE
  5
1006B
  8
0
 10
3553.8525221118047739
 20
132.8196960317451953
 30
0.0
 11
3553.8525221099048395
 21
139.2979366630451921
 31
0.0
  0
ARC
  5
1006C
  8
0
 10
3553.8918922325469794
 20
139.2979248608801015
 30
0.0
 40
0.0393701244102609
 50
138.5000221648217007
 51
179.9828241777229891
  0
ARC
  5
1006D
  8
0
 10
3553.8918921680910898
 20
139.2979249179051067
 30
0.0
 40
0.0393700383503425
 50
105.9474152288572952
 51
138.5000221648193133
  0
ARC
  5
1006E
  8
0
 10
3553.9002057128391243
 20
139.2567025397110001
 30
0.0
 40
0.0813584090962623
 50
94.7977201079032454
 51
103.5999072676779065
  0
LINE
  5
1006F
  8
0
 10
3553.8934010426628447
 20
139.3377758842484013
 30
0.0
 11
3554.4430732910041115
 21
139.4042852923955138
 31
0.0
  0
ARC
  5
10070
  8
0
 10
3554.0170855914989261
 20
139.3135433007037989
 30
0.0
 40
0.0391219292821154
 50
96.8781770702716187
 51
180.3671399734583076
  0
ARC
  5
10071
  8
0
 10
3550.5446653369172054
 20
139.0564515506970054
 30
0.0
 40
3.442892713810656
 50
359.253010483682317
 51
4.2782607973938163
  0
LINE
  5
10072
  8
0
 10
3553.9872654529049214
 20
139.0115663614452046
 30
0.0
 11
3553.9872654016048727
 21
133.1060545530451975
 31
0.0
  0
ARC
  5
10073
  8
0
 10
3549.8799112075412268
 20
133.0832637371522935
 30
0.0
 40
4.1074175291100881
 50
356.1056528905880896
 51
0.3179185397000046
  0
ARC
  5
10074
  8
0
 10
3554.0172080133170311
 20
132.804302424708311
 30
0.0
 40
0.0393633675440873
 50
180.002296239199012
 51
263.0004162427791243
  0
ARC
  5
10075
  8
0
 10
3553.0568930045219531
 20
138.054263973837692
 30
0.0
 40
0.0114585100000609
 50
93.3745854139990428
 51
180.757414376772914
  0
LINE
  5
10076
  8
0
 10
3553.0454354957041687
 20
138.0541125039125063
 30
0.0
 11
3553.0454354954649716
 21
136.1493624153451947
 31
0.0
  0
ARC
  5
10077
  8
0
 10
3553.0578069332282212
 20
136.1495942137285908
 30
0.0
 40
0.0123736091262555
 50
181.0734011278815103
 51
267.4029159889897755
  0
LINE
  5
10078
  8
0
 10
3552.939200330505173
 20
136.1373303659952114
 30
0.0
 11
3553.8525221108320693
 21
136.1365794729466927
 31
0.0
  0
ARC
  5
10079
  8
0
 10
3552.9218031556652022
 20
137.0969461611616964
 30
0.0
 40
0.8125691800175584
 50
92.1096709410433334
 51
117.3565676866642065
  0
LINE
  5
1007A
  8
0
 10
3552.4508928564619055
 20
138.0263492312955123
 30
0.0
 11
3552.8848753268048313
 21
137.101942141795206
 31
0.0
  0
LINE
  5
1007B
  8
0
 10
3552.8848753268048313
 20
137.101942141795206
 30
0.0
 11
3552.884102028514917
 21
136.1609975485571056
 31
0.0
  0
ARC
  5
1007C
  8
0
 10
3552.8808503200248197
 20
134.9753917907225969
 30
0.0
 40
1.185610216984637
 50
89.8428577928941792
 51
103.1533981720776012
  0
ARC
  5
1007D
  8
0
 10
3552.7488878355848101
 20
135.4585408882304876
 30
0.0
 40
0.6853588594189427
 50
101.6019775821215063
 51
129.3566412983433906
  0
ARC
  5
1007E
  8
0
 10
3552.6168032224131821
 20
135.6416287310119912
 30
0.0
 40
0.4602441730508108
 50
131.0966201794483084
 51
181.4887172650763034
  0
LINE
  5
1007F
  8
0
 10
3552.1567144000050575
 20
135.629671543945193
 30
0.0
 11
3552.15672199460505
 21
134.2274874957452084
 31
0.0
  0
ARC
  5
10080
  8
0
 10
3550.1584418011420894
 20
134.1663261141339092
 30
0.0
 40
1.999215239206747
 50
352.5936468519573737
 51
1.753104971918614
  0
ARC
  5
10081
  8
0
 10
3551.9419279436219767
 20
133.9284410377657935
 30
0.0
 40
0.2000342144403087
 50
304.3203621834745718
 51
354.3122259431930274
  0
ARC
  5
10082
  8
0
 10
3551.9731990293707895
 20
133.9045273958772952
 30
0.0
 40
0.1631204472390628
 50
240.0201807595462071
 51
299.9804936127624728
  0
ARC
  5
10083
  8
0
 10
3552.0287851356279134
 20
133.944944915542095
 30
0.0
 40
0.2276290191601704
 50
183.6231095569268064
 51
232.9665831269390139
  0
ARC
  5
10084
  8
0
 10
3554.1271160084270377
 20
134.1727552335146072
 30
0.0
 40
2.3380828828009519
 50
178.6586754198640961
 51
185.9457612232781969
  0
LINE
  5
10085
  8
0
 10
3551.7896738233048382
 20
134.2222111942452045
 30
0.0
 11
3551.7896536647049288
 21
137.9315547579452073
 31
0.0
  0
ARC
  5
10086
  8
0
 10
3551.8683855267231593
 20
137.9315647700410068
 30
0.0
 40
0.0787318626146482
 50
91.6656255229901404
 51
180.0070528947148887
  0
LINE
  5
10087
  8
0
 10
3551.8660970627051938
 20
138.0102633667451926
 30
0.0
 11
3551.9722102875048222
 21
138.0132535027952088
 31
0.0
  0
ARC
  5
10088
  8
0
 10
3552.1437176771869417
 20
138.9127659497547995
 30
0.0
 40
0.9157168923585539
 50
259.2051496115573173
 51
284.0471735741651855
  0
LINE
  5
10089
  8
0
 10
3552.3659812658838746
 20
138.0244324585939069
 30
0.0
 11
3552.4508928564619055
 21
138.0263492312955123
 31
0.0
  0
LINE
  5
100AB
  8
0
 10
3553.8525221111522114
 20
135.0440594186912051
 30
0.0
 11
3553.3398767765052071
 21
135.0444808932026035
 31
0.0
  0
LINE
  5
100AC
  8
0
 10
3553.3398767765052071
 20
135.0444808931952139
 30
0.0
 11
3553.3201755596051044
 21
135.024812044595194
 31
0.0
  0
LINE
  5
100AD
  8
0
 10
3553.3201755596051044
 20
135.024812044595194
 30
0.0
 11
3553.3193825352041131
 21
134.0602454414951978
 31
0.0
  0
LINE
  5
100AE
  8
0
 10
3553.3193825352041131
 20
134.0602454414951978
 30
0.0
 11
3553.3390513838048719
 21
134.0405442245952088
 31
0.0
  0
LINE
  5
100AF
  8
0
 10
3553.3390513838048719
 20
134.0405442245952088
 30
0.0
 11
3553.8525221114468877
 21
134.0401220714865929
 31
0.0
  0
LINE
  5
100B0
  8
0
 10
3553.3194615178049389
 20
134.1563131254951884
 30
0.0
 11
3552.9644952499029387
 21
134.1495057497893981
 31
0.0
  0
ARC
  5
100B1
  8
0
 10
3552.9648726909058496
 20
134.1298243292486063
 30
0.0
 40
0.0196850394009308
 50
91.0986567684557684
 51
179.9528937973645952
  0
LINE
  5
100B2
  8
0
 10
3552.9451552544051083
 20
134.0904272860952062
 30
0.0
 11
3552.9452885208052066
 21
134.2525210557951993
 31
0.0
  0
ARC
  5
100B3
  8
0
 10
3554.6626022241980536
 20
134.3416528274163113
 30
0.0
 40
1.7196252000280139
 50
176.9346963796579928
 51
182.9710914693399957
  0
LINE
  5
100B4
  8
0
 10
3552.9454374028050552
 20
134.4336082771951908
 30
0.0
 11
3552.945850793894806
 21
134.9364216127553107
 31
0.0
  0
ARC
  5
100B5
  8
0
 10
1174.1769172974679805
 20
136.8984594325480089
 30
0.0
 40
2378.7697426527302014
 50
359.9527417483719205
 51
359.9530976470396126
  0
ARC
  5
100B6
  8
0
 10
3552.9261937316227886
 20
134.9512136836185903
 30
0.0
 40
0.0196692103720322
 50
359.953097647038021
 51
90.9997962490685381
  0
LINE
  5
100B7
  8
0
 10
3552.9258505265052008
 20
134.9708798994952019
 30
0.0
 11
3552.8319309906441958
 21
134.9692408619899879
 31
0.0
  0
ARC
  5
100B8
  8
0
 10
3552.8326226633539591
 20
134.9296068818528909
 30
0.0
 40
0.0396400150435005
 50
90.9997962490685381
 51
165.2230243234195086
  0
ARC
  5
100B9
  8
0
 10
3552.8671664506300658
 20
134.9231919691206087
 30
0.0
 40
0.0747229923547526
 50
167.2231024540064936
 51
182.1184918706740916
  0
LINE
  5
100BA
  8
0
 10
3552.7924945303047934
 20
134.9204297414952123
 30
0.0
 11
3552.7921772320050877
 21
134.5345294982951998
 31
0.0
  0
ARC
  5
100BB
  8
0
 10
3549.5815677267328283
 20
134.3644338616014124
 30
0.0
 40
3.215123147840504
 50
357.3422410042231832
 51
3.0322790776846511
  0
LINE
  5
100BC
  8
0
 10
3552.7932324710050125
 20
134.2153485632811112
 30
0.0
 11
3552.7918298368172145
 21
134.111953859639101
 31
0.0
  0
ARC
  5
100BD
  8
0
 10
3552.8311998895210309
 20
134.1118549201673886
 30
0.0
 40
0.039370177023733
 50
179.8560123282069867
 51
268.9528353928628235
  0
LINE
  5
100BE
  8
0
 10
3552.8304803817109132
 20
134.0724913183582032
 30
0.0
 11
3552.9251104828381358
 21
134.070761621540413
 31
0.0
  0
ARC
  5
100BF
  8
0
 10
3552.9254702355888185
 20
134.0904433593213128
 30
0.0
 40
0.0196850253776969
 50
268.9528353928628235
 51
359.9532168181955853
  0
ARC
  5
100C0
  8
0
 10
3552.960311090434061
 20
134.9561033655539006
 30
0.0
 40
0.0198632811754687
 50
223.3027243564048092
 51
268.6150243420054267
  0
ARC
  5
100C1
  8
0
 10
3554.2585283845392041
 20
188.6522701812172897
 30
0.0
 40
53.7317213651988723
 50
268.6150243420054267
 51
268.9992705530203239
  0
LINE
  5
100C2
  8
0
 10
3553.3398767765120283
 20
135.0444808931952139
 30
0.0
 11
3553.3390513838048719
 21
134.0405442245952088
 31
0.0
  0
LINE
  5
100C3
  8
0
 10
3552.8842090069651931
 20
136.295017994465411
 30
0.0
 11
3552.8902003039052033
 21
136.2949243765951906
 31
0.0
  0
ARC
  5
100C4
  8
0
 10
3552.8889600024731408
 20
136.2155483540524017
 30
0.0
 40
0.0793857122053928
 50
60.9474162399479198
 51
89.1047894282568649
  0
ARC
  5
100C5
  8
0
 10
3552.9392100410050261
 20
136.1491413856952022
 30
0.0
 40
0.0118110235999997
 50
180.0
 51
269.9528939451687961
  0
LINE
  5
100C6
  8
0
 10
3552.9273990174051505
 20
136.1491413856952022
 30
0.0
 11
3552.9289656485047999
 21
138.0539005434625039
 31
0.0
  0
ARC
  5
100C7
  8
0
 10
3552.9407766414301477
 20
138.0538916188799021
 30
0.0
 40
0.011810996315734
 50
89.9998676876224977
 51
179.9529487254879996
  0
ARC
  5
100C8
  8
0
 10
3552.8906052515048941
 20
137.9876942439962022
 30
0.0
 40
0.0787401575011077
 50
270.9352946693384183
 51
299.0622231658668966
  0
ARC
  5
100C9
  8
0
 10
3551.6601836694458143
 20
155.1863773244189986
 30
0.0
 40
17.1759582673922395
 50
271.0409196109793015
 51
272.2096107492336046
  0
ARC
  5
100CA
  8
0
 10
3552.180809843669067
 20
137.8968954228558061
 30
0.0
 40
0.1892313046458921
 50
41.8322890007601984
 51
141.2336768340263973
  0
ARC
  5
100CB
  8
0
 10
3550.8161121681860095
 20
191.6121051230107923
 30
0.0
 40
53.6100807293607531
 50
271.6100678899290983
 51
271.6566535878660034
  0
LINE
  5
100D2
  8
0
 10
3552.9407766414301477
 20
138.0657026151955904
 30
0.0
 11
3553.8525221102668183
 21
138.0657026151955904
 31
0.0
  0
ATTDEF
  5
1011D
  8
DEFPOINTS
 10
3554.4443619543440036
 20
136.0556309339062011
 30
0.0
 40
0.001
  1
K-10879A-4
  3

  2
MODELNUMBER
 70
     0
1001
ACDBATTR
1070
     0
1070
     1
  0
ATTDEF
  5
1011E
  8
DEFPOINTS
 10
3554.4443619543440036
 20
136.0539642672395075
 30
0.0
 40
0.001
  1
SINGILIER
  3

  2
TRADENAME
 70
     0
1001
ACDBATTR
1070
     0
1070
     1
  0
ATTDEF
  5
1011F
  8
DEFPOINTS
 10
3554.4443619543440036
 20
136.052297600572814
 30
0.0
 40
0.001
  1
VALVE TRIM
  3

  2
PRODUCT
 70
     0
1001
ACDBATTR
1070
     0
1070
     1
  0
ENDSEC
  0
EOF
