  0
SECTION
  2
HEADER
  9
$ACADVER
  1
AC1009
  9
$INSBASE
 10
3725.9391098549808703
 20
122.4446822813738009
 30
0.0
  9
$EXTMIN
 10
3724.9943085766940385
 20
116.5801282880048007
 30
0.0
  9
$EXTMAX
 10
3726.8839111332690663
 20
123.4278822813737975
 30
0.0
  9
$LIMMIN
 10
0.0
 20
0.0
  9
$LIMMAX
 10
11.6929133858000007
 20
8.2677165353999982
  9
$ORTHOMODE
 70
     0
  9
$REGENMODE
 70
     1
  9
$FILLMODE
 70
     1
  9
$QTEXTMODE
 70
     0
  9
$MIRRTEXT
 70
     0
  9
$DRAGMODE
 70
     2
  9
$LTSCALE
 40
0.6431102362
  9
$OSMODE
 70
  4095
  9
$ATTMODE
 70
     1
  9
$TEXTSIZE
 40
0.2
  9
$TRACEWID
 40
0.05
  9
$TEXTSTYLE
  7
STANDARD
  9
$CLAYER
  8
0
  9
$CELTYPE
  6
BYLAYER
  9
$CECOLOR
 62
   256
  9
$DIMSCALE
 40
1.0
  9
$DIMASZ
 40
0.1875
  9
$DIMEXO
 40
0.0625
  9
$DIMDLI
 40
0.4443307087
  9
$DIMRND
 40
0.0
  9
$DIMDLE
 40
0.0
  9
$DIMEXE
 40
0.125
  9
$DIMTP
 40
0.01
  9
$DIMTM
 40
0.01
  9
$DIMTXT
 40
2.0
  9
$DIMCEN
 40
0.1052362205
  9
$DIMTSZ
 40
0.0
  9
$DIMTOL
 70
     1
  9
$DIMLIM
 70
     0
  9
$DIMTIH
 70
     1
  9
$DIMTOH
 70
     1
  9
$DIMSE1
 70
     0
  9
$DIMSE2
 70
     0
  9
$DIMTAD
 70
     0
  9
$DIMZIN
 70
     0
  9
$DIMBLK
  1

  9
$DIMASO
 70
     1
  9
$DIMSHO
 70
     1
  9
$DIMPOST
  1
\X
  9
$DIMAPOST
  1

  9
$DIMALT
 70
     1
  9
$DIMALTD
 70
     2
  9
$DIMALTF
 40
25.3999999999999986
  9
$DIMLFAC
 40
1.0
  9
$DIMTOFL
 70
     0
  9
$DIMTVP
 40
0.0
  9
$DIMTIX
 70
     0
  9
$DIMSOXD
 70
     0
  9
$DIMSAH
 70
     0
  9
$DIMBLK1
  1

  9
$DIMBLK2
  1

  9
$DIMSTYLE
  2
STANDARD
  9
$DIMCLRD
 70
     0
  9
$DIMCLRE
 70
     0
  9
$DIMCLRT
 70
     0
  9
$DIMTFAC
 40
1.0
  9
$DIMGAP
 40
0.09
  9
$LUNITS
 70
     2
  9
$LUPREC
 70
     4
  9
$SKETCHINC
 40
0.1
  9
$FILLETRAD
 40
0.0
  9
$AUNITS
 70
     0
  9
$AUPREC
 70
     0
  9
$MENU
  1
.
  9
$ELEVATION
 40
0.0
  9
$PELEVATION
 40
0.0
  9
$THICKNESS
 40
0.0
  9
$LIMCHECK
 70
     0
  9
$BLIPMODE
 70
     0
  9
$CHAMFERA
 40
0.0
  9
$CHAMFERB
 40
0.0
  9
$SKPOLY
 70
     0
  9
$TDCREATE
 40
2458060.468368056230247
  9
$TDUPDATE
 40
2459117.6456018518656492
  9
$TDINDWG
 40
0.3513265046
  9
$TDUSRTIMER
 40
0.3513265046
  9
$USRTIMER
 70
     1
  9
$ANGBASE
 50
0.0
  9
$ANGDIR
 70
     0
  9
$PDMODE
 70
     0
  9
$PDSIZE
 40
0.3125
  9
$PLINEWID
 40
0.0
  9
$COORDS
 70
     1
  9
$SPLFRAME
 70
     0
  9
$SPLINETYPE
 70
     6
  9
$SPLINESEGS
 70
     8
  9
$ATTDIA
 70
     1
  9
$ATTREQ
 70
     1
  9
$HANDLING
 70
     1
  9
$HANDSEED
  5
6C27
  9
$SURFTAB1
 70
     6
  9
$SURFTAB2
 70
     6
  9
$SURFTYPE
 70
     6
  9
$SURFU
 70
     6
  9
$SURFV
 70
     6
  9
$UCSNAME
  2

  9
$UCSORG
 10
0.0
 20
0.0
 30
0.0
  9
$UCSXDIR
 10
1.0
 20
0.0
 30
0.0
  9
$UCSYDIR
 10
0.0
 20
1.0
 30
0.0
  9
$PUCSNAME
  2

  9
$PUCSORG
 10
0.0
 20
0.0
 30
0.0
  9
$PUCSXDIR
 10
1.0
 20
0.0
 30
0.0
  9
$PUCSYDIR
 10
0.0
 20
1.0
 30
0.0
  9
$USERI1
 70
     0
  9
$USERI2
 70
     0
  9
$USERI3
 70
     0
  9
$USERI4
 70
     0
  9
$USERI5
 70
     0
  9
$USERR1
 40
0.0
  9
$USERR2
 40
0.0
  9
$USERR3
 40
0.0
  9
$USERR4
 40
0.0
  9
$USERR5
 40
0.0
  9
$WORLDVIEW
 70
     1
  9
$SHADEDGE
 70
     3
  9
$SHADEDIF
 70
    70
  9
$TILEMODE
 70
     1
  9
$MAXACTVP
 70
    64
  9
$PLIMCHECK
 70
     0
  9
$PEXTMIN
 10
1.0000000000000000E+20
 20
1.0000000000000000E+20
 30
1.0000000000000000E+20
  9
$PEXTMAX
 10
-1.0000000000000000E+20
 20
-1.0000000000000000E+20
 30
-1.0000000000000000E+20
  9
$PLIMMIN
 10
0.0
 20
0.0
  9
$PLIMMAX
 10
12.0
 20
9.0
  9
$UNITMODE
 70
     0
  9
$VISRETAIN
 70
     1
  9
$PLINEGEN
 70
     0
  9
$PSLTSCALE
 70
     1
  0
ENDSEC
  0
SECTION
  2
TABLES
  0
TABLE
  2
VPORT
 70
     1
  0
VPORT
  2
*ACTIVE
 70
     0
 10
0.0
 20
0.0
 11
1.0
 21
1.0
 12
0.0
 22
0.0
 13
0.0
 23
0.0
 14
1.0
 24
1.0
 15
0.0
 25
0.0
 16
0.0
 26
0.0
 36
20.1280683319147293
 17
3725.9391098555620374
 27
120.0040052846892991
 37
0.0
 40
7.1036647888050819
 41
2.1186252771618621
 42
50.0
 43
0.0
 44
0.0
 50
0.0
 51
0.0
 71
     0
 72
   100
 73
     1
 74
     1
 75
     0
 76
     0
 77
     0
 78
     0
  0
ENDTAB
  0
TABLE
  2
LTYPE
 70
     2
  0
LTYPE
  2
CONTINUOUS
 70
     0
  3
Solid line
 72
    65
 73
     0
 40
0.0
  0
LTYPE
  2
PHANTOM2
 70
     0
  3
___ _ _ ___ _ _ ___ _ _ ___ _ _
 72
    65
 73
     6
 40
1.25
 49
0.625
 49
-0.125
 49
0.125
 49
-0.125
 49
0.125
 49
-0.125
  0
ENDTAB
  0
TABLE
  2
LAYER
 70
     2
  0
LAYER
  2
0
 70
     0
 62
   255
  6
CONTINUOUS
  0
LAYER
  2
DEFPOINTS
 70
     0
 62
     7
  6
CONTINUOUS
  0
ENDTAB
  0
TABLE
  2
STYLE
 70
     1
  0
STYLE
  2
STANDARD
 70
     0
 40
0.0
 41
0.8
 50
0.0
 71
     0
 42
0.2
  3
txt
  4

  0
ENDTAB
  0
TABLE
  2
VIEW
 70
     0
  0
ENDTAB
  0
TABLE
  2
UCS
 70
     0
  0
ENDTAB
  0
TABLE
  2
APPID
 70
     9
  0
APPID
  2
ACAD
 70
     0
  0
APPID
  2
ACAD_MLEADERVER
 70
     0
  0
APPID
  2
ACAD_EXEMPT_FROM_CAD_STANDARDS
 70
     0
  0
APPID
  2
ACAD_NAV_VCDISPLAY
 70
     0
  0
APPID
  2
ACAECLAYERSTANDARD
 70
     0
  0
APPID
  2
ACCMTRANSPARENCY
 70
     0
  0
APPID
  2
ACAD_DSTYLE_DIMJAG
 70
     0
  0
APPID
  2
ACAD_DSTYLE_DIMTALN
 70
     0
  0
APPID
  2
ACDBATTR
 70
     0
  0
ENDTAB
  0
TABLE
  2
DIMSTYLE
 70
     1
  0
DIMSTYLE
  2
STANDARD
 70
     0
  3

  4

  5

  6

  7

 40
1.0
 41
0.1875
 42
0.0625
 43
0.38
 44
0.125
 45
0.0
 46
0.0
 47
0.01
 48
0.01
140
0.15625
141
0.09
142
0.0
143
25.3999999999999986
144
1.0
145
0.0
146
1.0
147
0.09
 71
     1
 72
     0
 73
     1
 74
     1
 75
     0
 76
     0
 77
     0
 78
     4
170
     0
171
     2
172
     0
173
     0
174
     0
175
     0
176
     0
177
     0
178
     0
  0
ENDTAB
  0
ENDSEC
  0
SECTION
  2
BLOCKS
  0
BLOCK
  8
0
  2
$MODEL_SPACE
 70
     0
 10
0.0
 20
0.0
 30
0.0
  3
$MODEL_SPACE
  1

  0
ENDBLK
  5
21
  8
0
  0
BLOCK
 67
     1
  8
0
  2
$PAPER_SPACE
 70
     0
 10
0.0
 20
0.0
 30
0.0
  3
$PAPER_SPACE
  1

  0
ENDBLK
  5
1D
 67
     1
  8
0
  0
BLOCK
  8
0
  2
_FILLED
 70
     0
 10
0.0
 20
0.0
 30
0.0
  3
_FILLED
  1

  0
SOLID
  5
6847
  8
0
  6
BYBLOCK
 62
     0
 10
0.0
 20
0.0
 30
0.0
 11
-1.0
 21
0.1666666667
 31
0.0
 12
-1.0
 22
-0.1666666667
 32
0.0
 13
-1.0
 23
-0.1666666667
 33
0.0
  0
ENDBLK
  5
6848
  8
0
  6
BYBLOCK
 62
     0
  0
ENDSEC
  0
SECTION
  2
ENTITIES
  0
ATTDEF
  5
3930
  8
DEFPOINTS
 10
3725.936889740712104
 20
122.4494127496003983
 30
0.0
 40
0.001
  1
K-10861AR-4ND
  3

  2
MODELNUMBER
 70
     0
1001
ACDBATTR
1070
     0
1070
     1
  0
ATTDEF
  5
3931
  8
DEFPOINTS
 10
3725.936889740712104
 20
122.4477460829337048
 30
0.0
 40
0.001
  1
SINGULIER
  3

  2
TRADENAME
 70
     0
1001
ACDBATTR
1070
     0
1070
     1
  0
ATTDEF
  5
3932
  8
DEFPOINTS
 10
3725.936889740712104
 20
122.446079416266997
 30
0.0
 40
0.001
  1
BATHROOM SINK FAUCET
  3

  2
PRODUCT
 70
     0
1001
ACDBATTR
1070
     0
1070
     1
  0
LINE
  5
6B01
  8
0
 10
3725.5144673829809108
 20
119.0849431049047951
 30
0.0
 11
3726.3636663742067867
 21
119.0849431049047951
 31
0.0
  0
LINE
  5
6B02
  8
0
 10
3725.4076388024818698
 20
121.3953631034048044
 30
0.0
 11
3725.4076370886809855
 21
116.6590679763047973
 31
0.0
  0
ARC
  5
6B03
  8
0
 10
3725.4935139124381749
 20
116.6659873615972032
 30
0.0
 40
0.0861551318925774
 50
184.6065626668462869
 51
265.2487255353340174
  0
ARC
  5
6B04
  8
0
 10
3725.940490475030856
 20
122.4375024635348979
 30
0.0
 40
0.94618189833762
 50
98.1038899649482232
 51
225.0480538716296053
  0
ARC
  5
6B05
  8
0
 10
3724.7725180154088775
 20
121.3750696403104996
 30
0.0
 40
0.6354449140685287
 50
1.8300996612346181
 51
38.1834591769480411
  0
ARC
  5
6B06
  8
0
 10
3725.5153426745059733
 20
119.1657965789986946
 30
0.0
 40
0.0808582117556009
 50
176.491808995369496
 51
269.3797600931353031
  0
ARC
  5
6B07
  8
0
 10
3434.7034733922278065
 20
119.2284490182758958
 30
0.0
 40
290.7311683205389272
 50
359.9886278738204055
 51
0.4261126040682213
  0
ARC
  5
6B08
  8
0
 10
3725.0201434522568888
 20
121.3848432580359997
 30
0.0
 40
0.4064991294498916
 50
0.8137666415073624
 51
30.7158597033077214
  0
LINE
  5
6B09
  8
0
 10
3726.4705809074807803
 20
121.3953631034048044
 30
0.0
 11
3726.4705826212812099
 21
116.6590679763047973
 31
0.0
  0
ARC
  5
6B0A
  8
0
 10
3726.3847057975240205
 20
116.6659873615972032
 30
0.0
 40
0.0861551318925774
 50
274.7512744646659826
 51
355.3934373331537131
  0
ARC
  5
6B0B
  8
0
 10
3725.9377292349308846
 20
122.4375024635348979
 30
0.0
 40
0.94618189833762
 50
314.95194612837048
 51
81.8961327244076216
  0
ARC
  5
6B0C
  8
0
 10
3727.105701694552863
 20
121.3750696403104996
 30
0.0
 40
0.6354449140685287
 50
141.8165408230518949
 51
178.1699003387662117
  0
ARC
  5
6B0D
  8
0
 10
3725.9367886193549566
 20
122.4205972665337043
 30
0.0
 40
0.9494857249749979
 50
8.5691507405617813
 51
80.9781038548893406
  0
ARC
  5
6B0E
  8
0
 10
3726.3628783711210417
 20
119.1657961687138965
 30
0.0
 40
0.0808569037013511
 50
270.5583934542416955
 51
3.5085391087662909
  0
ARC
  5
6B0F
  8
0
 10
4017.1747463177339341
 20
119.2284490182758958
 30
0.0
 40
290.7311683205389272
 50
179.5738873959309103
 51
180.0113721261787987
  0
ARC
  5
6B10
  8
0
 10
3726.8580762577048517
 20
121.3848432580359997
 30
0.0
 40
0.4064991294498916
 50
149.2841402966922999
 51
179.1862333584925864
  0
LINE
  5
6B11
  8
0
 10
3725.4863776505808346
 20
116.5801282880048007
 30
0.0
 11
3726.391842059380906
 21
116.5801282880048007
 31
0.0
  0
ARC
  5
6B12
  8
0
 10
3725.9444532131769847
 20
122.0884556292024996
 30
0.0
 40
1.267043557377868
 50
90.3350206253955861
 51
99.1831179680010848
  0
ARC
  5
6B13
  8
0
 10
3725.8653779240498807
 20
123.0103836009893001
 30
0.0
 40
0.351171273597318
 50
99.2217733815147653
 51
110.5261007809330067
  0
ARC
  5
6B14
  8
0
 10
3725.9227893706870418
 20
121.9371839439929062
 30
0.0
 40
1.4183652200682
 50
81.3518824239710767
 51
89.4241418387237843
  0
ARC
  5
6B15
  8
0
 10
3725.9137093585932234
 20
122.6901283974581958
 30
0.0
 40
0.6863122600929012
 50
71.0960346955380231
 51
76.3358836946713524
  0
ARC
  5
6B16
  8
0
 10
3725.9391096966310215
 20
123.2386598731286966
 30
0.0
 40
0.189222408245082
 50
38.71798337105119
 51
141.28201662894881
  0
LINE
  5
6B17
  8
0
 10
3726.0867474766810119
 20
123.3570161390548066
 30
0.0
 11
3725.7914719165810311
 21
123.3570161390548066
 31
0.0
  0
LINE
  5
6B18
  8
0
 10
3726.0560402123810491
 20
123.3570161390548066
 30
0.0
 11
3726.0567230343817755
 21
123.3492114477009949
 31
0.0
  0
LINE
  5
6B19
  8
0
 10
3725.8221790881821107
 20
123.3570161390548066
 30
0.0
 11
3725.8215234098988731
 21
123.3495217019198975
 31
0.0
  0
ARC
  5
6B1B
  8
0
 10
3725.941431090606784
 20
122.4205972665337043
 30
0.0
 40
0.9494857249749979
 50
99.0218961451106452
 51
171.4308492594381903
  0
ENDSEC
  0
EOF
