  0
SECTION
  2
HEADER
  9
$ACADVER
  1
AC1009
  9
$INSBASE
 10
3710.6887503670759543
 20
109.2466390667541987
 30
0.0
  9
$EXTMIN
 10
3709.7439490887891225
 20
109.2406266378643949
 30
0.0
  9
$EXTMAX
 10
3711.6335516453627861
 20
122.268164488354202
 30
0.0
  9
$LIMMIN
 10
0.0
 20
0.0
  9
$LIMMAX
 10
11.6929133858000007
 20
8.2677165353999982
  9
$ORTHOMODE
 70
     0
  9
$REGENMODE
 70
     1
  9
$FILLMODE
 70
     1
  9
$QTEXTMODE
 70
     0
  9
$MIRRTEXT
 70
     0
  9
$DRAGMODE
 70
     2
  9
$LTSCALE
 40
0.6431102362
  9
$OSMODE
 70
  4095
  9
$ATTMODE
 70
     1
  9
$TEXTSIZE
 40
0.2
  9
$TRACEWID
 40
0.05
  9
$TEXTSTYLE
  7
STANDARD
  9
$CLAYER
  8
0
  9
$CELTYPE
  6
BYLAYER
  9
$CECOLOR
 62
   256
  9
$DIMSCALE
 40
1.0
  9
$DIMASZ
 40
0.1875
  9
$DIMEXO
 40
0.0625
  9
$DIMDLI
 40
0.4443307087
  9
$DIMRND
 40
0.0
  9
$DIMDLE
 40
0.0
  9
$DIMEXE
 40
0.125
  9
$DIMTP
 40
0.01
  9
$DIMTM
 40
0.01
  9
$DIMTXT
 40
2.0
  9
$DIMCEN
 40
0.1052362205
  9
$DIMTSZ
 40
0.0
  9
$DIMTOL
 70
     1
  9
$DIMLIM
 70
     0
  9
$DIMTIH
 70
     1
  9
$DIMTOH
 70
     1
  9
$DIMSE1
 70
     0
  9
$DIMSE2
 70
     0
  9
$DIMTAD
 70
     0
  9
$DIMZIN
 70
     0
  9
$DIMBLK
  1

  9
$DIMASO
 70
     1
  9
$DIMSHO
 70
     1
  9
$DIMPOST
  1
\X
  9
$DIMAPOST
  1

  9
$DIMALT
 70
     1
  9
$DIMALTD
 70
     2
  9
$DIMALTF
 40
25.3999999999999986
  9
$DIMLFAC
 40
1.0
  9
$DIMTOFL
 70
     0
  9
$DIMTVP
 40
0.0
  9
$DIMTIX
 70
     0
  9
$DIMSOXD
 70
     0
  9
$DIMSAH
 70
     0
  9
$DIMBLK1
  1

  9
$DIMBLK2
  1

  9
$DIMSTYLE
  2
STANDARD
  9
$DIMCLRD
 70
     0
  9
$DIMCLRE
 70
     0
  9
$DIMCLRT
 70
     0
  9
$DIMTFAC
 40
1.0
  9
$DIMGAP
 40
0.09
  9
$LUNITS
 70
     2
  9
$LUPREC
 70
     4
  9
$SKETCHINC
 40
0.1
  9
$FILLETRAD
 40
0.0
  9
$AUNITS
 70
     0
  9
$AUPREC
 70
     0
  9
$MENU
  1
.
  9
$ELEVATION
 40
0.0
  9
$PELEVATION
 40
0.0
  9
$THICKNESS
 40
0.0
  9
$LIMCHECK
 70
     0
  9
$BLIPMODE
 70
     0
  9
$CHAMFERA
 40
0.0
  9
$CHAMFERB
 40
0.0
  9
$SKPOLY
 70
     0
  9
$TDCREATE
 40
2458060.468368056230247
  9
$TDUPDATE
 40
2459117.6450925930403173
  9
$TDINDWG
 40
0.3510950231
  9
$TDUSRTIMER
 40
0.3510950231
  9
$USRTIMER
 70
     1
  9
$ANGBASE
 50
0.0
  9
$ANGDIR
 70
     0
  9
$PDMODE
 70
     0
  9
$PDSIZE
 40
0.3125
  9
$PLINEWID
 40
0.0
  9
$COORDS
 70
     1
  9
$SPLFRAME
 70
     0
  9
$SPLINETYPE
 70
     6
  9
$SPLINESEGS
 70
     8
  9
$ATTDIA
 70
     1
  9
$ATTREQ
 70
     1
  9
$HANDLING
 70
     1
  9
$HANDSEED
  5
6B49
  9
$SURFTAB1
 70
     6
  9
$SURFTAB2
 70
     6
  9
$SURFTYPE
 70
     6
  9
$SURFU
 70
     6
  9
$SURFV
 70
     6
  9
$UCSNAME
  2

  9
$UCSORG
 10
0.0
 20
0.0
 30
0.0
  9
$UCSXDIR
 10
1.0
 20
0.0
 30
0.0
  9
$UCSYDIR
 10
0.0
 20
1.0
 30
0.0
  9
$PUCSNAME
  2

  9
$PUCSORG
 10
0.0
 20
0.0
 30
0.0
  9
$PUCSXDIR
 10
1.0
 20
0.0
 30
0.0
  9
$PUCSYDIR
 10
0.0
 20
1.0
 30
0.0
  9
$USERI1
 70
     0
  9
$USERI2
 70
     0
  9
$USERI3
 70
     0
  9
$USERI4
 70
     0
  9
$USERI5
 70
     0
  9
$USERR1
 40
0.0
  9
$USERR2
 40
0.0
  9
$USERR3
 40
0.0
  9
$USERR4
 40
0.0
  9
$USERR5
 40
0.0
  9
$WORLDVIEW
 70
     1
  9
$SHADEDGE
 70
     3
  9
$SHADEDIF
 70
    70
  9
$TILEMODE
 70
     1
  9
$MAXACTVP
 70
    64
  9
$PLIMCHECK
 70
     0
  9
$PEXTMIN
 10
1.0000000000000000E+20
 20
1.0000000000000000E+20
 30
1.0000000000000000E+20
  9
$PEXTMAX
 10
-1.0000000000000000E+20
 20
-1.0000000000000000E+20
 30
-1.0000000000000000E+20
  9
$PLIMMIN
 10
0.0
 20
0.0
  9
$PLIMMAX
 10
12.0
 20
9.0
  9
$UNITMODE
 70
     0
  9
$VISRETAIN
 70
     1
  9
$PLINEGEN
 70
     0
  9
$PSLTSCALE
 70
     1
  0
ENDSEC
  0
SECTION
  2
TABLES
  0
TABLE
  2
VPORT
 70
     1
  0
VPORT
  2
*ACTIVE
 70
     0
 10
0.0
 20
0.0
 11
1.0
 21
1.0
 12
0.0
 22
0.0
 13
0.0
 23
0.0
 14
1.0
 24
1.0
 15
0.0
 25
0.0
 16
0.0
 26
0.0
 36
37.2995039863743116
 17
3710.6887503670759543
 27
115.7543955631092985
 37
0.0
 40
13.1638649441477096
 41
2.1186252771618621
 42
50.0
 43
0.0
 44
0.0
 50
0.0
 51
0.0
 71
     0
 72
   100
 73
     1
 74
     1
 75
     0
 76
     0
 77
     0
 78
     0
  0
ENDTAB
  0
TABLE
  2
LTYPE
 70
     2
  0
LTYPE
  2
CONTINUOUS
 70
     0
  3
Solid line
 72
    65
 73
     0
 40
0.0
  0
LTYPE
  2
PHANTOM2
 70
     0
  3
___ _ _ ___ _ _ ___ _ _ ___ _ _
 72
    65
 73
     6
 40
1.25
 49
0.625
 49
-0.125
 49
0.125
 49
-0.125
 49
0.125
 49
-0.125
  0
ENDTAB
  0
TABLE
  2
LAYER
 70
     2
  0
LAYER
  2
0
 70
     0
 62
   255
  6
CONTINUOUS
  0
LAYER
  2
DEFPOINTS
 70
     0
 62
     7
  6
CONTINUOUS
  0
ENDTAB
  0
TABLE
  2
STYLE
 70
     1
  0
STYLE
  2
STANDARD
 70
     0
 40
0.0
 41
0.8
 50
0.0
 71
     0
 42
0.2
  3
txt
  4

  0
ENDTAB
  0
TABLE
  2
VIEW
 70
     0
  0
ENDTAB
  0
TABLE
  2
UCS
 70
     0
  0
ENDTAB
  0
TABLE
  2
APPID
 70
     9
  0
APPID
  2
ACAD
 70
     0
  0
APPID
  2
ACAD_MLEADERVER
 70
     0
  0
APPID
  2
ACAD_EXEMPT_FROM_CAD_STANDARDS
 70
     0
  0
APPID
  2
ACAD_NAV_VCDISPLAY
 70
     0
  0
APPID
  2
ACAECLAYERSTANDARD
 70
     0
  0
APPID
  2
ACCMTRANSPARENCY
 70
     0
  0
APPID
  2
ACAD_DSTYLE_DIMJAG
 70
     0
  0
APPID
  2
ACAD_DSTYLE_DIMTALN
 70
     0
  0
APPID
  2
ACDBATTR
 70
     0
  0
ENDTAB
  0
TABLE
  2
DIMSTYLE
 70
     1
  0
DIMSTYLE
  2
STANDARD
 70
     0
  3

  4

  5

  6

  7

 40
1.0
 41
0.1875
 42
0.0625
 43
0.38
 44
0.125
 45
0.0
 46
0.0
 47
0.01
 48
0.01
140
0.15625
141
0.09
142
0.0
143
25.3999999999999986
144
1.0
145
0.0
146
1.0
147
0.09
 71
     1
 72
     0
 73
     1
 74
     1
 75
     0
 76
     0
 77
     0
 78
     4
170
     0
171
     2
172
     0
173
     0
174
     0
175
     0
176
     0
177
     0
178
     0
  0
ENDTAB
  0
ENDSEC
  0
SECTION
  2
BLOCKS
  0
BLOCK
  8
0
  2
$MODEL_SPACE
 70
     0
 10
0.0
 20
0.0
 30
0.0
  3
$MODEL_SPACE
  1

  0
ENDBLK
  5
21
  8
0
  0
BLOCK
 67
     1
  8
0
  2
$PAPER_SPACE
 70
     0
 10
0.0
 20
0.0
 30
0.0
  3
$PAPER_SPACE
  1

  0
ENDBLK
  5
1D
 67
     1
  8
0
  0
BLOCK
  8
0
  2
_FILLED
 70
     0
 10
0.0
 20
0.0
 30
0.0
  3
_FILLED
  1

  0
SOLID
  5
6847
  8
0
  6
BYBLOCK
 62
     0
 10
0.0
 20
0.0
 30
0.0
 11
-1.0
 21
0.1666666667
 31
0.0
 12
-1.0
 22
-0.1666666667
 32
0.0
 13
-1.0
 23
-0.1666666667
 33
0.0
  0
ENDBLK
  5
6848
  8
0
  6
BYBLOCK
 62
     0
  0
ENDSEC
  0
SECTION
  2
ENTITIES
  0
ATTDEF
  5
3930
  8
DEFPOINTS
 10
3710.6857997189131311
 20
109.2439599711976967
 30
0.0
 40
0.001
  1
K-10861AR-4ND
  3

  2
MODELNUMBER
 70
     0
1001
ACDBATTR
1070
     0
1070
     1
  0
ATTDEF
  5
3931
  8
DEFPOINTS
 10
3710.6857997189131311
 20
109.2422933045310032
 30
0.0
 40
0.001
  1
SINGULIER
  3

  2
TRADENAME
 70
     0
1001
ACDBATTR
1070
     0
1070
     1
  0
ATTDEF
  5
3932
  8
DEFPOINTS
 10
3710.6857997189131311
 20
109.2406266378643949
 30
0.0
 40
0.001
  1
BATHROOM SINK FAUCET
  3

  2
PRODUCT
 70
     0
1001
ACDBATTR
1070
     0
1070
     1
  0
LINE
  5
69F4
  8
0
 10
3710.4627709318710913
 20
118.7351439633160055
 30
0.0
 11
3710.4459689842760781
 21
118.7278507790541937
 31
0.0
  0
LINE
  5
69F5
  8
0
 10
3710.6181986023739228
 20
118.7485801525159985
 30
0.0
 11
3710.615342952175979
 21
118.7436520087541965
 31
0.0
  0
LINE
  5
69F6
  8
0
 10
3710.615342952175979
 20
118.7065207176542003
 30
0.0
 11
3710.6224699080758
 21
118.7188200754542038
 31
0.0
  0
LINE
  5
69F7
  8
0
 10
3709.7439490887891225
 20
109.2466390667541987
 30
0.0
 11
3709.7439490887891225
 21
121.0576629605541967
 31
0.0
  0
LINE
  5
69F8
  8
0
 10
3709.7754389619758513
 20
122.1919149833541951
 30
0.0
 11
3709.7439490887891225
 21
121.1954582384541936
 31
0.0
  0
LINE
  5
69F9
  8
0
 10
3710.1349007390758743
 20
121.0576629738542067
 30
0.0
 11
3710.1349007390758743
 21
120.2899493581542032
 31
0.0
  0
LINE
  5
69FA
  8
0
 10
3710.1349009965679215
 20
109.2466390667541987
 30
0.0
 11
3710.1349007571761831
 21
118.1639651280542012
 31
0.0
  0
LINE
  5
69FB
  8
0
 10
3710.1572788050762028
 20
118.6057173764541943
 30
0.0
 11
3710.1572788050762028
 21
119.8482149324541979
 31
0.0
  0
LINE
  5
69FC
  8
0
 10
3710.1820887889762162
 20
121.9822696273541993
 30
0.0
 11
3710.1762337279769781
 21
121.7972982222148062
 31
0.0
  0
LINE
  5
69FD
  8
0
 10
3710.1887255037759132
 20
122.1919178959542052
 30
0.0
 11
3710.1820887889762162
 21
121.9822696273541993
 31
0.0
  0
LINE
  5
69FE
  8
0
 10
3710.615342952175979
 20
118.7436520087541965
 30
0.0
 11
3710.615342952175979
 21
118.7065207176542003
 31
0.0
  0
LINE
  5
69FF
  8
0
 10
3710.6224699080758
 20
118.7188200754542038
 30
0.0
 11
3710.6224699080758
 21
118.7483251189550941
 31
0.0
  0
LINE
  5
6A00
  8
0
 10
3710.2360181740759799
 20
118.6954611385541938
 30
0.0
 11
3711.1414825600759286
 21
118.6954611385541938
 31
0.0
  0
LINE
  5
6A01
  8
0
 10
3711.1414819429760428
 20
119.7584532920541989
 30
0.0
 11
3710.2360187911758658
 21
119.7584532920541989
 31
0.0
  0
LINE
  5
6A02
  8
0
 10
3709.7636490693757878
 20
121.0773479998541973
 30
0.0
 11
3711.6138516647761207
 21
121.0773479998541973
 31
0.0
  0
LINE
  5
6A03
  8
0
 10
3709.7439490887891225
 20
121.1954582384541936
 30
0.0
 11
3711.6335516453627861
 21
121.1954582384541936
 31
0.0
  0
ARC
  5
6A04
  8
0
 10
3710.6900671992948446
 20
120.1170091315438953
 30
0.0
 40
1.4124663814848371
 50
266.9674438536059142
 51
269.9465835502858795
  0
ARC
  5
6A05
  8
0
 10
3710.6136574665761145
 20
119.5153309103541943
 30
0.0
 40
0.8051362520000001
 50
257.3636697683571128
 51
257.9788104741019197
  0
ARC
  5
6A06
  8
0
 10
3710.2415067531651403
 20
118.7796890170423012
 30
0.0
 40
0.0844065164251575
 50
183.7275927843037095
 51
266.2716805710929862
  0
ARC
  5
6A07
  8
0
 10
3710.251172414166831
 20
119.6645596773908977
 30
0.0
 40
0.0951085861754789
 50
99.1679920631779481
 51
170.8319868684486096
  0
ARC
  5
6A08
  8
0
 10
3709.765519489576036
 20
121.2234583685542049
 30
0.0
 40
0.1181102362
 50
312.0773620824032832
 51
346.2864579574250001
  0
ARC
  5
6A09
  8
0
 10
3709.89743551467609
 20
121.0773479998541973
 30
0.0
 40
0.0787401575
 50
132.0773620822984071
 51
180.0
  0
ARC
  5
6A0A
  8
0
 10
3710.6887821865711885
 20
119.9650145606102001
 30
0.0
 40
1.247957536582184
 50
266.9540598982358119
 51
269.9985391147610017
  0
ARC
  5
6A0B
  8
0
 10
3709.7657870771599846
 20
121.0555083830277994
 30
0.0
 40
0.021944018328679
 50
95.5912029952896347
 51
174.3653250106962957
  0
ARC
  5
6A0C
  8
0
 10
3709.8674238065282225
 20
122.1757128483321964
 30
0.0
 40
0.093400860844393
 50
98.1754998090808044
 51
170.0104361058143922
  0
ARC
  5
6A0D
  8
0
 10
3710.2676474738650541
 20
122.1894388690439968
 30
0.0
 40
0.0789608949871306
 50
94.4241313346499709
 51
178.200867356805702
  0
ARC
  5
6A0E
  8
0
 10
3728.0381106382528742
 20
120.2561921368557023
 30
0.0
 40
17.9282362413089196
 50
175.068785485189693
 51
176.9968806898739899
  0
ARC
  5
6A0F
  8
0
 10
3710.2649659759281349
 20
121.9838968258649032
 30
0.0
 40
0.082893159501411
 50
181.1247923993662994
 51
267.1135259908936064
  0
ARC
  5
6A10
  8
0
 10
3721.119781589071863
 20
117.8289418724377953
 30
0.0
 40
10.9899885110390194
 50
175.9469386215255042
 51
178.2531016427176098
  0
ARC
  5
6A11
  8
0
 10
3720.5671896089670554
 20
120.5970103446357058
 30
0.0
 40
10.4368068638957503
 50
181.6859407196679967
 51
184.1142573114759102
  0
ARC
  5
6A12
  8
0
 10
3710.1572046096230224
 20
121.0551514298814055
 30
0.0
 40
0.0224448322452776
 50
98.529742814070346
 51
173.575230286235012
  0
ARC
  5
6A13
  8
0
 10
3710.2410002605788577
 20
119.1534353496986967
 30
0.0
 40
0.459531826543424
 50
274.7188122429021178
 51
285.9977954779608922
  0
ARC
  5
6A14
  8
0
 10
3710.7114117359142256
 20
117.521577716139106
 30
0.0
 40
1.238775720508672
 50
91.0481907253101781
 51
106.111249416083794
  0
ARC
  5
6A15
  8
0
 10
3710.6838879891270153
 20
119.9241693120739001
 30
0.0
 40
1.2211772750101431
 50
258.1857316920406902
 51
270.2281359772590008
  0
ARC
  5
6A16
  8
0
 10
3710.5797454875892072
 20
119.4122078346808991
 30
0.0
 40
0.731912998421454
 50
253.1548598708131124
 51
258.3158015079376923
  0
ARC
  5
6A17
  8
0
 10
3710.6876821758091864
 20
119.8763965666145026
 30
0.0
 40
1.1299547915236561
 50
264.0992451245539883
 51
270.0541639903348141
  0
ARC
  5
6A18
  8
0
 10
3710.6825067525428494
 20
120.0093910454368
 30
0.0
 40
1.267519737543243
 50
263.8143386817457099
 51
266.9625677049638739
  0
LINE
  5
6A19
  8
0
 10
3710.9147298022808172
 20
118.7351439633160055
 30
0.0
 11
3710.9315317498758304
 21
118.7278507790541937
 31
0.0
  0
LINE
  5
6A1A
  8
0
 10
3710.7593021317779858
 20
118.7485801525159985
 30
0.0
 11
3710.762157781976839
 21
118.7436520087541965
 31
0.0
  0
LINE
  5
6A1B
  8
0
 10
3710.762157781976839
 20
118.7065207176542003
 30
0.0
 11
3710.7550308260761085
 21
118.7188200754542038
 31
0.0
  0
LINE
  5
6A1C
  8
0
 10
3711.6335516453627861
 20
109.2466390667541987
 30
0.0
 11
3711.6335516453627861
 21
121.0576629605541967
 31
0.0
  0
LINE
  5
6A1D
  8
0
 10
3711.6020617721760573
 20
122.1919149833541951
 30
0.0
 11
3711.6335516453627861
 21
121.1954582384541936
 31
0.0
  0
LINE
  5
6A1E
  8
0
 10
3711.2425999950760342
 20
121.0576629738542067
 30
0.0
 11
3711.2425999950760342
 21
120.2899493581542032
 31
0.0
  0
LINE
  5
6A1F
  8
0
 10
3711.2425997401592213
 20
109.2466390667541987
 30
0.0
 11
3711.2425999769761802
 21
118.1639651280542012
 31
0.0
  0
LINE
  5
6A20
  8
0
 10
3711.2202219290761604
 20
118.6057173764541943
 30
0.0
 11
3711.2202219290761604
 21
119.8482149324541979
 31
0.0
  0
LINE
  5
6A21
  8
0
 10
3711.1954119451761471
 20
121.9822696273541993
 30
0.0
 11
3711.2012670061749304
 21
121.7972982222148062
 31
0.0
  0
LINE
  5
6A22
  8
0
 10
3711.1887752303759953
 20
122.1919178959542052
 30
0.0
 11
3711.1954119451761471
 21
121.9822696273541993
 31
0.0
  0
LINE
  5
6A23
  8
0
 10
3710.762157781976839
 20
118.7436520087541965
 30
0.0
 11
3710.762157781976839
 21
118.7065207176542003
 31
0.0
  0
LINE
  5
6A24
  8
0
 10
3710.7550308260761085
 20
118.7188200754542038
 30
0.0
 11
3710.7550308260761085
 21
118.7483251189550941
 31
0.0
  0
ARC
  5
6A25
  8
0
 10
3710.6874335348561544
 20
120.1170091315438953
 30
0.0
 40
1.4124663814848371
 50
270.0534164497141205
 51
273.0325561463939721
  0
ARC
  5
6A26
  8
0
 10
3710.763843267575794
 20
119.5153309103541943
 30
0.0
 40
0.8051362520000001
 50
282.021189525898194
 51
282.6363302316428872
  0
ARC
  5
6A27
  8
0
 10
3711.135993980987223
 20
118.7796890170423012
 30
0.0
 40
0.0844065164251571
 50
273.7283194289070138
 51
356.2724072156971147
  0
ARC
  5
6A28
  8
0
 10
3711.1263283199850775
 20
119.6645596773908977
 30
0.0
 40
0.0951085861754789
 50
9.1680131315513744
 51
80.8320079368220519
  0
ARC
  5
6A29
  8
0
 10
3711.6119812445758726
 20
121.2234583685542049
 30
0.0
 40
0.1181102362
 50
193.7135420425742893
 51
227.9226379175966883
  0
ARC
  5
6A2A
  8
0
 10
3711.4800652194758186
 20
121.0773479998541973
 30
0.0
 40
0.0787401575
 50
0.0
 51
47.9226379177016213
  0
ARC
  5
6A2B
  8
0
 10
3710.6887185475820843
 20
119.9650145606102001
 30
0.0
 40
1.247957536582184
 50
270.0014608852389983
 51
273.0459401017641881
  0
ARC
  5
6A2C
  8
0
 10
3711.6117136569928334
 20
121.0555083830277994
 30
0.0
 40
0.021944018328679
 50
5.634674989303698
 51
84.4087970047103653
  0
ARC
  5
6A2D
  8
0
 10
3711.5100769276241408
 20
122.1757128483321964
 30
0.0
 40
0.093400860844393
 50
9.9895638941856095
 51
81.8245001909191956
  0
ARC
  5
6A2E
  8
0
 10
3711.1098532602868545
 20
122.1894388690439968
 30
0.0
 40
0.0789608949871306
 50
1.799132643194274
 51
85.5758686653500149
  0
ARC
  5
6A2F
  8
0
 10
3693.3393900958999438
 20
120.2561921368557023
 30
0.0
 40
17.9282362413089196
 50
3.0031193101260372
 51
4.9312145148102351
  0
ARC
  5
6A30
  8
0
 10
3711.1125347582228642
 20
121.9838968258649032
 30
0.0
 40
0.082893159501414
 50
272.8864740091065073
 51
358.8752076006318816
  0
ARC
  5
6A31
  8
0
 10
3700.2577191450800456
 20
117.8289418724377953
 30
0.0
 40
10.9899885110390194
 50
1.7468983572823491
 51
4.0530613784744522
  0
ARC
  5
6A32
  8
0
 10
3700.8103111251862174
 20
120.5970103446357058
 30
0.0
 40
10.4368068638957503
 50
355.8857426885231803
 51
358.3140592803320033
  0
ARC
  5
6A33
  8
0
 10
3711.2202961245288861
 20
121.0551514298814055
 30
0.0
 40
0.0224448322452776
 50
6.4247697137650359
 51
81.4702571859296683
  0
ARC
  5
6A34
  8
0
 10
3711.1365004735739603
 20
119.1534353496986967
 30
0.0
 40
0.4595318265434274
 50
254.0022045220391078
 51
265.2811877570978822
  0
ARC
  5
6A35
  8
0
 10
3710.6660889982381377
 20
117.521577716139106
 30
0.0
 40
1.238775720508672
 50
73.8887505839161776
 51
88.9518092746898361
  0
ARC
  5
6A36
  8
0
 10
3710.6936127450248932
 20
119.9241693120739001
 30
0.0
 40
1.2211772750101431
 50
269.7718640227408855
 51
281.8142683079593098
  0
ARC
  5
6A37
  8
0
 10
3710.7977552465631561
 20
119.4122078346808991
 30
0.0
 40
0.731912998421454
 50
281.6841984920623077
 51
286.8451401291869161
  0
ARC
  5
6A38
  8
0
 10
3710.6898185583431768
 20
119.8763965666145026
 30
0.0
 40
1.1299547915236561
 50
269.9458360096651859
 51
275.9007548754460117
  0
ARC
  5
6A39
  8
0
 10
3710.6949939816099686
 20
120.0093910454368
 30
0.0
 40
1.267519737543243
 50
273.0374322950360124
 51
276.1856613182544038
  0
LINE
  5
6A3A
  8
0
 10
3709.7439490887891225
 20
109.2466390667541987
 30
0.0
 11
3711.6335516453627861
 21
109.2466390667541987
 31
0.0
  0
LINE
  5
6A3B
  8
0
 10
3709.8541416732759899
 20
122.268164488354202
 30
0.0
 11
3711.5233590608759187
 21
122.268164488354202
 31
0.0
  0
LINE
  5
6A3C
  8
0
 10
3710.2607917111758979
 20
121.9011088351542043
 30
0.0
 11
3711.1167090229760106
 21
121.9011088351542043
 31
0.0
  0
ENDSEC
  0
EOF
