  0
SECTION
  2
HEADER
  9
$ACADVER
  1
AC1009
  9
$INSBASE
 10
3484.3602731029000097
 20
193.0070853839918072
 30
0.0
  9
$EXTMIN
 10
3481.1887793589758076
 20
191.8096444390918123
 30
0.0
  9
$EXTMAX
 10
3484.3602731029000097
 20
195.0119436517418023
 30
0.0
  9
$LIMMIN
 10
0.0
 20
0.0
  9
$LIMMAX
 10
11.6929133858000007
 20
8.2677165353999982
  9
$ORTHOMODE
 70
     0
  9
$REGENMODE
 70
     1
  9
$FILLMODE
 70
     1
  9
$QTEXTMODE
 70
     0
  9
$MIRRTEXT
 70
     0
  9
$DRAGMODE
 70
     2
  9
$LTSCALE
 40
0.6431102362
  9
$OSMODE
 70
  3839
  9
$ATTMODE
 70
     1
  9
$TEXTSIZE
 40
0.2
  9
$TRACEWID
 40
0.05
  9
$TEXTSTYLE
  7
STANDARD
  9
$CLAYER
  8
0
  9
$CELTYPE
  6
BYLAYER
  9
$CECOLOR
 62
   256
  9
$DIMSCALE
 40
1.0
  9
$DIMASZ
 40
0.1875
  9
$DIMEXO
 40
0.0625
  9
$DIMDLI
 40
0.4443307087
  9
$DIMRND
 40
0.0
  9
$DIMDLE
 40
0.0
  9
$DIMEXE
 40
0.125
  9
$DIMTP
 40
0.01
  9
$DIMTM
 40
0.01
  9
$DIMTXT
 40
2.0
  9
$DIMCEN
 40
0.1052362205
  9
$DIMTSZ
 40
0.0
  9
$DIMTOL
 70
     1
  9
$DIMLIM
 70
     0
  9
$DIMTIH
 70
     1
  9
$DIMTOH
 70
     1
  9
$DIMSE1
 70
     0
  9
$DIMSE2
 70
     0
  9
$DIMTAD
 70
     0
  9
$DIMZIN
 70
     0
  9
$DIMBLK
  1

  9
$DIMASO
 70
     1
  9
$DIMSHO
 70
     1
  9
$DIMPOST
  1
\X
  9
$DIMAPOST
  1

  9
$DIMALT
 70
     1
  9
$DIMALTD
 70
     2
  9
$DIMALTF
 40
25.3999999999999986
  9
$DIMLFAC
 40
1.0
  9
$DIMTOFL
 70
     0
  9
$DIMTVP
 40
0.0
  9
$DIMTIX
 70
     0
  9
$DIMSOXD
 70
     0
  9
$DIMSAH
 70
     0
  9
$DIMBLK1
  1

  9
$DIMBLK2
  1

  9
$DIMSTYLE
  2
STANDARD
  9
$DIMCLRD
 70
     0
  9
$DIMCLRE
 70
     0
  9
$DIMCLRT
 70
     0
  9
$DIMTFAC
 40
1.0
  9
$DIMGAP
 40
0.09
  9
$LUNITS
 70
     2
  9
$LUPREC
 70
     4
  9
$SKETCHINC
 40
0.1
  9
$FILLETRAD
 40
0.0
  9
$AUNITS
 70
     0
  9
$AUPREC
 70
     0
  9
$MENU
  1
.
  9
$ELEVATION
 40
0.0
  9
$PELEVATION
 40
0.0
  9
$THICKNESS
 40
0.0
  9
$LIMCHECK
 70
     0
  9
$BLIPMODE
 70
     0
  9
$CHAMFERA
 40
0.0
  9
$CHAMFERB
 40
0.0
  9
$SKPOLY
 70
     0
  9
$TDCREATE
 40
2458060.468368056230247
  9
$TDUPDATE
 40
2459023.867488426156342
  9
$TDINDWG
 40
0.7036181713
  9
$TDUSRTIMER
 40
0.7036181713
  9
$USRTIMER
 70
     1
  9
$ANGBASE
 50
0.0
  9
$ANGDIR
 70
     0
  9
$PDMODE
 70
     0
  9
$PDSIZE
 40
0.3125
  9
$PLINEWID
 40
0.0
  9
$COORDS
 70
     1
  9
$SPLFRAME
 70
     0
  9
$SPLINETYPE
 70
     6
  9
$SPLINESEGS
 70
     8
  9
$ATTDIA
 70
     1
  9
$ATTREQ
 70
     1
  9
$HANDLING
 70
     1
  9
$HANDSEED
  5
99BB
  9
$SURFTAB1
 70
     6
  9
$SURFTAB2
 70
     6
  9
$SURFTYPE
 70
     6
  9
$SURFU
 70
     6
  9
$SURFV
 70
     6
  9
$UCSNAME
  2

  9
$UCSORG
 10
0.0
 20
0.0
 30
0.0
  9
$UCSXDIR
 10
1.0
 20
0.0
 30
0.0
  9
$UCSYDIR
 10
0.0
 20
1.0
 30
0.0
  9
$PUCSNAME
  2

  9
$PUCSORG
 10
0.0
 20
0.0
 30
0.0
  9
$PUCSXDIR
 10
1.0
 20
0.0
 30
0.0
  9
$PUCSYDIR
 10
0.0
 20
1.0
 30
0.0
  9
$USERI1
 70
     0
  9
$USERI2
 70
     0
  9
$USERI3
 70
     0
  9
$USERI4
 70
     0
  9
$USERI5
 70
     0
  9
$USERR1
 40
0.0
  9
$USERR2
 40
0.0
  9
$USERR3
 40
0.0
  9
$USERR4
 40
0.0
  9
$USERR5
 40
0.0
  9
$WORLDVIEW
 70
     1
  9
$SHADEDGE
 70
     3
  9
$SHADEDIF
 70
    70
  9
$TILEMODE
 70
     1
  9
$MAXACTVP
 70
    64
  9
$PLIMCHECK
 70
     0
  9
$PEXTMIN
 10
1.0000000000000000E+20
 20
1.0000000000000000E+20
 30
1.0000000000000000E+20
  9
$PEXTMAX
 10
-1.0000000000000000E+20
 20
-1.0000000000000000E+20
 30
-1.0000000000000000E+20
  9
$PLIMMIN
 10
0.0
 20
0.0
  9
$PLIMMAX
 10
12.0
 20
9.0
  9
$UNITMODE
 70
     0
  9
$VISRETAIN
 70
     1
  9
$PLINEGEN
 70
     0
  9
$PSLTSCALE
 70
     1
  0
ENDSEC
  0
SECTION
  2
TABLES
  0
TABLE
  2
VPORT
 70
     1
  0
VPORT
  2
*ACTIVE
 70
     0
 10
0.0
 20
0.0
 11
1.0
 21
1.0
 12
2.7348002053630438
 22
0.0
 13
0.0
 23
0.0
 14
1.0
 24
1.0
 15
0.0
 25
0.0
 16
0.0
 26
0.0
 36
12.6856644354160792
 17
3482.7745361328129547
 27
193.4107971191405966
 37
0.0
 40
4.5071026353254533
 41
3.314341846758349
 42
50.0
 43
0.0
 44
0.0
 50
0.0
 51
0.0
 71
     0
 72
   100
 73
     1
 74
     1
 75
     0
 76
     0
 77
     0
 78
     0
  0
ENDTAB
  0
TABLE
  2
LTYPE
 70
     2
  0
LTYPE
  2
CONTINUOUS
 70
     0
  3
Solid line
 72
    65
 73
     0
 40
0.0
  0
LTYPE
  2
PHANTOM2
 70
     0
  3
___ _ _ ___ _ _ ___ _ _ ___ _ _
 72
    65
 73
     6
 40
1.25
 49
0.625
 49
-0.125
 49
0.125
 49
-0.125
 49
0.125
 49
-0.125
  0
ENDTAB
  0
TABLE
  2
LAYER
 70
     2
  0
LAYER
  2
0
 70
     0
 62
   255
  6
CONTINUOUS
  0
LAYER
  2
DEFPOINTS
 70
     0
 62
     7
  6
CONTINUOUS
  0
ENDTAB
  0
TABLE
  2
STYLE
 70
     1
  0
STYLE
  2
STANDARD
 70
     0
 40
0.0
 41
0.8
 50
0.0
 71
     0
 42
0.2
  3
txt
  4

  0
ENDTAB
  0
TABLE
  2
VIEW
 70
     0
  0
ENDTAB
  0
TABLE
  2
UCS
 70
     0
  0
ENDTAB
  0
TABLE
  2
APPID
 70
     9
  0
APPID
  2
ACAD
 70
     0
  0
APPID
  2
ACAD_MLEADERVER
 70
     0
  0
APPID
  2
ACAD_EXEMPT_FROM_CAD_STANDARDS
 70
     0
  0
APPID
  2
ACAD_NAV_VCDISPLAY
 70
     0
  0
APPID
  2
ACAECLAYERSTANDARD
 70
     0
  0
APPID
  2
ACCMTRANSPARENCY
 70
     0
  0
APPID
  2
ACAD_DSTYLE_DIMJAG
 70
     0
  0
APPID
  2
ACAD_DSTYLE_DIMTALN
 70
     0
  0
APPID
  2
ACDBATTR
 70
     0
  0
ENDTAB
  0
TABLE
  2
DIMSTYLE
 70
     1
  0
DIMSTYLE
  2
STANDARD
 70
     0
  3

  4

  5

  6

  7

 40
1.0
 41
0.1875
 42
0.0625
 43
0.38
 44
0.125
 45
0.0
 46
0.0
 47
0.01
 48
0.01
140
0.15625
141
0.09
142
0.0
143
25.3999999999999986
144
1.0
145
0.0
146
1.0
147
0.09
 71
     1
 72
     0
 73
     1
 74
     1
 75
     0
 76
     0
 77
     0
 78
     4
170
     0
171
     2
172
     0
173
     0
174
     0
175
     0
176
     0
177
     0
178
     0
  0
ENDTAB
  0
ENDSEC
  0
SECTION
  2
BLOCKS
  0
BLOCK
  8
0
  2
$MODEL_SPACE
 70
     0
 10
0.0
 20
0.0
 30
0.0
  3
$MODEL_SPACE
  1

  0
ENDBLK
  5
21
  8
0
  0
BLOCK
 67
     1
  8
0
  2
$PAPER_SPACE
 70
     0
 10
0.0
 20
0.0
 30
0.0
  3
$PAPER_SPACE
  1

  0
ENDBLK
  5
1D
 67
     1
  8
0
  0
BLOCK
  8
0
  2
_FILLED
 70
     0
 10
0.0
 20
0.0
 30
0.0
  3
_FILLED
  1

  0
SOLID
  5
6F59
  8
0
  6
BYBLOCK
 62
     0
 10
0.0
 20
0.0
 30
0.0
 11
-1.0
 21
0.1666666667
 31
0.0
 12
-1.0
 22
-0.1666666667
 32
0.0
 13
-1.0
 23
-0.1666666667
 33
0.0
  0
ENDBLK
  5
6F5A
  8
0
  6
BYBLOCK
 62
     0
  0
ENDSEC
  0
SECTION
  2
ENTITIES
  0
ATTDEF
  5
3930
  8
DEFPOINTS
 10
3484.3491821698999047
 20
193.0058167133142888
 30
0.0
 40
0.001
  1
K-10555T
  3

  2
MODELNUMBER
 70
     0
1001
ACDBATTR
1070
     0
1070
     1
  0
ATTDEF
  5
3931
  8
DEFPOINTS
 10
3484.3491821698999047
 20
193.0041500466477089
 30
0.0
 40
0.001
  1
DEVONSHIRE
  3

  2
TRADENAME
 70
     0
1001
ACDBATTR
1070
     0
1070
     1
  0
ATTDEF
  5
3932
  8
DEFPOINTS
 10
3484.3491821698999047
 20
193.0024833799809869
 30
0.0
 40
0.001
  1
ROBE HOOK
  3

  2
PRODUCT
 70
     0
1001
ACDBATTR
1070
     0
1070
     1
  0
ARC
  5
9815
  8
0
 10
3482.7778586631761755
 20
190.730637743698793
 30
0.0
 40
1.8881399421452301
 50
50.8002276802342365
 51
91.7931299671499943
  0
ARC
  5
9816
  8
0
 10
3483.9218204889471053
 20
192.1478825382947946
 30
0.0
 40
0.0674702463982613
 50
1.453474377987563
 51
42.940801545116102
  0
ARC
  5
9817
  8
0
 10
3484.0692783246599902
 20
192.1495939340987036
 30
0.0
 40
0.0800092977501135
 50
180.0
 51
260.4526481212880071
  0
ARC
  5
9818
  8
0
 10
3484.0427424363379032
 20
191.9918003284392967
 30
0.0
 40
0.080000000010963
 50
10.0792368537245505
 51
80.4553204812105065
  0
ARC
  5
9819
  8
0
 10
3484.200273102886058
 20
192.0198019193844061
 30
0.0
 40
0.0799999999846712
 50
190.0792366527822992
 51
259.3043758951992004
  0
ARC
  5
981A
  8
0
 10
3484.170578451817164
 20
191.8625816034357001
 30
0.0
 40
0.0800000001688696
 50
9.7379790685762178
 51
79.3043758938204206
  0
ARC
  5
981B
  8
0
 10
3484.3282731028998569
 20
191.8896444390917964
 30
0.0
 40
0.0799999999999974
 50
189.7379787166148049
 51
270.0
  0
ARC
  5
981C
  8
0
 10
3482.6342770399310211
 20
192.6532752849367967
 30
0.0
 40
0.0951898994821527
 50
207.4144586031320046
 51
332.5855413596249832
  0
ARC
  5
981D
  8
0
 10
3482.7778586631761755
 20
195.2835330241848055
 30
0.0
 40
1.8881399421452301
 50
268.2068700328500199
 51
309.1997723197648043
  0
ARC
  5
981E
  8
0
 10
3483.9216196095221676
 20
193.8664173858012134
 30
0.0
 40
0.0677053016736787
 50
317.0949930237034096
 51
357.6719032623332737
  0
ARC
  5
981F
  8
0
 10
3484.069284025566958
 20
193.8645668814943974
 30
0.0
 40
0.0800200578562436
 50
99.550195349432542
 51
180.6442899782813072
  0
ARC
  5
9820
  8
0
 10
3484.0427424363379032
 20
194.0223704394443871
 30
0.0
 40
0.080000000010963
 50
279.5446795187895077
 51
349.9207631462754193
  0
ARC
  5
9821
  8
0
 10
3484.200273102886058
 20
193.9943688484991924
 30
0.0
 40
0.0799999999846712
 50
100.6956241048007996
 51
169.9207633472175871
  0
ARC
  5
9822
  8
0
 10
3484.170578451817164
 20
194.1515891644478984
 30
0.0
 40
0.0800000001688696
 50
280.6956241061795936
 51
350.2620209314238195
  0
ARC
  5
9823
  8
0
 10
3484.328273103095853
 20
194.1245263286793943
 30
0.0
 40
0.0800000002123751
 50
90.0000001405151693
 51
170.2620212278295924
  0
ARC
  5
9824
  8
0
 10
3482.6342770399310211
 20
193.3608954858432014
 30
0.0
 40
0.09518989814859
 50
27.4144570927887088
 51
152.5855429444542892
  0
LINE
  5
9825
  8
0
 10
3484.3282731028998569
 20
194.2045263288918022
 30
0.0
 11
3484.3602731029000097
 21
194.2045263288918022
 31
0.0
  0
LINE
  5
9826
  8
0
 10
3484.3602731029000097
 20
194.2045263288918022
 30
0.0
 11
3484.3602731029000097
 21
191.8096444390918123
 31
0.0
  0
LINE
  5
9827
  8
0
 10
3484.3282731028998569
 20
191.8096444390918123
 30
0.0
 11
3484.3602731029000097
 21
191.8096444390918123
 31
0.0
  0
LINE
  5
9828
  8
0
 10
3484.2494257774001198
 20
191.8761130215202115
 30
0.0
 11
3484.2494257774001198
 21
194.138057746363387
 31
0.0
  0
LINE
  5
9829
  8
0
 10
3483.9892690269098239
 20
192.1495939340987036
 30
0.0
 11
3483.9892690269098239
 21
193.8636670763910956
 31
0.0
  0
LINE
  5
982A
  8
0
 10
3484.1215077696001572
 20
192.0058011240521978
 30
0.0
 11
3484.1215077696001572
 21
194.008369643831287
 31
0.0
  0
LINE
  5
982B
  8
0
 10
3482.7187770399341389
 20
192.6094475886368969
 30
0.0
 11
3482.7187770399341389
 21
193.4047231792467016
 31
0.0
  0
LINE
  5
982C
  8
0
 10
3482.5497770399001638
 20
192.6094475886918076
 30
0.0
 11
3482.5497770399001638
 21
193.4047231791917909
 31
0.0
  0
ARC
  5
982E
  8
0
 10
3481.1420638270660675
 20
193.8386538233714873
 30
0.0
 40
1.055114072615748
 50
340.4708391635566045
 51
346.2062384924473122
  0
ARC
  5
982F
  8
0
 10
3482.125766880476931
 20
193.654014517857604
 30
0.0
 40
0.0733858267999997
 50
294.2143853445912214
 51
65.7856146554967722
  0
ARC
  5
9830
  8
0
 10
3480.7760329265311157
 20
193.2922460555585928
 30
0.0
 40
0.8047457620691535
 50
3.4197192823699099
 51
21.4922729714813983
  0
ARC
  5
9831
  8
0
 10
3481.5638771166768493
 20
193.654014517857604
 30
0.0
 40
0.0733858267999997
 50
114.2143853445031993
 51
245.785614655408807
  0
LINE
  5
9832
  8
0
 10
3481.5337777709592046
 20
193.7209436517418055
 30
0.0
 11
3482.1558662261941208
 21
193.7209436517418055
 31
0.0
  0
LINE
  5
9833
  8
0
 10
3482.1667486696060223
 20
193.5870853839736014
 30
0.0
 11
3481.5248222907648596
 21
193.5870853839736014
 31
0.0
  0
ARC
  5
9834
  8
0
 10
3481.5547038882350535
 20
193.7359436516584879
 30
0.0
 40
0.0149999999166854
 50
164.2297741481129094
 51
270.0000001582848199
  0
ARC
  5
9835
  8
0
 10
3480.8098377479391274
 20
193.9463015161117028
 30
0.0
 40
0.7589999988538624
 50
344.229774148112881
 51
57.9303416755653089
  0
ARC
  5
9836
  8
0
 10
3481.2446816216261141
 20
194.6403200725775946
 30
0.0
 40
0.0599938663332278
 50
201.2828945696994083
 51
237.9312863538060867
  0
LINE
  5
9837
  8
0
 10
3481.1887793589771718
 20
194.6185439152417871
 30
0.0
 11
3481.1887793589771718
 21
194.6418343010417971
 31
0.0
  0
LINE
  5
9838
  8
0
 10
3481.1887793589771718
 20
194.6418343010417971
 30
0.0
 11
3481.2052825379091701
 21
194.6856665343418058
 31
0.0
  0
ARC
  5
9839
  8
0
 10
3481.302263486576976
 20
194.6428799056417915
 30
0.0
 40
0.1060000000000038
 50
119.7910286616954068
 51
156.1936034596355114
  0
ARC
  5
983A
  8
0
 10
3481.0992415219961913
 20
195.079179170877012
 30
0.0
 40
0.3757062443646597
 50
293.5905970074920788
 51
296.337131884574319
  0
ARC
  5
983B
  8
0
 10
3481.2518096741760019
 20
194.7809654042418117
 30
0.0
 40
0.0410000000000045
 50
290.1367002491923017
 51
351.9600058108966891
  0
ARC
  5
983C
  8
0
 10
3481.3537972542881107
 20
194.7665593809198015
 30
0.0
 40
0.0620000000230938
 50
96.8023008474662703
 51
171.9600058138944974
  0
ARC
  5
983D
  8
0
 10
3481.3438479715441645
 20
194.849968084050289
 30
0.0
 40
0.0219999998876584
 50
276.802300673469972
 51
356.0964322449660244
  0
ARC
  5
983E
  8
0
 10
3481.4675602965908183
 20
194.8415264842375052
 30
0.0
 40
0.1020000000139632
 50
122.9343633132242957
 51
176.0964320710457969
  0
ARC
  5
983F
  8
0
 10
3481.5909794832591615
 20
194.6510095440995087
 30
0.0
 40
0.3290000002549181
 50
103.7042199117520056
 51
122.935255440463294
  0
LINE
  5
9840
  8
0
 10
3481.5130361914611967
 20
194.9706434650643132
 30
0.0
 11
3481.6713132487770963
 21
195.0002000059417924
 31
0.0
  0
LINE
  5
9841
  8
0
 10
3481.6713132487770963
 20
195.0002000059417924
 30
0.0
 11
3481.8448219985771175
 21
195.0119436517418023
 31
0.0
  0
ARC
  5
9842
  8
0
 10
3482.1349401089178173
 20
193.7359436516584879
 30
0.0
 40
0.0149999999166854
 50
269.9999998417151801
 51
15.7702258518870604
  0
ARC
  5
9843
  8
0
 10
3482.879806249214198
 20
193.9463015161117028
 30
0.0
 40
0.7589999988538624
 50
122.0696583244346982
 51
195.7702258518870053
  0
ARC
  5
9844
  8
0
 10
3482.4449623755272114
 20
194.6403200725775946
 30
0.0
 40
0.0599938663332325
 50
302.0687136461939986
 51
338.7171054302975222
  0
LINE
  5
9845
  8
0
 10
3482.5008646381770632
 20
194.6185439152417871
 30
0.0
 11
3482.5008646381770632
 21
194.6418343010417971
 31
0.0
  0
LINE
  5
9846
  8
0
 10
3482.5008646381770632
 20
194.6418343010417971
 30
0.0
 11
3482.4843614592450649
 21
194.6856665343418058
 31
0.0
  0
ARC
  5
9847
  8
0
 10
3482.3873805105758947
 20
194.6428799056417915
 30
0.0
 40
0.1060000000000038
 50
23.8063965403644886
 51
60.2089713383045932
  0
ARC
  5
9848
  8
0
 10
3482.5904024751571342
 20
195.079179170877012
 30
0.0
 40
0.3757062443646597
 50
243.6628681154257094
 51
246.4094029925078075
  0
ARC
  5
9849
  8
0
 10
3482.4378343229768689
 20
194.7809654042418117
 30
0.0
 40
0.0410000000000045
 50
188.0399941891033109
 51
249.863299750807812
  0
ARC
  5
984A
  8
0
 10
3482.3358467428661243
 20
194.7665593809198015
 30
0.0
 40
0.0620000000230938
 50
8.0399941861055169
 51
83.1976991525337155
  0
ARC
  5
984B
  8
0
 10
3482.345796025609161
 20
194.849968084050289
 30
0.0
 40
0.0219999998876584
 50
183.903567755034004
 51
263.197699326530028
  0
ARC
  5
984C
  8
0
 10
3482.2220837005629619
 20
194.8415264842375052
 30
0.0
 40
0.1020000000139632
 50
3.9035679289541609
 51
57.0656366867756191
  0
ARC
  5
984D
  8
0
 10
3482.0986645138950735
 20
194.6510095440995087
 30
0.0
 40
0.3290000002549181
 50
57.0647445595366918
 51
76.2957800882479944
  0
LINE
  5
984E
  8
0
 10
3482.1766078056930382
 20
194.9706434650643132
 30
0.0
 11
3482.0183307483771387
 21
195.0002000059417924
 31
0.0
  0
LINE
  5
984F
  8
0
 10
3482.0183307483771387
 20
195.0002000059417924
 30
0.0
 11
3481.8448219985771175
 21
195.0119436517418023
 31
0.0
  0
LINE
  5
9850
  8
0
 10
3481.1887793589771718
 20
194.6185439152417871
 30
0.0
 11
3482.5008646381770632
 21
194.6185439152417871
 31
0.0
  0
LINE
  5
9851
  8
0
 10
3481.1887793589771718
 20
194.6418343010417971
 30
0.0
 11
3482.5008646381770632
 21
194.6418343010417971
 31
0.0
  0
LINE
  5
9852
  8
0
 10
3481.2495986500180152
 20
194.7348712910545885
 30
0.0
 11
3482.4400453471362198
 21
194.7348712910545885
 31
0.0
  0
LINE
  5
9853
  8
0
 10
3481.3464537360127906
 20
194.8281229475985867
 30
0.0
 11
3482.3431902611400801
 21
194.8281229475985867
 31
0.0
  0
ARC
  5
9854
  8
0
 10
3482.2819637591228457
 20
193.4431294575994116
 30
0.0
 40
0.1516539441713355
 50
163.6016935383663053
 51
293.1313257092922981
  0
LINE
  5
9855
  8
0
 10
3482.3415394882072178
 20
193.3036674509928048
 30
0.0
 11
3482.5276032763608782
 21
193.3996538076700062
 31
0.0
  0
ARC
  5
9856
  8
0
 10
3482.5348162128461809
 20
193.3865465529671894
 30
0.0
 40
0.0149608271878951
 50
0.0076464934531924
 51
118.8239947290810932
  0
ARC
  5
9857
  8
0
 10
3482.4275555956901371
 20
193.4317449444328076
 30
0.0
 40
0.8531303995304766
 50
186.1566537839999
 51
209.8523291520027101
  0
ARC
  5
9858
  8
0
 10
3482.1574012420978761
 20
193.309579100010609
 30
0.0
 40
0.5587407106336798
 50
212.7779565786921978
 51
266.5609447688083833
  0
ARC
  5
9859
  8
0
 10
3482.1223469235078483
 20
192.1649698483655015
 30
0.0
 40
0.5868767512090002
 50
68.1766346414194118
 51
89.8499207205672832
  0
ARC
  5
985A
  8
0
 10
3480.565842417190197
 20
188.9281242359101043
 30
0.0
 40
4.1773730503779634
 50
61.8782042935191328
 51
64.8600896132249858
  0
ARC
  5
98A9
  8
0
 10
3482.5329550952578757
 20
192.6291681503604138
 30
0.0
 40
0.0169245561485917
 50
276.3820996188725871
 51
353.6875683875970822
  0
ENDSEC
  0
EOF
