  0
SECTION
  2
HEADER
  9
$ACADVER
  1
AC1009
  9
$INSBASE
 10
3479.3090546914318111
 20
185.627655654499705
 30
0.0
  9
$EXTMIN
 10
3478.1116137465319298
 20
184.4302147095995963
 30
0.0
  9
$EXTMAX
 10
3480.5064956363321471
 20
187.6325139222495864
 30
0.0
  9
$LIMMIN
 10
0.0
 20
0.0
  9
$LIMMAX
 10
11.6929133858000007
 20
8.2677165353999982
  9
$ORTHOMODE
 70
     0
  9
$REGENMODE
 70
     1
  9
$FILLMODE
 70
     1
  9
$QTEXTMODE
 70
     0
  9
$MIRRTEXT
 70
     0
  9
$DRAGMODE
 70
     2
  9
$LTSCALE
 40
0.6431102362
  9
$OSMODE
 70
  3839
  9
$ATTMODE
 70
     1
  9
$TEXTSIZE
 40
0.2
  9
$TRACEWID
 40
0.05
  9
$TEXTSTYLE
  7
STANDARD
  9
$CLAYER
  8
0
  9
$CELTYPE
  6
BYLAYER
  9
$CECOLOR
 62
   256
  9
$DIMSCALE
 40
1.0
  9
$DIMASZ
 40
0.1875
  9
$DIMEXO
 40
0.0625
  9
$DIMDLI
 40
0.4443307087
  9
$DIMRND
 40
0.0
  9
$DIMDLE
 40
0.0
  9
$DIMEXE
 40
0.125
  9
$DIMTP
 40
0.01
  9
$DIMTM
 40
0.01
  9
$DIMTXT
 40
2.0
  9
$DIMCEN
 40
0.1052362205
  9
$DIMTSZ
 40
0.0
  9
$DIMTOL
 70
     1
  9
$DIMLIM
 70
     0
  9
$DIMTIH
 70
     1
  9
$DIMTOH
 70
     1
  9
$DIMSE1
 70
     0
  9
$DIMSE2
 70
     0
  9
$DIMTAD
 70
     0
  9
$DIMZIN
 70
     0
  9
$DIMBLK
  1

  9
$DIMASO
 70
     1
  9
$DIMSHO
 70
     1
  9
$DIMPOST
  1
\X
  9
$DIMAPOST
  1

  9
$DIMALT
 70
     1
  9
$DIMALTD
 70
     2
  9
$DIMALTF
 40
25.3999999999999986
  9
$DIMLFAC
 40
1.0
  9
$DIMTOFL
 70
     0
  9
$DIMTVP
 40
0.0
  9
$DIMTIX
 70
     0
  9
$DIMSOXD
 70
     0
  9
$DIMSAH
 70
     0
  9
$DIMBLK1
  1

  9
$DIMBLK2
  1

  9
$DIMSTYLE
  2
STANDARD
  9
$DIMCLRD
 70
     0
  9
$DIMCLRE
 70
     0
  9
$DIMCLRT
 70
     0
  9
$DIMTFAC
 40
1.0
  9
$DIMGAP
 40
0.09
  9
$LUNITS
 70
     2
  9
$LUPREC
 70
     4
  9
$SKETCHINC
 40
0.1
  9
$FILLETRAD
 40
0.0
  9
$AUNITS
 70
     0
  9
$AUPREC
 70
     0
  9
$MENU
  1
.
  9
$ELEVATION
 40
0.0
  9
$PELEVATION
 40
0.0
  9
$THICKNESS
 40
0.0
  9
$LIMCHECK
 70
     0
  9
$BLIPMODE
 70
     0
  9
$CHAMFERA
 40
0.0
  9
$CHAMFERB
 40
0.0
  9
$SKPOLY
 70
     0
  9
$TDCREATE
 40
2458060.468368056230247
  9
$TDUPDATE
 40
2459023.868159722071141
  9
$TDINDWG
 40
0.6966390045999999
  9
$TDUSRTIMER
 40
0.6966390045999999
  9
$USRTIMER
 70
     1
  9
$ANGBASE
 50
0.0
  9
$ANGDIR
 70
     0
  9
$PDMODE
 70
     0
  9
$PDSIZE
 40
0.3125
  9
$PLINEWID
 40
0.0
  9
$COORDS
 70
     1
  9
$SPLFRAME
 70
     0
  9
$SPLINETYPE
 70
     6
  9
$SPLINESEGS
 70
     8
  9
$ATTDIA
 70
     1
  9
$ATTREQ
 70
     1
  9
$HANDLING
 70
     1
  9
$HANDSEED
  5
96E1
  9
$SURFTAB1
 70
     6
  9
$SURFTAB2
 70
     6
  9
$SURFTYPE
 70
     6
  9
$SURFU
 70
     6
  9
$SURFV
 70
     6
  9
$UCSNAME
  2

  9
$UCSORG
 10
0.0
 20
0.0
 30
0.0
  9
$UCSXDIR
 10
1.0
 20
0.0
 30
0.0
  9
$UCSYDIR
 10
0.0
 20
1.0
 30
0.0
  9
$PUCSNAME
  2

  9
$PUCSORG
 10
0.0
 20
0.0
 30
0.0
  9
$PUCSXDIR
 10
1.0
 20
0.0
 30
0.0
  9
$PUCSYDIR
 10
0.0
 20
1.0
 30
0.0
  9
$USERI1
 70
     0
  9
$USERI2
 70
     0
  9
$USERI3
 70
     0
  9
$USERI4
 70
     0
  9
$USERI5
 70
     0
  9
$USERR1
 40
0.0
  9
$USERR2
 40
0.0
  9
$USERR3
 40
0.0
  9
$USERR4
 40
0.0
  9
$USERR5
 40
0.0
  9
$WORLDVIEW
 70
     1
  9
$SHADEDGE
 70
     3
  9
$SHADEDIF
 70
    70
  9
$TILEMODE
 70
     1
  9
$MAXACTVP
 70
    64
  9
$PLIMCHECK
 70
     0
  9
$PEXTMIN
 10
1.0000000000000000E+20
 20
1.0000000000000000E+20
 30
1.0000000000000000E+20
  9
$PEXTMAX
 10
-1.0000000000000000E+20
 20
-1.0000000000000000E+20
 30
-1.0000000000000000E+20
  9
$PLIMMIN
 10
0.0
 20
0.0
  9
$PLIMMAX
 10
12.0
 20
9.0
  9
$UNITMODE
 70
     0
  9
$VISRETAIN
 70
     1
  9
$PLINEGEN
 70
     0
  9
$PSLTSCALE
 70
     1
  0
ENDSEC
  0
SECTION
  2
TABLES
  0
TABLE
  2
VPORT
 70
     1
  0
VPORT
  2
*ACTIVE
 70
     0
 10
0.0
 20
0.0
 11
1.0
 21
1.0
 12
0.0
 22
0.0
 13
0.0
 23
0.0
 14
1.0
 24
1.0
 15
0.0
 25
0.0
 16
0.0
 26
0.0
 36
16.5977497628936987
 17
3479.30908203125
 27
186.0313644409179119
 37
0.0
 40
3.9979667548683011
 41
3.314341846758349
 42
50.0
 43
0.0
 44
0.0
 50
0.0
 51
0.0
 71
     0
 72
   100
 73
     1
 74
     1
 75
     0
 76
     0
 77
     0
 78
     0
  0
ENDTAB
  0
TABLE
  2
LTYPE
 70
     2
  0
LTYPE
  2
CONTINUOUS
 70
     0
  3
Solid line
 72
    65
 73
     0
 40
0.0
  0
LTYPE
  2
PHANTOM2
 70
     0
  3
___ _ _ ___ _ _ ___ _ _ ___ _ _
 72
    65
 73
     6
 40
1.25
 49
0.625
 49
-0.125
 49
0.125
 49
-0.125
 49
0.125
 49
-0.125
  0
ENDTAB
  0
TABLE
  2
LAYER
 70
     2
  0
LAYER
  2
0
 70
     0
 62
   255
  6
CONTINUOUS
  0
LAYER
  2
DEFPOINTS
 70
     0
 62
     7
  6
CONTINUOUS
  0
ENDTAB
  0
TABLE
  2
STYLE
 70
     1
  0
STYLE
  2
STANDARD
 70
     0
 40
0.0
 41
0.8
 50
0.0
 71
     0
 42
0.2
  3
txt
  4

  0
ENDTAB
  0
TABLE
  2
VIEW
 70
     0
  0
ENDTAB
  0
TABLE
  2
UCS
 70
     0
  0
ENDTAB
  0
TABLE
  2
APPID
 70
     9
  0
APPID
  2
ACAD
 70
     0
  0
APPID
  2
ACAD_MLEADERVER
 70
     0
  0
APPID
  2
ACAD_EXEMPT_FROM_CAD_STANDARDS
 70
     0
  0
APPID
  2
ACAD_NAV_VCDISPLAY
 70
     0
  0
APPID
  2
ACAECLAYERSTANDARD
 70
     0
  0
APPID
  2
ACCMTRANSPARENCY
 70
     0
  0
APPID
  2
ACAD_DSTYLE_DIMJAG
 70
     0
  0
APPID
  2
ACAD_DSTYLE_DIMTALN
 70
     0
  0
APPID
  2
ACDBATTR
 70
     0
  0
ENDTAB
  0
TABLE
  2
DIMSTYLE
 70
     1
  0
DIMSTYLE
  2
STANDARD
 70
     0
  3

  4

  5

  6

  7

 40
1.0
 41
0.1875
 42
0.0625
 43
0.38
 44
0.125
 45
0.0
 46
0.0
 47
0.01
 48
0.01
140
0.15625
141
0.09
142
0.0
143
25.3999999999999986
144
1.0
145
0.0
146
1.0
147
0.09
 71
     1
 72
     0
 73
     1
 74
     1
 75
     0
 76
     0
 77
     0
 78
     4
170
     0
171
     2
172
     0
173
     0
174
     0
175
     0
176
     0
177
     0
178
     0
  0
ENDTAB
  0
ENDSEC
  0
SECTION
  2
BLOCKS
  0
BLOCK
  8
0
  2
$MODEL_SPACE
 70
     0
 10
0.0
 20
0.0
 30
0.0
  3
$MODEL_SPACE
  1

  0
ENDBLK
  5
21
  8
0
  0
BLOCK
 67
     1
  8
0
  2
$PAPER_SPACE
 70
     0
 10
0.0
 20
0.0
 30
0.0
  3
$PAPER_SPACE
  1

  0
ENDBLK
  5
1D
 67
     1
  8
0
  0
BLOCK
  8
0
  2
_FILLED
 70
     0
 10
0.0
 20
0.0
 30
0.0
  3
_FILLED
  1

  0
SOLID
  5
6F59
  8
0
  6
BYBLOCK
 62
     0
 10
0.0
 20
0.0
 30
0.0
 11
-1.0
 21
0.1666666667
 31
0.0
 12
-1.0
 22
-0.1666666667
 32
0.0
 13
-1.0
 23
-0.1666666667
 33
0.0
  0
ENDBLK
  5
6F5A
  8
0
  6
BYBLOCK
 62
     0
  0
ENDSEC
  0
SECTION
  2
ENTITIES
  0
ATTDEF
  5
3930
  8
DEFPOINTS
 10
3479.3095944273309215
 20
185.6261756711465978
 30
0.0
 40
0.001
  1
K-10555T
  3

  2
MODELNUMBER
 70
     0
1001
ACDBATTR
1070
     0
1070
     1
  0
ATTDEF
  5
3931
  8
DEFPOINTS
 10
3479.3095944273309215
 20
185.6245090044799895
 30
0.0
 40
0.001
  1
DEVONSHIRE
  3

  2
TRADENAME
 70
     0
1001
ACDBATTR
1070
     0
1070
     1
  0
ATTDEF
  5
3932
  8
DEFPOINTS
 10
3479.3095944273309215
 20
185.6228423378132959
 30
0.0
 40
0.001
  1
ROBE HOOK
  3

  2
PRODUCT
 70
     0
1001
ACDBATTR
1070
     0
1070
     1
  0
ARC
  5
95A4
  8
0
 10
3479.3090546914818333
 20
185.627655654499705
 30
0.0
 40
0.3947369031579111
 50
129.3748373816331991
 51
50.618120524469532
  0
ARC
  5
95A5
  8
0
 10
3481.3621742069030915
 20
185.6236066739415946
 30
0.0
 40
1.8289821449919399
 50
161.3775853196802927
 51
170.2685164257954114
  0
ARC
  5
95A6
  8
0
 10
3479.5899995733570904
 20
186.2745847883655017
 30
0.0
 40
0.0733858267999997
 50
294.2143853445912214
 51
65.7856146554967722
  0
ARC
  5
95A7
  8
0
 10
3477.282681562191101
 20
185.6294453772468955
 30
0.0
 40
1.8016762689639261
 50
9.6930127556133492
 51
18.7191199893748284
  0
ARC
  5
95A8
  8
0
 10
3479.0281098095570087
 20
186.2745847883655017
 30
0.0
 40
0.0733858267999997
 50
114.2143853445031993
 51
245.785614655408807
  0
LINE
  5
95A9
  8
0
 10
3478.9980104638389093
 20
186.3415139222495895
 30
0.0
 11
3479.6200989190751898
 21
186.3415139222495895
 31
0.0
  0
LINE
  5
95AA
  8
0
 10
3479.6289510605570285
 20
186.2076556544814139
 30
0.0
 11
3478.9890549836459286
 21
186.2076556544814139
 31
0.0
  0
ARC
  5
95AB
  8
0
 10
3479.3090546914318111
 20
185.627655654499705
 30
0.0
 40
1.197440944899999
 50
104.9023988250925044
 51
75.0976011726156827
  0
ARC
  5
95AC
  8
0
 10
3479.3090546915041159
 20
185.627655654499705
 30
0.0
 40
1.0658936225
 50
105.2971872172286965
 51
74.7028127878760841
  0
ARC
  5
95AD
  8
0
 10
3479.3090546914318111
 20
185.627655654499705
 30
0.0
 40
0.9363925276999998
 50
107.2262888857993062
 51
72.7737111109278629
  0
ARC
  5
95AF
  8
0
 10
3479.0189365811152129
 20
186.3565139221663003
 30
0.0
 40
0.0149999999166854
 50
164.2297741481129094
 51
270.0000001582848199
  0
ARC
  5
95B0
  8
0
 10
3478.2740704408188321
 20
186.5668717866196005
 30
0.0
 40
0.7589999988538624
 50
344.229774148112881
 51
57.9303416755653089
  0
ARC
  5
95B1
  8
0
 10
3478.7089143145058188
 20
187.260890343085407
 30
0.0
 40
0.0599938663332278
 50
201.2828945696994083
 51
237.9312863538060867
  0
LINE
  5
95B2
  8
0
 10
3478.6530120518568765
 20
187.2391141857495995
 30
0.0
 11
3478.6530120518568765
 21
187.2624045715496948
 31
0.0
  0
LINE
  5
95B3
  8
0
 10
3478.6530120518568765
 20
187.2624045715496948
 30
0.0
 11
3478.6695152307897843
 21
187.3062368048497035
 31
0.0
  0
ARC
  5
95B4
  8
0
 10
3478.7664961794571354
 20
187.2634501761496892
 30
0.0
 40
0.1060000000000038
 50
119.7910286616954068
 51
156.1936034596355114
  0
ARC
  5
95B5
  8
0
 10
3478.563474214875896
 20
187.699749441384796
 30
0.0
 40
0.3757062443646597
 50
293.5905970074920788
 51
296.337131884574319
  0
ARC
  5
95B6
  8
0
 10
3478.7160423670561613
 20
187.4015356747497094
 30
0.0
 40
0.0410000000000045
 50
290.1367002491923017
 51
351.9600058108966891
  0
ARC
  5
95B7
  8
0
 10
3478.8180299471678154
 20
187.3871296514276992
 30
0.0
 40
0.0620000000230938
 50
96.8023008474662703
 51
171.9600058138944974
  0
ARC
  5
95B8
  8
0
 10
3478.8080806644247787
 20
187.4705383545581867
 30
0.0
 40
0.0219999998876584
 50
276.802300673469972
 51
356.0964322449660244
  0
ARC
  5
95B9
  8
0
 10
3478.9317929894709778
 20
187.4620967547454029
 30
0.0
 40
0.1020000000139632
 50
122.9343633132242957
 51
176.0964320710457969
  0
ARC
  5
95BA
  8
0
 10
3479.0552121761388662
 20
187.2715798146074064
 30
0.0
 40
0.3290000002549181
 50
103.7042199117520056
 51
122.935255440463294
  0
LINE
  5
95BB
  8
0
 10
3478.9772688843409014
 20
187.5912137355722109
 30
0.0
 11
3479.135545941656801
 21
187.6207702764496901
 31
0.0
  0
LINE
  5
95BC
  8
0
 10
3479.135545941656801
 20
187.6207702764496901
 30
0.0
 11
3479.3090546914568222
 21
187.6325139222495864
 31
0.0
  0
ARC
  5
95BD
  8
0
 10
3479.5991728017979767
 20
186.3565139221663003
 30
0.0
 40
0.0149999999166854
 50
269.9999998417151801
 51
15.7702258518870604
  0
ARC
  5
95BE
  8
0
 10
3480.3440389420939027
 20
186.5668717866196005
 30
0.0
 40
0.7589999988538624
 50
122.0696583244346982
 51
195.7702258518870053
  0
ARC
  5
95BF
  8
0
 10
3479.9091950684069161
 20
187.260890343085407
 30
0.0
 40
0.0599938663332325
 50
302.0687136461939986
 51
338.7171054302975222
  0
LINE
  5
95C0
  8
0
 10
3479.9650973310572226
 20
187.2391141857495995
 30
0.0
 11
3479.9650973310572226
 21
187.2624045715496948
 31
0.0
  0
LINE
  5
95C1
  8
0
 10
3479.9650973310572226
 20
187.2624045715496948
 30
0.0
 11
3479.9485941521252244
 21
187.3062368048497035
 31
0.0
  0
ARC
  5
95C2
  8
0
 10
3479.8516132034569637
 20
187.2634501761496892
 30
0.0
 40
0.1060000000000038
 50
23.8063965403644886
 51
60.2089713383045932
  0
ARC
  5
95C3
  8
0
 10
3480.0546351680382031
 20
187.699749441384796
 30
0.0
 40
0.3757062443646597
 50
243.6628681154257094
 51
246.4094029925078075
  0
ARC
  5
95C4
  8
0
 10
3479.9020670158570283
 20
187.4015356747497094
 30
0.0
 40
0.0410000000000045
 50
188.0399941891033109
 51
249.863299750807812
  0
ARC
  5
95C5
  8
0
 10
3479.800079435745829
 20
187.3871296514276992
 30
0.0
 40
0.0620000000230938
 50
8.0399941861055169
 51
83.1976991525337155
  0
ARC
  5
95C6
  8
0
 10
3479.8100287184888657
 20
187.4705383545581867
 30
0.0
 40
0.0219999998876584
 50
183.903567755034004
 51
263.197699326530028
  0
ARC
  5
95C7
  8
0
 10
3479.6863163934431213
 20
187.4620967547454029
 30
0.0
 40
0.1020000000139632
 50
3.9035679289541609
 51
57.0656366867756191
  0
ARC
  5
95C8
  8
0
 10
3479.5628972067747782
 20
187.2715798146074064
 30
0.0
 40
0.3290000002549181
 50
57.0647445595366918
 51
76.2957800882479944
  0
LINE
  5
95C9
  8
0
 10
3479.6408404985731977
 20
187.5912137355722109
 30
0.0
 11
3479.4825634412568434
 21
187.6207702764496901
 31
0.0
  0
LINE
  5
95CA
  8
0
 10
3479.4825634412568434
 20
187.6207702764496901
 30
0.0
 11
3479.3090546914568222
 21
187.6325139222495864
 31
0.0
  0
ARC
  5
95CB
  8
0
 10
3479.3090546914568222
 20
185.6276556553119121
 30
0.0
 40
0.448999999349382
 50
125.6453015646921045
 51
54.3451375362073108
  0
LINE
  5
95CC
  8
0
 10
3478.6530120518568765
 20
187.2391141857495995
 30
0.0
 11
3479.9650973310572226
 21
187.2391141857495995
 31
0.0
  0
LINE
  5
95CD
  8
0
 10
3478.6530120518568765
 20
187.2624045715496948
 30
0.0
 11
3479.9650973310572226
 21
187.2624045715496948
 31
0.0
  0
LINE
  5
95CE
  8
0
 10
3478.7138313428981746
 20
187.3554415615624862
 30
0.0
 11
3479.904278040016834
 21
187.3554415615624862
 31
0.0
  0
LINE
  5
95CF
  8
0
 10
3478.8106864288929501
 20
187.4486932181065129
 30
0.0
 11
3479.8074229540211491
 21
187.4486932181065129
 31
0.0
  0
ENDSEC
  0
EOF
