  0
SECTION
  2
HEADER
  9
$ACADVER
  1
AC1009
  9
$INSBASE
 10
3471.123315461366019
 20
204.1014885673232016
 30
0.0
  9
$EXTMIN
 10
3457.9258745164661377
 20
200.4097145434232061
 30
0.0
  9
$EXTMAX
 10
3484.3207564062668098
 20
204.1063027575158912
 30
0.0
  9
$LIMMIN
 10
0.0
 20
0.0
  9
$LIMMAX
 10
11.6929133858000007
 20
8.2677165353999982
  9
$ORTHOMODE
 70
     0
  9
$REGENMODE
 70
     1
  9
$FILLMODE
 70
     1
  9
$QTEXTMODE
 70
     0
  9
$MIRRTEXT
 70
     0
  9
$DRAGMODE
 70
     2
  9
$LTSCALE
 40
0.6431102362
  9
$OSMODE
 70
  3839
  9
$ATTMODE
 70
     1
  9
$TEXTSIZE
 40
0.2
  9
$TRACEWID
 40
0.05
  9
$TEXTSTYLE
  7
STANDARD
  9
$CLAYER
  8
0
  9
$CELTYPE
  6
BYLAYER
  9
$CECOLOR
 62
   256
  9
$DIMSCALE
 40
1.0
  9
$DIMASZ
 40
0.1875
  9
$DIMEXO
 40
0.0625
  9
$DIMDLI
 40
0.4443307087
  9
$DIMRND
 40
0.0
  9
$DIMDLE
 40
0.0
  9
$DIMEXE
 40
0.125
  9
$DIMTP
 40
0.01
  9
$DIMTM
 40
0.01
  9
$DIMTXT
 40
2.0
  9
$DIMCEN
 40
0.1052362205
  9
$DIMTSZ
 40
0.0
  9
$DIMTOL
 70
     1
  9
$DIMLIM
 70
     0
  9
$DIMTIH
 70
     1
  9
$DIMTOH
 70
     1
  9
$DIMSE1
 70
     0
  9
$DIMSE2
 70
     0
  9
$DIMTAD
 70
     0
  9
$DIMZIN
 70
     0
  9
$DIMBLK
  1

  9
$DIMASO
 70
     1
  9
$DIMSHO
 70
     1
  9
$DIMPOST
  1
\X
  9
$DIMAPOST
  1

  9
$DIMALT
 70
     1
  9
$DIMALTD
 70
     2
  9
$DIMALTF
 40
25.3999999999999986
  9
$DIMLFAC
 40
1.0
  9
$DIMTOFL
 70
     0
  9
$DIMTVP
 40
0.0
  9
$DIMTIX
 70
     0
  9
$DIMSOXD
 70
     0
  9
$DIMSAH
 70
     0
  9
$DIMBLK1
  1

  9
$DIMBLK2
  1

  9
$DIMSTYLE
  2
STANDARD
  9
$DIMCLRD
 70
     0
  9
$DIMCLRE
 70
     0
  9
$DIMCLRT
 70
     0
  9
$DIMTFAC
 40
1.0
  9
$DIMGAP
 40
0.09
  9
$LUNITS
 70
     2
  9
$LUPREC
 70
     4
  9
$SKETCHINC
 40
0.1
  9
$FILLETRAD
 40
0.0
  9
$AUNITS
 70
     0
  9
$AUPREC
 70
     0
  9
$MENU
  1
.
  9
$ELEVATION
 40
0.0
  9
$PELEVATION
 40
0.0
  9
$THICKNESS
 40
0.0
  9
$LIMCHECK
 70
     0
  9
$BLIPMODE
 70
     0
  9
$CHAMFERA
 40
0.0
  9
$CHAMFERB
 40
0.0
  9
$SKPOLY
 70
     0
  9
$TDCREATE
 40
2458060.468368056230247
  9
$TDUPDATE
 40
2459023.8745833327993751
  9
$TDINDWG
 40
0.6885834491
  9
$TDUSRTIMER
 40
0.6885834491
  9
$USRTIMER
 70
     1
  9
$ANGBASE
 50
0.0
  9
$ANGDIR
 70
     0
  9
$PDMODE
 70
     0
  9
$PDSIZE
 40
0.3125
  9
$PLINEWID
 40
0.0
  9
$COORDS
 70
     1
  9
$SPLFRAME
 70
     0
  9
$SPLINETYPE
 70
     6
  9
$SPLINESEGS
 70
     8
  9
$ATTDIA
 70
     1
  9
$ATTREQ
 70
     1
  9
$HANDLING
 70
     1
  9
$HANDSEED
  5
96A4
  9
$SURFTAB1
 70
     6
  9
$SURFTAB2
 70
     6
  9
$SURFTYPE
 70
     6
  9
$SURFU
 70
     6
  9
$SURFV
 70
     6
  9
$UCSNAME
  2

  9
$UCSORG
 10
0.0
 20
0.0
 30
0.0
  9
$UCSXDIR
 10
1.0
 20
0.0
 30
0.0
  9
$UCSYDIR
 10
0.0
 20
1.0
 30
0.0
  9
$PUCSNAME
  2

  9
$PUCSORG
 10
0.0
 20
0.0
 30
0.0
  9
$PUCSXDIR
 10
1.0
 20
0.0
 30
0.0
  9
$PUCSYDIR
 10
0.0
 20
1.0
 30
0.0
  9
$USERI1
 70
     0
  9
$USERI2
 70
     0
  9
$USERI3
 70
     0
  9
$USERI4
 70
     0
  9
$USERI5
 70
     0
  9
$USERR1
 40
0.0
  9
$USERR2
 40
0.0
  9
$USERR3
 40
0.0
  9
$USERR4
 40
0.0
  9
$USERR5
 40
0.0
  9
$WORLDVIEW
 70
     1
  9
$SHADEDGE
 70
     3
  9
$SHADEDIF
 70
    70
  9
$TILEMODE
 70
     1
  9
$MAXACTVP
 70
    64
  9
$PLIMCHECK
 70
     0
  9
$PEXTMIN
 10
1.0000000000000000E+20
 20
1.0000000000000000E+20
 30
1.0000000000000000E+20
  9
$PEXTMAX
 10
-1.0000000000000000E+20
 20
-1.0000000000000000E+20
 30
-1.0000000000000000E+20
  9
$PLIMMIN
 10
0.0
 20
0.0
  9
$PLIMMAX
 10
12.0
 20
9.0
  9
$UNITMODE
 70
     0
  9
$VISRETAIN
 70
     1
  9
$PLINEGEN
 70
     0
  9
$PSLTSCALE
 70
     1
  0
ENDSEC
  0
SECTION
  2
TABLES
  0
TABLE
  2
VPORT
 70
     1
  0
VPORT
  2
*ACTIVE
 70
     0
 10
0.0
 20
0.0
 11
1.0
 21
1.0
 12
0.0
 22
0.0
 13
0.0
 23
0.0
 14
1.0
 24
1.0
 15
0.0
 25
0.0
 16
0.0
 26
0.0
 36
110.6495983462797028
 17
3471.123291015625
 27
202.258008251316511
 37
0.0
 40
26.6526138752216113
 41
3.314341846758349
 42
50.0
 43
0.0
 44
0.0
 50
0.0
 51
0.0
 71
     0
 72
   100
 73
     1
 74
     1
 75
     0
 76
     0
 77
     0
 78
     0
  0
ENDTAB
  0
TABLE
  2
LTYPE
 70
     2
  0
LTYPE
  2
CONTINUOUS
 70
     0
  3
Solid line
 72
    65
 73
     0
 40
0.0
  0
LTYPE
  2
PHANTOM2
 70
     0
  3
___ _ _ ___ _ _ ___ _ _ ___ _ _
 72
    65
 73
     6
 40
1.25
 49
0.625
 49
-0.125
 49
0.125
 49
-0.125
 49
0.125
 49
-0.125
  0
ENDTAB
  0
TABLE
  2
LAYER
 70
     2
  0
LAYER
  2
0
 70
     0
 62
   255
  6
CONTINUOUS
  0
LAYER
  2
DEFPOINTS
 70
     0
 62
     7
  6
CONTINUOUS
  0
ENDTAB
  0
TABLE
  2
STYLE
 70
     1
  0
STYLE
  2
STANDARD
 70
     0
 40
0.0
 41
0.8
 50
0.0
 71
     0
 42
0.2
  3
txt
  4

  0
ENDTAB
  0
TABLE
  2
VIEW
 70
     0
  0
ENDTAB
  0
TABLE
  2
UCS
 70
     0
  0
ENDTAB
  0
TABLE
  2
APPID
 70
     9
  0
APPID
  2
ACAD
 70
     0
  0
APPID
  2
ACAD_MLEADERVER
 70
     0
  0
APPID
  2
ACAD_EXEMPT_FROM_CAD_STANDARDS
 70
     0
  0
APPID
  2
ACAD_NAV_VCDISPLAY
 70
     0
  0
APPID
  2
ACAECLAYERSTANDARD
 70
     0
  0
APPID
  2
ACCMTRANSPARENCY
 70
     0
  0
APPID
  2
ACAD_DSTYLE_DIMJAG
 70
     0
  0
APPID
  2
ACAD_DSTYLE_DIMTALN
 70
     0
  0
APPID
  2
ACDBATTR
 70
     0
  0
ENDTAB
  0
TABLE
  2
DIMSTYLE
 70
     1
  0
DIMSTYLE
  2
STANDARD
 70
     0
  3

  4

  5

  6

  7

 40
1.0
 41
0.1875
 42
0.0625
 43
0.38
 44
0.125
 45
0.0
 46
0.0
 47
0.01
 48
0.01
140
0.15625
141
0.09
142
0.0
143
25.3999999999999986
144
1.0
145
0.0
146
1.0
147
0.09
 71
     1
 72
     0
 73
     1
 74
     1
 75
     0
 76
     0
 77
     0
 78
     4
170
     0
171
     2
172
     0
173
     0
174
     0
175
     0
176
     0
177
     0
178
     0
  0
ENDTAB
  0
ENDSEC
  0
SECTION
  2
BLOCKS
  0
BLOCK
  8
0
  2
$MODEL_SPACE
 70
     0
 10
0.0
 20
0.0
 30
0.0
  3
$MODEL_SPACE
  1

  0
ENDBLK
  5
21
  8
0
  0
BLOCK
 67
     1
  8
0
  2
$PAPER_SPACE
 70
     0
 10
0.0
 20
0.0
 30
0.0
  3
$PAPER_SPACE
  1

  0
ENDBLK
  5
1D
 67
     1
  8
0
  0
BLOCK
  8
0
  2
_FILLED
 70
     0
 10
0.0
 20
0.0
 30
0.0
  3
_FILLED
  1

  0
SOLID
  5
6F59
  8
0
  6
BYBLOCK
 62
     0
 10
0.0
 20
0.0
 30
0.0
 11
-1.0
 21
0.1666666667
 31
0.0
 12
-1.0
 22
-0.1666666667
 32
0.0
 13
-1.0
 23
-0.1666666667
 33
0.0
  0
ENDBLK
  5
6F5A
  8
0
  6
BYBLOCK
 62
     0
  0
ENDSEC
  0
SECTION
  2
ENTITIES
  0
ATTDEF
  5
3930
  8
DEFPOINTS
 10
3471.1240432122522179
 20
204.1053027575158012
 30
0.0
 40
0.001
  1
K-10551T
  3

  2
MODELNUMBER
 70
     0
1001
ACDBATTR
1070
     0
1070
     1
  0
ATTDEF
  5
3931
  8
DEFPOINTS
 10
3471.1240432122522179
 20
204.1036360908491929
 30
0.0
 40
0.001
  1
DEVONSHIRE
  3

  2
TRADENAME
 70
     0
1001
ACDBATTR
1070
     0
1070
     1
  0
ATTDEF
  5
3932
  8
DEFPOINTS
 10
3471.1240432122522179
 20
204.1019694241824993
 30
0.0
 40
0.001
  1
TOWEL BAR
  3

  2
PRODUCT
 70
     0
1001
ACDBATTR
1070
     0
1070
     1
  0
ARC
  5
9519
  8
0
 10
3458.7239060124820753
 20
201.5209925041438908
 30
0.0
 40
0.054999999820712
 50
227.536274988376789
 51
270.0000000350179903
  0
ARC
  5
951A
  8
0
 10
3458.7650885333127917
 20
201.5659925043408123
 30
0.0
 40
0.1160000001459616
 50
191.9505451774531082
 51
227.536274988376789
  0
ARC
  5
951B
  8
0
 10
3458.6330144293237936
 20
201.5380384153189084
 30
0.0
 40
0.0189999999928773
 50
11.9505451774531597
 51
77.5808751126658365
  0
ARC
  5
951C
  8
0
 10
3458.6512795646672203
 20
201.6209809969791991
 30
0.0
 40
0.0659298947531675
 50
179.3916984423713927
 51
257.5808751126655238
  0
ARC
  5
951D
  8
0
 10
3458.5486481503658069
 20
201.6170198692011013
 30
0.0
 40
0.0369999999114843
 50
7.2370774401316771
 51
74.2587037494649849
  0
ARC
  5
951E
  8
0
 10
3458.5983895132380894
 20
201.7584016946485974
 30
0.0
 40
0.1129758555561961
 50
184.8337100388187082
 51
249.4249937263568029
  0
ARC
  5
951F
  8
0
 10
3458.5347133993009265
 20
201.7458249508127039
 30
0.0
 40
0.0489933992472409
 50
137.4021400149842975
 51
176.4227178061231882
  0
ARC
  5
9520
  8
0
 10
3458.004120004368815
 20
202.3132386226575932
 30
0.0
 40
0.7280000001487056
 50
312.7887370171587236
 51
358.2488912882807881
  0
ARC
  5
9521
  8
0
 10
3456.8468678211229417
 20
202.5190741275991115
 30
0.0
 40
1.8881399421452301
 50
358.2068700328471209
 51
39.1997723197736576
  0
ARC
  5
9522
  8
0
 10
3458.2641126157191138
 20
203.6630359533693877
 30
0.0
 40
0.0674702463982613
 50
47.0591984548881683
 51
88.5465256220107193
  0
ARC
  5
9523
  8
0
 10
3458.2658240115229091
 20
203.8104937890832957
 30
0.0
 40
0.0800092977501135
 50
189.5473518787152045
 51
270.0
  0
ARC
  5
9524
  8
0
 10
3458.1080304058627917
 20
203.7839579007606972
 30
0.0
 40
0.080000000010963
 50
9.5446795187873512
 51
79.9207631462672481
  0
ARC
  5
9525
  8
0
 10
3458.1360319968080148
 20
203.9414885673089088
 30
0.0
 40
0.0799999999846712
 50
190.6956241048060861
 51
259.9207633472047974
  0
ARC
  5
9526
  8
0
 10
3457.9788116808599625
 20
203.9117939162399011
 30
0.0
 40
0.0800000001688696
 50
10.6956241061809703
 51
80.2620209314366804
  0
ARC
  5
9527
  8
0
 10
3458.0058745165720211
 20
204.0694885674213026
 30
0.0
 40
0.0800000001061854
 50
180.0000000702542877
 51
260.2620212555955845
  0
ARC
  5
9528
  8
0
 10
3458.7695053594648016
 20
202.3754925043544119
 30
0.0
 40
0.09518989814859
 50
117.4144570927880977
 51
242.5855429444586093
  0
ARC
  5
9529
  8
0
 10
3458.7435393784649023
 20
201.4510316841214888
 30
0.0
 40
0.0149608202062724
 50
90.001421394977001
 51
208.6767386028359965
  0
ARC
  5
952A
  8
0
 10
3456.2792295204671973
 20
200.1031615196453117
 30
0.0
 40
2.7938782738876582
 50
23.6027944091643818
 51
28.6767386028360285
  0
ARC
  5
952B
  8
0
 10
3457.8891214438122006
 20
200.9650181736946877
 30
0.0
 40
0.9843457281082837
 50
1.3676722840934921
 51
15.1221978374411403
  0
ARC
  5
952C
  8
0
 10
3459.4510406451809104
 20
201.0902353738902946
 30
0.0
 40
0.5867389870918213
 50
189.9837945421452901
 51
263.1469610740101075
  0
ARC
  5
952D
  8
0
 10
3459.228231535058967
 20
198.8962447325278049
 30
0.0
 40
1.6186715728565451
 50
73.6546170565315919
 51
84.5833908682932929
  0
ARC
  5
952E
  8
0
 10
3459.5227249102490532
 20
201.5209925041438908
 30
0.0
 40
0.054999999820712
 50
269.999999964981896
 51
312.4637250116231826
  0
ARC
  5
952F
  8
0
 10
3459.4815423894201558
 20
201.5659925043408123
 30
0.0
 40
0.1160000001459616
 50
312.4637250116231826
 51
348.0494548225468066
  0
ARC
  5
9530
  8
0
 10
3459.6136164934077897
 20
201.5380384153189084
 30
0.0
 40
0.0189999999928773
 50
102.4191248873342062
 51
168.0494548225468066
  0
ARC
  5
9531
  8
0
 10
3459.5953513580648178
 20
201.6209809969791991
 30
0.0
 40
0.0659298947531675
 50
282.4191248873344762
 51
0.6083015576285494
  0
ARC
  5
9532
  8
0
 10
3459.6979827723671406
 20
201.6170198692011013
 30
0.0
 40
0.0369999999114843
 50
105.7412962505350009
 51
172.7629225598682865
  0
ARC
  5
9533
  8
0
 10
3459.6608154614241357
 20
201.7488818839881901
 30
0.0
 40
0.0999999998930092
 50
285.7412962348076917
 51
0.7158701099619187
  0
ARC
  5
9534
  8
0
 10
3459.720810778510895
 20
201.7496315221339955
 30
0.0
 40
0.0399999996452497
 50
0.7158697935858284
 51
47.2112630904204096
  0
ARC
  5
9535
  8
0
 10
3460.2425109183641325
 20
202.3132386226575932
 30
0.0
 40
0.7280000001487056
 50
181.7511087117192119
 51
227.2112629828413048
  0
ARC
  5
9536
  8
0
 10
3461.3997631016090963
 20
202.5190741275991115
 30
0.0
 40
1.8881399421452301
 50
140.8002276802262998
 51
181.7931299671529075
  0
ARC
  5
9537
  8
0
 10
3459.9826474632259306
 20
203.6628350739455868
 30
0.0
 40
0.0677053016736787
 50
92.3280967376748407
 51
132.905006976309096
  0
ARC
  5
9538
  8
0
 10
3459.9807969589191998
 20
203.810499489990292
 30
0.0
 40
0.0800200578562436
 50
269.355710021707182
 51
350.4498046505703996
  0
ARC
  5
9539
  8
0
 10
3460.1386005168687916
 20
203.7839579007606972
 30
0.0
 40
0.080000000010963
 50
100.0792368537326951
 51
170.4553204812125955
  0
ARC
  5
953A
  8
0
 10
3460.1105989259240232
 20
203.9414885673089088
 30
0.0
 40
0.0799999999846712
 50
280.0792366527952026
 51
349.3043758951939139
  0
ARC
  5
953B
  8
0
 10
3460.2678192418720755
 20
203.9117939162399011
 30
0.0
 40
0.0800000001688696
 50
99.7379790685633481
 51
169.3043758938190138
  0
ARC
  5
953C
  8
0
 10
3460.2407564062159508
 20
204.0694885673231909
 30
0.0
 40
0.0799999999999974
 50
279.7379787166200913
 51
0.0000000000016284
  0
ARC
  5
953D
  8
0
 10
3459.4771255632667817
 20
202.3754925043544119
 30
0.0
 40
0.09518989814859
 50
297.414457055541277
 51
62.5855429072119307
  0
ARC
  5
953E
  8
0
 10
3459.5030915442680453
 20
201.4510316841214888
 30
0.0
 40
0.0149608202062724
 50
331.3232613971638898
 51
89.998578605022999
  0
ARC
  5
953F
  8
0
 10
3466.0251378186208058
 20
197.9845088142648137
 30
0.0
 40
7.3710993116514052
 50
152.0103687277872098
 51
153.6901375857187872
  0
LINE
  5
9540
  8
0
 10
3460.3207564063159225
 20
204.0694885673231909
 30
0.0
 11
3460.3207564063159225
 21
204.1014885673232016
 31
0.0
  0
LINE
  5
9541
  8
0
 10
3460.3207564063159225
 20
204.1014885673232016
 30
0.0
 11
3457.9258745164670472
 21
204.1014885673232016
 31
0.0
  0
LINE
  5
9542
  8
0
 10
3457.9258745164670472
 20
204.0694885673231909
 30
0.0
 11
3457.9258745164670472
 21
204.1014885673232016
 31
0.0
  0
LINE
  5
9543
  8
0
 10
3457.9923430989451845
 20
203.990641241823198
 30
0.0
 11
3460.2542878237882178
 21
203.990641241823198
 31
0.0
  0
LINE
  5
9544
  8
0
 10
3458.2658240115229091
 20
203.730484491333101
 30
0.0
 11
3459.9798971538161823
 21
203.730484491333101
 31
0.0
  0
LINE
  5
9545
  8
0
 10
3458.1220312014761475
 20
203.8627232340232069
 30
0.0
 11
3460.1245997212558905
 21
203.8627232340232069
 31
0.0
  0
LINE
  5
9546
  8
0
 10
3458.725677666061074
 20
202.4599925043571886
 30
0.0
 11
3459.520953256670964
 21
202.4599925043571886
 31
0.0
  0
LINE
  5
9547
  8
0
 10
3458.7256776661160984
 20
202.2909925043232136
 30
0.0
 11
3459.5209532566159396
 21
202.2909925043232136
 31
0.0
  0
LINE
  5
9548
  8
0
 10
3458.7239060124820753
 20
201.4659925043231965
 30
0.0
 11
3459.5227249102158567
 21
201.4659925043231965
 31
0.0
  0
LINE
  5
9549
  8
0
 10
3458.4986482621720825
 20
201.77898605836711
 30
0.0
 11
3459.747982660560865
 21
201.77898605836711
 31
0.0
  0
LINE
  5
954A
  8
0
 10
3458.5586860372600313
 20
201.6526322381218961
 30
0.0
 11
3459.6879448854720067
 21
201.6526322381218961
 31
0.0
  0
LINE
  5
954B
  8
0
 10
3458.6371005944188255
 20
201.5565938257036862
 30
0.0
 11
3459.609530328314122
 21
201.5565938257036862
 31
0.0
  0
ARC
  5
954C
  8
0
 10
3483.5227249102499627
 20
201.5209925041438908
 30
0.0
 40
0.054999999820712
 50
269.999999964981896
 51
312.4637250116231826
  0
ARC
  5
954D
  8
0
 10
3483.4815423894187916
 20
201.5659925043408123
 30
0.0
 40
0.1160000001459616
 50
312.4637250116231826
 51
348.0494548225468066
  0
ARC
  5
954E
  8
0
 10
3483.6136164934077897
 20
201.5380384153189084
 30
0.0
 40
0.0189999999928773
 50
102.4191248873342062
 51
168.0494548225468066
  0
ARC
  5
954F
  8
0
 10
3483.5953513580648178
 20
201.6209809969791991
 30
0.0
 40
0.0659298947531675
 50
282.4191248873344762
 51
0.6083015576285494
  0
ARC
  5
9550
  8
0
 10
3483.6979827723657763
 20
201.6170198692011013
 30
0.0
 40
0.0369999999114843
 50
105.7412962505350009
 51
172.7629225598682865
  0
ARC
  5
9551
  8
0
 10
3483.651793404063028
 20
201.7557124807061939
 30
0.0
 40
0.1092358275444467
 50
289.3263824403833269
 51
356.4149137944393146
  0
ARC
  5
9552
  8
0
 10
3483.7099532971751614
 20
201.7449876408788043
 30
0.0
 40
0.051011026950978
 50
4.3782884797367414
 51
41.7968536991570829
  0
ARC
  5
9553
  8
0
 10
3484.2425109183641325
 20
202.3132386226575932
 30
0.0
 40
0.7280000001487056
 50
181.7511087117192119
 51
227.2112629828413048
  0
ARC
  5
9554
  8
0
 10
3485.3997631016100058
 20
202.5190741275991115
 30
0.0
 40
1.8881399421452301
 50
140.8002276802262998
 51
181.7931299671529075
  0
ARC
  5
9555
  8
0
 10
3483.9825183070129242
 20
203.6630359533693877
 30
0.0
 40
0.0674702463982613
 50
91.4534743779892807
 51
132.9408015451118104
  0
ARC
  5
9556
  8
0
 10
3483.9808069112100384
 20
203.8104937890832957
 30
0.0
 40
0.0800092977501135
 50
270.0
 51
350.4526481212848239
  0
ARC
  5
9557
  8
0
 10
3484.1386005168687916
 20
203.7839579007606972
 30
0.0
 40
0.080000000010963
 50
100.0792368537326951
 51
170.4553204812125955
  0
ARC
  5
9558
  8
0
 10
3484.1105989259231137
 20
203.9414885673089088
 30
0.0
 40
0.0799999999846712
 50
280.0792366527952026
 51
349.3043758951939139
  0
ARC
  5
9559
  8
0
 10
3484.267819241872985
 20
203.9117939162399011
 30
0.0
 40
0.0800000001688696
 50
99.7379790685633481
 51
169.3043758938190138
  0
ARC
  5
955A
  8
0
 10
3484.2407564061609264
 20
204.0694885674213026
 30
0.0
 40
0.0800000001061813
 50
279.7379787444044155
 51
359.9999999297472755
  0
ARC
  5
955B
  8
0
 10
3483.4771255632667817
 20
202.3754925043544119
 30
0.0
 40
0.09518989814859
 50
297.414457055541277
 51
62.5855429072119307
  0
ARC
  5
955C
  8
0
 10
3483.5030915442680453
 20
201.4510316841214888
 30
0.0
 40
0.0149608202062724
 50
331.3232613971638898
 51
89.998578605022999
  0
ARC
  5
955D
  8
0
 10
3485.9674014022648407
 20
200.1031615196453117
 30
0.0
 40
2.7938782738876582
 50
151.3232613971640035
 51
156.3972055908355969
  0
ARC
  5
955E
  8
0
 10
3484.3575094789198374
 20
200.9650181736946877
 30
0.0
 40
0.9843457281082837
 50
164.877802162558794
 51
178.6323277159065128
  0
ARC
  5
955F
  8
0
 10
3482.7955902775520372
 20
201.0902353738902946
 30
0.0
 40
0.5867389870918213
 50
276.8530389259898925
 51
350.0162054578547099
  0
ARC
  5
9560
  8
0
 10
3483.018399387673071
 20
198.8962447325278049
 30
0.0
 40
1.6186715728565451
 50
95.4166091317067071
 51
106.3453829434683939
  0
ARC
  5
9561
  8
0
 10
3482.7239060124829848
 20
201.5209925041438908
 30
0.0
 40
0.054999999820712
 50
227.536274988376789
 51
270.0000000349920128
  0
ARC
  5
9562
  8
0
 10
3482.7650885333127917
 20
201.5659925043408123
 30
0.0
 40
0.1160000001459616
 50
191.9505451774531082
 51
227.536274988376789
  0
ARC
  5
9563
  8
0
 10
3482.6330144293251578
 20
201.5380384153189084
 30
0.0
 40
0.0189999999928773
 50
11.9505451774531597
 51
77.5808751126658365
  0
ARC
  5
9564
  8
0
 10
3482.6512795646672203
 20
201.6209809969791991
 30
0.0
 40
0.0659298947531675
 50
179.3916984423713927
 51
257.5808751126655238
  0
ARC
  5
9565
  8
0
 10
3482.5486481503658069
 20
201.6170198692011013
 30
0.0
 40
0.0369999999114843
 50
7.2370774401316771
 51
74.2587037494649849
  0
ARC
  5
9566
  8
0
 10
3482.5858154613088118
 20
201.7488818839881901
 30
0.0
 40
0.0999999998930092
 50
179.2841298900380878
 51
254.2587037651923083
  0
ARC
  5
9567
  8
0
 10
3482.5258201442220525
 20
201.7496315221339955
 30
0.0
 40
0.0399999996452497
 50
132.7887369095795975
 51
179.2841302064142042
  0
ARC
  5
9568
  8
0
 10
3482.0041200043679055
 20
202.3132386226575932
 30
0.0
 40
0.7280000001487056
 50
312.7887370171587236
 51
358.2488912882807881
  0
ARC
  5
9569
  8
0
 10
3480.8468678211229417
 20
202.5190741275991115
 30
0.0
 40
1.8881399421452301
 50
358.2068700328471209
 51
39.1997723197736576
  0
ARC
  5
956A
  8
0
 10
3482.263983459507017
 20
203.6628350739455868
 30
0.0
 40
0.0677053016736787
 50
47.0949930236908898
 51
87.6719032623251735
  0
ARC
  5
956B
  8
0
 10
3482.2658339638128382
 20
203.810499489990292
 30
0.0
 40
0.0800200578562436
 50
189.5501953494296004
 51
270.644289978292818
  0
ARC
  5
956C
  8
0
 10
3482.1080304058627917
 20
203.7839579007606972
 30
0.0
 40
0.080000000010963
 50
9.5446795187873512
 51
79.9207631462672481
  0
ARC
  5
956D
  8
0
 10
3482.1360319968089243
 20
203.9414885673089088
 30
0.0
 40
0.0799999999846712
 50
190.6956241048060861
 51
259.9207633472047974
  0
ARC
  5
956E
  8
0
 10
3481.9788116808599625
 20
203.9117939162399011
 30
0.0
 40
0.0800000001688696
 50
10.6956241061809703
 51
80.2620209314366804
  0
ARC
  5
956F
  8
0
 10
3482.0058745165160872
 20
204.0694885673231909
 30
0.0
 40
0.0799999999999974
 50
179.9999999999984084
 51
260.2620212833799087
  0
ARC
  5
9570
  8
0
 10
3482.7695053594648016
 20
202.3754925043544119
 30
0.0
 40
0.09518989814859
 50
117.4144570927880977
 51
242.5855429444586093
  0
ARC
  5
9571
  8
0
 10
3482.7435393784649023
 20
201.4510316841214888
 30
0.0
 40
0.0149608202062724
 50
90.001421394977001
 51
208.6767386028359965
  0
ARC
  5
9572
  8
0
 10
3474.9483623772957799
 20
197.3389282477299957
 30
0.0
 40
8.798336474309691
 50
26.3953611107023605
 51
27.8110258857884389
  0
LINE
  5
9573
  8
0
 10
3481.9258745164161155
 20
204.0694885673231909
 30
0.0
 11
3481.9258745164161155
 21
204.1014885673232016
 31
0.0
  0
LINE
  5
9574
  8
0
 10
3481.9258745164161155
 20
204.1014885673232016
 30
0.0
 11
3484.3207564062659003
 21
204.1014885673232016
 31
0.0
  0
LINE
  5
9575
  8
0
 10
3484.3207564062659003
 20
204.0694885673231909
 30
0.0
 11
3484.3207564062659003
 21
204.1014885673232016
 31
0.0
  0
LINE
  5
9576
  8
0
 10
3484.2542878237882178
 20
203.990641241823198
 30
0.0
 11
3481.9923430989438202
 21
203.990641241823198
 31
0.0
  0
LINE
  5
9577
  8
0
 10
3483.9808069112100384
 20
203.730484491333101
 30
0.0
 11
3482.26673376891722
 21
203.730484491333101
 31
0.0
  0
LINE
  5
9578
  8
0
 10
3484.124599721254981
 20
203.8627232340232069
 30
0.0
 11
3482.122031201477057
 21
203.8627232340232069
 31
0.0
  0
LINE
  5
9579
  8
0
 10
3483.520953256670964
 20
202.4599925043571886
 30
0.0
 11
3482.725677666061074
 21
202.4599925043571886
 31
0.0
  0
LINE
  5
957A
  8
0
 10
3483.5209532566159396
 20
202.2909925043232136
 30
0.0
 11
3482.7256776661160984
 21
202.2909925043232136
 31
0.0
  0
LINE
  5
957B
  8
0
 10
3483.5227249102499627
 20
201.4659925043231965
 30
0.0
 11
3482.7239060125170909
 21
201.4659925043231965
 31
0.0
  0
LINE
  5
957C
  8
0
 10
3483.747982660560865
 20
201.77898605836711
 30
0.0
 11
3482.498648262171173
 21
201.77898605836711
 31
0.0
  0
LINE
  5
957D
  8
0
 10
3483.6879448854729162
 20
201.6526322381218961
 30
0.0
 11
3482.5586860372600313
 21
201.6526322381218961
 31
0.0
  0
LINE
  5
957E
  8
0
 10
3483.6095303283132125
 20
201.5565938257036862
 30
0.0
 11
3482.6371005944188255
 21
201.5565938257036862
 31
0.0
  0
ARC
  5
957F
  8
0
 10
3459.6883510396842212
 20
200.4637396640187887
 30
0.0
 40
0.0149644225584602
 50
252.1707042173673869
 51
359.9800140636543802
  0
ARC
  5
9580
  8
0
 10
3459.7702445952158996
 20
200.4831003702232124
 30
0.0
 40
0.0733858267999997
 50
204.2143853445967068
 51
335.7856146554971133
  0
ARC
  5
9581
  8
0
 10
3459.9788744663142097
 20
200.0494448575115882
 30
0.0
 40
1.0706236318872011
 50
105.9505831212667033
 51
109.7801523549045015
  0
ARC
  5
9582
  8
0
 10
3459.6883489476708746
 20
201.064344139582289
 30
0.0
 40
0.0149665184084838
 50
0.0456349790571305
 51
104.2758828405205946
  0
ARC
  5
9583
  8
0
 10
3459.7702445952158996
 20
201.0449901340232088
 30
0.0
 40
0.0733858267999997
 50
24.2143853445029293
 51
155.785614655403208
  0
LINE
  5
9584
  8
0
 10
3459.8371737291008685
 20
201.0750894797409956
 30
0.0
 11
3459.8371737291008685
 21
200.4530010245053973
 31
0.0
  0
LINE
  5
9585
  8
0
 10
3459.7033154613318402
 20
200.453001024505312
 30
0.0
 11
3459.7033154613318402
 21
201.0750894797411092
 31
0.0
  0
ARC
  5
9586
  8
0
 10
3459.560338602856973
 20
201.1984382959647064
 30
0.0
 40
0.1522968758380064
 50
159.5826403166223031
 51
291.66466919097752
  0
ARC
  5
9587
  8
0
 10
3482.5582798830478168
 20
200.4637396640187887
 30
0.0
 40
0.0149644225584602
 50
180.0199859363455062
 51
287.8292957826325846
  0
ARC
  5
9588
  8
0
 10
3482.4763863275161384
 20
200.4831003702232124
 30
0.0
 40
0.0733858267999997
 50
204.2143853445030004
 51
335.785614655403208
  0
ARC
  5
9589
  8
0
 10
3482.2677564564178283
 20
200.0494448575115882
 30
0.0
 40
1.0706236318872011
 50
70.2198476450954701
 51
74.0494168787333109
  0
ARC
  5
958A
  8
0
 10
3482.5582819750620729
 20
201.064344139582289
 30
0.0
 40
0.0149665184084838
 50
75.7241171594793201
 51
179.9543650209429018
  0
ARC
  5
958B
  8
0
 10
3482.4763863275161384
 20
201.0449901340232088
 30
0.0
 40
0.0733858267999997
 50
24.2143853445967885
 51
155.7856146554969996
  0
LINE
  5
958C
  8
0
 10
3482.409457193632079
 20
201.0750894797409956
 30
0.0
 11
3482.409457193632079
 21
200.4530010245053973
 31
0.0
  0
LINE
  5
958D
  8
0
 10
3482.5433154614011073
 20
200.453001024505312
 30
0.0
 11
3482.5433154614011073
 21
201.0750894797411092
 31
0.0
  0
ARC
  5
958E
  8
0
 10
3482.6862960474518331
 20
201.1984197354244088
 30
0.0
 40
0.1522810028796386
 50
248.3314492878944861
 51
19.93482309978803
  0
LINE
  5
958F
  8
0
 10
3459.8371737291008685
 20
201.0750894797409956
 30
0.0
 11
3482.409457193632079
 21
201.0750894797409956
 31
0.0
  0
LINE
  5
9590
  8
0
 10
3459.8371737291008685
 20
200.4530010245053973
 30
0.0
 11
3482.409457193632079
 21
200.4530010245053973
 31
0.0
  0
ENDSEC
  0
EOF
