  0
SECTION
  2
HEADER
  9
$ACADVER
  1
AC1009
  9
$INSBASE
 10
3471.4811272006081708
 20
187.3404206553477138
 30
0.0
  9
$EXTMIN
 10
3458.2836862557078348
 20
186.1429797104476904
 30
0.0
  9
$EXTMAX
 10
3484.6785681455080521
 20
188.5378616002477088
 30
0.0
  9
$LIMMIN
 10
0.0
 20
0.0
  9
$LIMMAX
 10
11.6929133858000007
 20
8.2677165353999982
  9
$ORTHOMODE
 70
     0
  9
$REGENMODE
 70
     1
  9
$FILLMODE
 70
     1
  9
$QTEXTMODE
 70
     0
  9
$MIRRTEXT
 70
     0
  9
$DRAGMODE
 70
     2
  9
$LTSCALE
 40
0.6431102362
  9
$OSMODE
 70
  3839
  9
$ATTMODE
 70
     1
  9
$TEXTSIZE
 40
0.2
  9
$TRACEWID
 40
0.05
  9
$TEXTSTYLE
  7
STANDARD
  9
$CLAYER
  8
0
  9
$CELTYPE
  6
BYLAYER
  9
$CECOLOR
 62
   256
  9
$DIMSCALE
 40
1.0
  9
$DIMASZ
 40
0.1875
  9
$DIMEXO
 40
0.0625
  9
$DIMDLI
 40
0.4443307087
  9
$DIMRND
 40
0.0
  9
$DIMDLE
 40
0.0
  9
$DIMEXE
 40
0.125
  9
$DIMTP
 40
0.01
  9
$DIMTM
 40
0.01
  9
$DIMTXT
 40
2.0
  9
$DIMCEN
 40
0.1052362205
  9
$DIMTSZ
 40
0.0
  9
$DIMTOL
 70
     1
  9
$DIMLIM
 70
     0
  9
$DIMTIH
 70
     1
  9
$DIMTOH
 70
     1
  9
$DIMSE1
 70
     0
  9
$DIMSE2
 70
     0
  9
$DIMTAD
 70
     0
  9
$DIMZIN
 70
     0
  9
$DIMBLK
  1

  9
$DIMASO
 70
     1
  9
$DIMSHO
 70
     1
  9
$DIMPOST
  1
\X
  9
$DIMAPOST
  1

  9
$DIMALT
 70
     1
  9
$DIMALTD
 70
     2
  9
$DIMALTF
 40
25.3999999999999986
  9
$DIMLFAC
 40
1.0
  9
$DIMTOFL
 70
     0
  9
$DIMTVP
 40
0.0
  9
$DIMTIX
 70
     0
  9
$DIMSOXD
 70
     0
  9
$DIMSAH
 70
     0
  9
$DIMBLK1
  1

  9
$DIMBLK2
  1

  9
$DIMSTYLE
  2
STANDARD
  9
$DIMCLRD
 70
     0
  9
$DIMCLRE
 70
     0
  9
$DIMCLRT
 70
     0
  9
$DIMTFAC
 40
1.0
  9
$DIMGAP
 40
0.09
  9
$LUNITS
 70
     2
  9
$LUPREC
 70
     4
  9
$SKETCHINC
 40
0.1
  9
$FILLETRAD
 40
0.0
  9
$AUNITS
 70
     0
  9
$AUPREC
 70
     0
  9
$MENU
  1
.
  9
$ELEVATION
 40
0.0
  9
$PELEVATION
 40
0.0
  9
$THICKNESS
 40
0.0
  9
$LIMCHECK
 70
     0
  9
$BLIPMODE
 70
     0
  9
$CHAMFERA
 40
0.0
  9
$CHAMFERB
 40
0.0
  9
$SKPOLY
 70
     0
  9
$TDCREATE
 40
2458060.468368056230247
  9
$TDUPDATE
 40
2459023.8749189819209278
  9
$TDINDWG
 40
0.6916621528
  9
$TDUSRTIMER
 40
0.6916621528
  9
$USRTIMER
 70
     1
  9
$ANGBASE
 50
0.0
  9
$ANGDIR
 70
     0
  9
$PDMODE
 70
     0
  9
$PDSIZE
 40
0.3125
  9
$PLINEWID
 40
0.0
  9
$COORDS
 70
     1
  9
$SPLFRAME
 70
     0
  9
$SPLINETYPE
 70
     6
  9
$SPLINESEGS
 70
     8
  9
$ATTDIA
 70
     1
  9
$ATTREQ
 70
     1
  9
$HANDLING
 70
     1
  9
$HANDSEED
  5
953E
  9
$SURFTAB1
 70
     6
  9
$SURFTAB2
 70
     6
  9
$SURFTYPE
 70
     6
  9
$SURFU
 70
     6
  9
$SURFV
 70
     6
  9
$UCSNAME
  2

  9
$UCSORG
 10
0.0
 20
0.0
 30
0.0
  9
$UCSXDIR
 10
1.0
 20
0.0
 30
0.0
  9
$UCSYDIR
 10
0.0
 20
1.0
 30
0.0
  9
$PUCSNAME
  2

  9
$PUCSORG
 10
0.0
 20
0.0
 30
0.0
  9
$PUCSXDIR
 10
1.0
 20
0.0
 30
0.0
  9
$PUCSYDIR
 10
0.0
 20
1.0
 30
0.0
  9
$USERI1
 70
     0
  9
$USERI2
 70
     0
  9
$USERI3
 70
     0
  9
$USERI4
 70
     0
  9
$USERI5
 70
     0
  9
$USERR1
 40
0.0
  9
$USERR2
 40
0.0
  9
$USERR3
 40
0.0
  9
$USERR4
 40
0.0
  9
$USERR5
 40
0.0
  9
$WORLDVIEW
 70
     1
  9
$SHADEDGE
 70
     3
  9
$SHADEDIF
 70
    70
  9
$TILEMODE
 70
     1
  9
$MAXACTVP
 70
    64
  9
$PLIMCHECK
 70
     0
  9
$PEXTMIN
 10
1.0000000000000000E+20
 20
1.0000000000000000E+20
 30
1.0000000000000000E+20
  9
$PEXTMAX
 10
-1.0000000000000000E+20
 20
-1.0000000000000000E+20
 30
-1.0000000000000000E+20
  9
$PLIMMIN
 10
0.0
 20
0.0
  9
$PLIMMAX
 10
12.0
 20
9.0
  9
$UNITMODE
 70
     0
  9
$VISRETAIN
 70
     1
  9
$PLINEGEN
 70
     0
  9
$PSLTSCALE
 70
     1
  0
ENDSEC
  0
SECTION
  2
TABLES
  0
TABLE
  2
VPORT
 70
     1
  0
VPORT
  2
*ACTIVE
 70
     0
 10
0.0
 20
0.0
 11
1.0
 21
1.0
 12
0.0
 22
0.0
 13
0.0
 23
0.0
 14
1.0
 24
1.0
 15
0.0
 25
0.0
 16
0.0
 26
0.0
 36
110.0287344378977963
 17
3471.4810791015620453
 27
187.3404235839844034
 37
0.0
 40
26.5030638879963796
 41
3.314341846758349
 42
50.0
 43
0.0
 44
0.0
 50
0.0
 51
0.0
 71
     0
 72
   100
 73
     1
 74
     1
 75
     0
 76
     0
 77
     0
 78
     0
  0
ENDTAB
  0
TABLE
  2
LTYPE
 70
     2
  0
LTYPE
  2
CONTINUOUS
 70
     0
  3
Solid line
 72
    65
 73
     0
 40
0.0
  0
LTYPE
  2
PHANTOM2
 70
     0
  3
___ _ _ ___ _ _ ___ _ _ ___ _ _
 72
    65
 73
     6
 40
1.25
 49
0.625
 49
-0.125
 49
0.125
 49
-0.125
 49
0.125
 49
-0.125
  0
ENDTAB
  0
TABLE
  2
LAYER
 70
     2
  0
LAYER
  2
0
 70
     0
 62
   255
  6
CONTINUOUS
  0
LAYER
  2
DEFPOINTS
 70
     0
 62
     7
  6
CONTINUOUS
  0
ENDTAB
  0
TABLE
  2
STYLE
 70
     1
  0
STYLE
  2
STANDARD
 70
     0
 40
0.0
 41
0.8
 50
0.0
 71
     0
 42
0.2
  3
txt
  4

  0
ENDTAB
  0
TABLE
  2
VIEW
 70
     0
  0
ENDTAB
  0
TABLE
  2
UCS
 70
     0
  0
ENDTAB
  0
TABLE
  2
APPID
 70
     9
  0
APPID
  2
ACAD
 70
     0
  0
APPID
  2
ACAD_MLEADERVER
 70
     0
  0
APPID
  2
ACAD_EXEMPT_FROM_CAD_STANDARDS
 70
     0
  0
APPID
  2
ACAD_NAV_VCDISPLAY
 70
     0
  0
APPID
  2
ACAECLAYERSTANDARD
 70
     0
  0
APPID
  2
ACCMTRANSPARENCY
 70
     0
  0
APPID
  2
ACAD_DSTYLE_DIMJAG
 70
     0
  0
APPID
  2
ACAD_DSTYLE_DIMTALN
 70
     0
  0
APPID
  2
ACDBATTR
 70
     0
  0
ENDTAB
  0
TABLE
  2
DIMSTYLE
 70
     1
  0
DIMSTYLE
  2
STANDARD
 70
     0
  3

  4

  5

  6

  7

 40
1.0
 41
0.1875
 42
0.0625
 43
0.38
 44
0.125
 45
0.0
 46
0.0
 47
0.01
 48
0.01
140
0.15625
141
0.09
142
0.0
143
25.3999999999999986
144
1.0
145
0.0
146
1.0
147
0.09
 71
     1
 72
     0
 73
     1
 74
     1
 75
     0
 76
     0
 77
     0
 78
     4
170
     0
171
     2
172
     0
173
     0
174
     0
175
     0
176
     0
177
     0
178
     0
  0
ENDTAB
  0
ENDSEC
  0
SECTION
  2
BLOCKS
  0
BLOCK
  8
0
  2
$MODEL_SPACE
 70
     0
 10
0.0
 20
0.0
 30
0.0
  3
$MODEL_SPACE
  1

  0
ENDBLK
  5
21
  8
0
  0
BLOCK
 67
     1
  8
0
  2
$PAPER_SPACE
 70
     0
 10
0.0
 20
0.0
 30
0.0
  3
$PAPER_SPACE
  1

  0
ENDBLK
  5
1D
 67
     1
  8
0
  0
BLOCK
  8
0
  2
_FILLED
 70
     0
 10
0.0
 20
0.0
 30
0.0
  3
_FILLED
  1

  0
SOLID
  5
6F59
  8
0
  6
BYBLOCK
 62
     0
 10
0.0
 20
0.0
 30
0.0
 11
-1.0
 21
0.1666666667
 31
0.0
 12
-1.0
 22
-0.1666666667
 32
0.0
 13
-1.0
 23
-0.1666666667
 33
0.0
  0
ENDBLK
  5
6F5A
  8
0
  6
BYBLOCK
 62
     0
  0
ENDSEC
  0
SECTION
  2
ENTITIES
  0
ATTDEF
  5
3930
  8
DEFPOINTS
 10
3471.4814739297298729
 20
187.3389610976269068
 30
0.0
 40
0.001
  1
K-10551T
  3

  2
MODELNUMBER
 70
     0
1001
ACDBATTR
1070
     0
1070
     1
  0
ATTDEF
  5
3931
  8
DEFPOINTS
 10
3471.4814739297298729
 20
187.3372944309602133
 30
0.0
 40
0.001
  1
DEVONSHIRE
  3

  2
TRADENAME
 70
     0
1001
ACDBATTR
1070
     0
1070
     1
  0
ATTDEF
  5
3932
  8
DEFPOINTS
 10
3471.4814739297298729
 20
187.3356277642934913
 30
0.0
 40
0.001
  1
TOWEL BAR
  3

  2
PRODUCT
 70
     0
1001
ACDBATTR
1070
     0
1070
     1
  0
ARC
  5
9387
  8
0
 10
3459.4811272006081708
 20
187.3404206553477138
 30
0.0
 40
1.197440944899999
 50
15.0556716301109894
 51
344.9443283698890923
  0
ARC
  5
9388
  8
0
 10
3459.4811272006809304
 20
187.3404206553477138
 30
0.0
 40
1.0658936224999991
 50
16.9666756978500395
 51
343.0333243021498788
  0
ARC
  5
9389
  8
0
 10
3459.4811272006081708
 20
187.3404206553477138
 30
0.0
 40
0.9363925276999998
 50
19.4007152514672896
 51
340.599284748532682
  0
ARC
  5
938B
  8
0
 10
3459.4811272006081708
 20
187.3404206553477138
 30
0.0
 40
0.6374999999504462
 50
29.2239149125289792
 51
330.7760850874710172
  0
ARC
  5
938C
  8
0
 10
3459.481127200658193
 20
187.341042667647713
 30
0.0
 40
0.5373400634999999
 50
31.7787897668726984
 51
328.0863299716174879
  0
ARC
  5
938D
  8
0
 10
3459.481127200658193
 20
187.3404206553477138
 30
0.0
 40
0.4717128249
 50
34.526704554576348
 51
325.4732954454236165
  0
ARC
  5
938E
  8
0
 10
3459.481127200658193
 20
187.3404206553477138
 30
0.0
 40
0.3947369031579111
 50
39.3631125302474487
 51
320.6368874697524802
  0
ARC
  5
938F
  8
0
 10
3459.3569468875939492
 20
184.7703607781151049
 30
0.0
 40
2.3591072508901711
 50
73.0879443761294141
 51
79.5134649070648294
  0
ARC
  5
9390
  8
0
 10
3460.0424784264178015
 20
187.047481463881013
 30
0.0
 40
0.0200528678206792
 50
272.1178153618341753
 51
338.4317608351793183
  0
ARC
  5
9391
  8
0
 10
3460.1280563344580514
 20
187.0594757734477014
 30
0.0
 40
0.0733858267999997
 50
204.2143853445967068
 51
335.7856146554971133
  0
ARC
  5
9392
  8
0
 10
3459.3569468875939492
 20
189.9104805325802943
 30
0.0
 40
2.3591072508901711
 50
280.4865350929351848
 51
286.9285506816563043
  0
ARC
  5
9393
  8
0
 10
3460.0427125037158476
 20
187.6340370925665013
 30
0.0
 40
0.019593765858847
 50
19.9779328345187395
 51
86.6155266231102843
  0
ARC
  5
9394
  8
0
 10
3460.1280563344580514
 20
187.6213655372476978
 30
0.0
 40
0.0733858267999997
 50
24.2143853445029293
 51
155.785614655403208
  0
LINE
  5
9395
  8
0
 10
3460.1949854683421108
 20
187.651464882965513
 30
0.0
 11
3460.1949854683421108
 21
187.0293764277298862
 31
0.0
  0
LINE
  5
9396
  8
0
 10
3460.0611272005749015
 20
187.029376427729801
 30
0.0
 11
3460.0611272005749015
 21
187.6514648829655982
 31
0.0
  0
ARC
  5
9397
  8
0
 10
3483.4811272006081708
 20
187.3404206553477138
 30
0.0
 40
1.197440944899999
 50
195.055671630110993
 51
164.944328369889007
  0
ARC
  5
9398
  8
0
 10
3483.481127200535866
 20
187.3404206553477138
 30
0.0
 40
1.0658936224999991
 50
196.9666756978485012
 51
163.0333243021514988
  0
ARC
  5
9399
  8
0
 10
3483.4811272006081708
 20
187.3404206553477138
 30
0.0
 40
0.9363925276999998
 50
199.4007152514672896
 51
160.5992847485327104
  0
ARC
  5
939B
  8
0
 10
3483.4811272006081708
 20
187.3404206553477138
 30
0.0
 40
0.6374999999504462
 50
209.2239149125290112
 51
150.7760850874709888
  0
ARC
  5
939C
  8
0
 10
3483.4811272005581486
 20
187.341042667647713
 30
0.0
 40
0.5373400634999999
 50
211.9136700283823984
 51
148.2212102331272945
  0
ARC
  5
939D
  8
0
 10
3483.4811272005581486
 20
187.3404206553477138
 30
0.0
 40
0.4717128249
 50
214.5267045545762983
 51
145.473295445423588
  0
ARC
  5
939E
  8
0
 10
3483.4811272005581486
 20
187.3404206553477138
 30
0.0
 40
0.3947369031579111
 50
219.3631125302474061
 51
140.6368874697525087
  0
ARC
  5
939F
  8
0
 10
3483.6053075136228472
 20
184.7703607781151049
 30
0.0
 40
2.3591072508901711
 50
100.486535092935199
 51
106.9120556238706001
  0
ARC
  5
93A0
  8
0
 10
3482.9197685973640546
 20
187.047471034628586
 30
0.0
 40
0.0200421742808838
 50
201.5482650368988118
 51
267.9021587660752743
  0
ARC
  5
93A1
  8
0
 10
3482.8341980667578355
 20
187.0594757734477014
 30
0.0
 40
0.0733858267999997
 50
204.2143853445030004
 51
335.785614655403208
  0
ARC
  5
93A2
  8
0
 10
3483.6053075136228472
 20
189.9104805325802943
 30
0.0
 40
2.3591072508901711
 50
253.0714493183438094
 51
259.5134649070648152
  0
ARC
  5
93A3
  8
0
 10
3482.9191134634388618
 20
187.6346118124920963
 30
0.0
 40
0.0189988361751561
 50
92.1969126623480548
 51
161.2096278800312064
  0
ARC
  5
93A4
  8
0
 10
3482.8341980667578355
 20
187.6213655372476978
 30
0.0
 40
0.0733858267999997
 50
24.2143853445967885
 51
155.7856146554969996
  0
LINE
  5
93A5
  8
0
 10
3482.7672689328737761
 20
187.651464882965513
 30
0.0
 11
3482.7672689328737761
 21
187.0293764277298862
 31
0.0
  0
LINE
  5
93A6
  8
0
 10
3482.9011272006428044
 20
187.029376427729801
 30
0.0
 11
3482.9011272006428044
 21
187.6514648829655982
 31
0.0
  0
LINE
  5
93A7
  8
0
 10
3460.1949854683421108
 20
187.651464882965513
 30
0.0
 11
3482.7672689328737761
 21
187.651464882965513
 31
0.0
  0
LINE
  5
93A8
  8
0
 10
3460.1949854683421108
 20
187.0293764277298862
 30
0.0
 11
3482.7672689328737761
 21
187.0293764277298862
 31
0.0
  0
ENDSEC
  0
EOF
