  0
SECTION
  2
HEADER
  9
$ACADVER
  1
AC1009
  9
$INSBASE
 10
367.8041511784687145
 20
57.2720347161098289
 30
0.0
  9
$EXTMIN
 10
361.512645424015318
 20
56.3841826332162483
 30
-0.0015258207003583
  9
$EXTMAX
 10
367.8266146159076015
 20
58.1590002336104206
 30
0.0000000349246037
  9
$LIMMIN
 10
0.0
 20
0.0
  9
$LIMMAX
 10
11.6929133858000007
 20
8.2677165353999982
  9
$ORTHOMODE
 70
     0
  9
$REGENMODE
 70
     1
  9
$FILLMODE
 70
     1
  9
$QTEXTMODE
 70
     0
  9
$MIRRTEXT
 70
     0
  9
$DRAGMODE
 70
     2
  9
$LTSCALE
 40
0.6431102362
  9
$OSMODE
 70
  4095
  9
$ATTMODE
 70
     1
  9
$TEXTSIZE
 40
0.2
  9
$TRACEWID
 40
0.05
  9
$TEXTSTYLE
  7
STANDARD
  9
$CLAYER
  8
0
  9
$CELTYPE
  6
BYLAYER
  9
$CECOLOR
 62
   256
  9
$DIMSCALE
 40
1.0
  9
$DIMASZ
 40
0.1875
  9
$DIMEXO
 40
0.0625
  9
$DIMDLI
 40
0.4443307087
  9
$DIMRND
 40
0.0
  9
$DIMDLE
 40
0.0
  9
$DIMEXE
 40
0.125
  9
$DIMTP
 40
0.01
  9
$DIMTM
 40
0.01
  9
$DIMTXT
 40
1.0
  9
$DIMCEN
 40
0.1052362205
  9
$DIMTSZ
 40
0.0
  9
$DIMTOL
 70
     1
  9
$DIMLIM
 70
     0
  9
$DIMTIH
 70
     0
  9
$DIMTOH
 70
     1
  9
$DIMSE1
 70
     0
  9
$DIMSE2
 70
     0
  9
$DIMTAD
 70
     0
  9
$DIMZIN
 70
     0
  9
$DIMBLK
  1

  9
$DIMASO
 70
     1
  9
$DIMSHO
 70
     1
  9
$DIMPOST
  1
\X
  9
$DIMAPOST
  1

  9
$DIMALT
 70
     1
  9
$DIMALTD
 70
     2
  9
$DIMALTF
 40
25.3999999999999986
  9
$DIMLFAC
 40
1.0
  9
$DIMTOFL
 70
     0
  9
$DIMTVP
 40
0.0
  9
$DIMTIX
 70
     0
  9
$DIMSOXD
 70
     0
  9
$DIMSAH
 70
     0
  9
$DIMBLK1
  1

  9
$DIMBLK2
  1

  9
$DIMSTYLE
  2
STANDARD
  9
$DIMCLRD
 70
     0
  9
$DIMCLRE
 70
     0
  9
$DIMCLRT
 70
     0
  9
$DIMTFAC
 40
1.0
  9
$DIMGAP
 40
0.09
  9
$LUNITS
 70
     2
  9
$LUPREC
 70
     4
  9
$SKETCHINC
 40
0.1
  9
$FILLETRAD
 40
0.0
  9
$AUNITS
 70
     0
  9
$AUPREC
 70
     0
  9
$MENU
  1
.
  9
$ELEVATION
 40
0.0
  9
$PELEVATION
 40
0.0
  9
$THICKNESS
 40
0.0
  9
$LIMCHECK
 70
     0
  9
$BLIPMODE
 70
     0
  9
$CHAMFERA
 40
0.0
  9
$CHAMFERB
 40
0.0
  9
$SKPOLY
 70
     0
  9
$TDCREATE
 40
2458172.5207638889551163
  9
$TDUPDATE
 40
2460020.372928240802139
  9
$TDINDWG
 40
0.2923120139
  9
$TDUSRTIMER
 40
0.2923120139
  9
$USRTIMER
 70
     1
  9
$ANGBASE
 50
0.0
  9
$ANGDIR
 70
     0
  9
$PDMODE
 70
     0
  9
$PDSIZE
 40
0.3125
  9
$PLINEWID
 40
0.0
  9
$COORDS
 70
     1
  9
$SPLFRAME
 70
     0
  9
$SPLINETYPE
 70
     6
  9
$SPLINESEGS
 70
     8
  9
$ATTDIA
 70
     1
  9
$ATTREQ
 70
     1
  9
$HANDLING
 70
     1
  9
$HANDSEED
  5
112AA
  9
$SURFTAB1
 70
     6
  9
$SURFTAB2
 70
     6
  9
$SURFTYPE
 70
     6
  9
$SURFU
 70
     6
  9
$SURFV
 70
     6
  9
$UCSNAME
  2

  9
$UCSORG
 10
0.0
 20
0.0
 30
0.0
  9
$UCSXDIR
 10
1.0
 20
0.0
 30
0.0
  9
$UCSYDIR
 10
0.0
 20
1.0
 30
0.0
  9
$PUCSNAME
  2

  9
$PUCSORG
 10
0.0
 20
0.0
 30
0.0
  9
$PUCSXDIR
 10
1.0
 20
0.0
 30
0.0
  9
$PUCSYDIR
 10
0.0
 20
1.0
 30
0.0
  9
$USERI1
 70
     0
  9
$USERI2
 70
     0
  9
$USERI3
 70
     0
  9
$USERI4
 70
     0
  9
$USERI5
 70
     0
  9
$USERR1
 40
0.0
  9
$USERR2
 40
0.0
  9
$USERR3
 40
0.0
  9
$USERR4
 40
0.0
  9
$USERR5
 40
0.0
  9
$WORLDVIEW
 70
     1
  9
$SHADEDGE
 70
     3
  9
$SHADEDIF
 70
    70
  9
$TILEMODE
 70
     1
  9
$MAXACTVP
 70
    64
  9
$PLIMCHECK
 70
     0
  9
$PEXTMIN
 10
1.0000000000000000E+20
 20
1.0000000000000000E+20
 30
1.0000000000000000E+20
  9
$PEXTMAX
 10
-1.0000000000000000E+20
 20
-1.0000000000000000E+20
 30
-1.0000000000000000E+20
  9
$PLIMMIN
 10
0.0
 20
0.0
  9
$PLIMMAX
 10
12.0
 20
9.0
  9
$UNITMODE
 70
     0
  9
$VISRETAIN
 70
     1
  9
$PLINEGEN
 70
     0
  9
$PSLTSCALE
 70
     1
  0
ENDSEC
  0
SECTION
  2
TABLES
  0
TABLE
  2
VPORT
 70
     1
  0
VPORT
  2
*ACTIVE
 70
     0
 10
0.0
 20
0.0
 11
1.0
 21
1.0
 12
-64.9596590880922804
 22
-12.4309500788053509
 13
0.0
 23
0.0
 14
1.0
 24
1.0
 15
0.0
 25
0.0
 16
0.0
 26
0.0
 36
14.6338572656650907
 17
429.6292891080536833
 27
69.7025415122186871
 37
0.0
 40
2.774131432440627
 41
2.2831541218637992
 42
50.0
 43
0.0
 44
0.0
 50
0.0
 51
0.0
 71
     0
 72
   100
 73
     1
 74
     1
 75
     0
 76
     0
 77
     0
 78
     1
  0
ENDTAB
  0
TABLE
  2
LTYPE
 70
     2
  0
LTYPE
  2
CONTINUOUS
 70
     0
  3
Solid line
 72
    65
 73
     0
 40
0.0
  0
LTYPE
  2
PHANTOM2
 70
     0
  3
___ _ _ ___ _ _ ___ _ _ ___ _ _
 72
    65
 73
     6
 40
1.25
 49
0.625
 49
-0.125
 49
0.125
 49
-0.125
 49
0.125
 49
-0.125
  0
ENDTAB
  0
TABLE
  2
LAYER
 70
     2
  0
LAYER
  2
0
 70
     0
 62
   255
  6
CONTINUOUS
  0
LAYER
  2
DEFPOINTS
 70
     0
 62
     7
  6
CONTINUOUS
  0
ENDTAB
  0
TABLE
  2
STYLE
 70
     1
  0
STYLE
  2
STANDARD
 70
     0
 40
0.0
 41
0.8
 50
0.0
 71
     0
 42
0.2
  3
txt
  4

  0
ENDTAB
  0
TABLE
  2
VIEW
 70
     0
  0
ENDTAB
  0
TABLE
  2
UCS
 70
     0
  0
ENDTAB
  0
TABLE
  2
APPID
 70
    10
  0
APPID
  2
ACAD
 70
     0
  0
APPID
  2
ACAD_MLEADERVER
 70
     0
  0
APPID
  2
ACAD_EXEMPT_FROM_CAD_STANDARDS
 70
     0
  0
APPID
  2
ACAD_DSTYLE_DIMJAG
 70
     0
  0
APPID
  2
ACAD_DSTYLE_DIMTALN
 70
     0
  0
APPID
  2
ACAD_NAV_VCDISPLAY
 70
     0
  0
APPID
  2
ACAECLAYERSTANDARD
 70
     0
  0
APPID
  2
ACCMTRANSPARENCY
 70
     0
  0
APPID
  2
DCO15
 70
     0
  0
APPID
  2
ACDBATTR
 70
     0
  0
ENDTAB
  0
TABLE
  2
DIMSTYLE
 70
     1
  0
DIMSTYLE
  2
STANDARD
 70
     0
  3

  4

  5

  6

  7

 40
1.0
 41
0.1875
 42
0.0625
 43
0.38
 44
0.125
 45
0.0
 46
0.0
 47
0.01
 48
0.01
140
0.15625
141
0.09
142
0.0
143
25.3999999999999986
144
1.0
145
0.0
146
1.0
147
0.09
 71
     1
 72
     0
 73
     1
 74
     1
 75
     0
 76
     0
 77
     0
 78
     4
170
     0
171
     2
172
     0
173
     0
174
     0
175
     0
176
     0
177
     0
178
     0
  0
ENDTAB
  0
ENDSEC
  0
SECTION
  2
BLOCKS
  0
BLOCK
  8
0
  2
$MODEL_SPACE
 70
     0
 10
0.0
 20
0.0
 30
0.0
  3
$MODEL_SPACE
  1

  0
ENDBLK
  5
21
  8
0
  0
BLOCK
 67
     1
  8
0
  2
$PAPER_SPACE
 70
     0
 10
0.0
 20
0.0
 30
0.0
  3
$PAPER_SPACE
  1

  0
ENDBLK
  5
1D
 67
     1
  8
0
  0
BLOCK
  8
0
  2
_FILLED
 70
     0
 10
0.0
 20
0.0
 30
0.0
  3
_FILLED
  1

  0
SOLID
  5
1112A
  8
0
  6
BYBLOCK
 62
     0
 10
0.0
 20
0.0
 30
0.0
 11
-1.0
 21
0.1666666667
 31
0.0
 12
-1.0
 22
-0.1666666667
 32
0.0
 13
-1.0
 23
-0.1666666667
 33
0.0
  0
ENDBLK
  5
1112B
  8
0
  6
BYBLOCK
 62
     0
  0
ENDSEC
  0
SECTION
  2
ENTITIES
  0
ATTDEF
  5
10CA6
  8
DEFPOINTS
 10
367.8047222579738786
 20
57.2764089587124303
 30
0.0
 40
0.001
  1
K-10385IN
  3

  2
MODELNUMBER
 70
     0
1001
ACDBATTR
1070
     0
1070
     1
  0
ATTDEF
  5
10CA7
  8
DEFPOINTS
 10
367.8047222579738786
 20
57.2747422920457723
 30
0.0
 40
0.001
  1
COMPLEMENTARY
  3

  2
TRADENAME
 70
     0
1001
ACDBATTR
1070
     0
1070
     1
  0
ATTDEF
  5
10CA8
  8
DEFPOINTS
 10
367.8047222579738786
 20
57.2730756253791
 30
0.0
 40
0.001
  1
BATH SPOUT
  3

  2
PRODUCT
 70
     0
1001
ACDBATTR
1070
     0
1070
     1
  0
LINE
  5
11149
  8
0
 10
362.6361884283301151
 20
56.7561940890527481
 30
0.0
 11
361.7700466960300787
 21
56.7561940890527481
 31
0.0
  0
LINE
  5
1114A
  8
0
 10
367.8041511790397067
 20
58.1578696664974188
 30
0.0
 11
367.8041511778977224
 21
56.3861997657222389
 31
0.0
  0
ARC
  5
1114B
  8
0
 10
361.5871982227811827
 20
57.1748773391450769
 30
0.0
 40
0.0591066015938983
 50
169.2397472855518004
 51
263.2569448901189162
  0
ARC
  5
1114C
  8
0
 10
361.5880955154806884
 20
57.1747068164451875
 30
0.0
 40
0.0600199537601899
 50
146.756281136584704
 51
169.2397472855514025
  0
LINE
  5
1114D
  8
0
 10
361.5378980517301102
 20
57.2076098479527531
 30
0.0
 11
361.9729250253084842
 21
57.9489257409061693
 31
0.0
  0
ARC
  5
1114E
  8
0
 10
362.025887133840115
 20
57.919649233727732
 30
0.0
 40
0.0605152775146579
 50
92.5040077748518144
 51
151.0669666915804896
  0
ARC
  5
1114F
  8
0
 10
-94193.5092042356263846
 20
3075128.413489141035825
 30
0.0
 40
3076523.8368943468667567
 50
271.7612365499048792
 51
271.7613442617916917
  0
LINE
  5
11150
  8
0
 10
367.8041511778977224
 20
56.3861997657222389
 30
0.0
 11
362.6834263579933122
 21
56.9868166802704579
 31
0.0
  0
ARC
  5
11151
  8
0
 10
361.6633111429002838
 20
51.89829204520003
 30
0.0
 40
5.189770516485571
 50
78.6639743600443637
 51
83.0244714854943311
  0
ARC
  5
11152
  8
0
 10
363.9339494321378083
 20
78.4944482803129375
 30
0.0
 40
21.5074460321354692
 50
263.7171889170808754
 51
265.6258255077855779
  0
LINE
  5
11153
  8
0
 10
361.82307759537332
 20
57.0908398248684605
 30
0.0
 11
361.7306766000301081
 21
57.0908398411095988
 31
0.0
  0
LINE
  5
11154
  8
0
 10
361.7306766000301081
 20
57.0908398411095988
 30
0.0
 11
361.7306765477687236
 21
56.7955642507527614
 31
0.0
  0
LINE
  5
11155
  8
0
 10
361.7306765477687236
 20
56.7955642507527614
 30
0.0
 11
361.7700466960300787
 21
56.7561940890527481
 31
0.0
  0
LINE
  5
11156
  8
0
 10
362.6361883522300786
 20
56.7561940129527471
 30
0.0
 11
362.6755584379300785
 21
56.7955640847527405
 31
0.0
  0
LINE
  5
11157
  8
0
 10
362.6755584379300785
 20
56.7955640847527405
 30
0.0
 11
362.6755584718226828
 21
56.9883876591224521
 31
0.0
  0
LINE
  5
11158
  8
0
 10
361.7306765477687236
 20
56.7955642511141718
 30
0.0
 11
362.0143052283301017
 21
56.7955642005527466
 31
0.0
  0
LINE
  5
11159
  8
0
 10
362.0143052283301017
 20
56.7955642005527466
 30
0.0
 11
362.014305249066922
 21
56.9136744367527498
 31
0.0
  0
LINE
  5
1115A
  8
0
 10
362.014305249066922
 20
56.9136744367527498
 30
0.0
 11
362.3919297785300841
 21
56.9136743704527603
 31
0.0
  0
LINE
  5
1115B
  8
0
 10
362.3919297785300841
 20
56.9136743704527603
 30
0.0
 11
362.391929757917012
 21
56.79556413425275
 31
0.0
  0
LINE
  5
1115C
  8
0
 10
362.391929757917012
 20
56.79556413425275
 30
0.0
 11
362.6755584379300785
 21
56.79556413425275
 31
0.0
  0
ARC
  5
1115D
  8
0
 10
362.2031175690648865
 20
57.2286350330940508
 30
0.0
 40
0.4724409444700516
 50
246.4435256092820907
 51
293.5564542717374934
  0
LINE
  5
1115E
  8
0
 10
361.7582356551300791
 20
57.0908398362656015
 30
0.0
 11
361.7582356551300791
 21
57.0973338864102331
 31
0.0
  0
ENDSEC
  0
EOF
