  0
SECTION
  2
HEADER
  9
$ACADVER
  1
AC1009
  9
$INSBASE
 10
4276.4694140760029768
 20
215.7970460511928081
 30
0.0
  9
$EXTMIN
 10
4273.2194585531378834
 20
212.6471397076880976
 30
-0.0015258207003583
  9
$EXTMAX
 10
4279.7496339686158535
 20
215.8082973374278879
 30
0.0000000349246037
  9
$LIMMIN
 10
0.0
 20
0.0
  9
$LIMMAX
 10
11.6929133858000007
 20
8.2677165353999982
  9
$ORTHOMODE
 70
     0
  9
$REGENMODE
 70
     1
  9
$FILLMODE
 70
     1
  9
$QTEXTMODE
 70
     0
  9
$MIRRTEXT
 70
     0
  9
$DRAGMODE
 70
     2
  9
$LTSCALE
 40
0.6431102362
  9
$OSMODE
 70
   575
  9
$ATTMODE
 70
     1
  9
$TEXTSIZE
 40
0.2
  9
$TRACEWID
 40
0.05
  9
$TEXTSTYLE
  7
STANDARD
  9
$CLAYER
  8
0
  9
$CELTYPE
  6
BYLAYER
  9
$CECOLOR
 62
   256
  9
$DIMSCALE
 40
1.0
  9
$DIMASZ
 40
0.1875
  9
$DIMEXO
 40
0.0625
  9
$DIMDLI
 40
0.4443307087
  9
$DIMRND
 40
0.0
  9
$DIMDLE
 40
0.0
  9
$DIMEXE
 40
0.125
  9
$DIMTP
 40
0.01
  9
$DIMTM
 40
0.01
  9
$DIMTXT
 40
2.0
  9
$DIMCEN
 40
0.1052362205
  9
$DIMTSZ
 40
0.0
  9
$DIMTOL
 70
     1
  9
$DIMLIM
 70
     0
  9
$DIMTIH
 70
     1
  9
$DIMTOH
 70
     1
  9
$DIMSE1
 70
     0
  9
$DIMSE2
 70
     0
  9
$DIMTAD
 70
     0
  9
$DIMZIN
 70
     0
  9
$DIMBLK
  1

  9
$DIMASO
 70
     1
  9
$DIMSHO
 70
     1
  9
$DIMPOST
  1
\X
  9
$DIMAPOST
  1

  9
$DIMALT
 70
     1
  9
$DIMALTD
 70
     2
  9
$DIMALTF
 40
25.3999999999999986
  9
$DIMLFAC
 40
1.0
  9
$DIMTOFL
 70
     0
  9
$DIMTVP
 40
0.0
  9
$DIMTIX
 70
     0
  9
$DIMSOXD
 70
     0
  9
$DIMSAH
 70
     0
  9
$DIMBLK1
  1

  9
$DIMBLK2
  1

  9
$DIMSTYLE
  2
STANDARD
  9
$DIMCLRD
 70
     0
  9
$DIMCLRE
 70
     0
  9
$DIMCLRT
 70
     0
  9
$DIMTFAC
 40
1.0
  9
$DIMGAP
 40
0.09
  9
$LUNITS
 70
     2
  9
$LUPREC
 70
     4
  9
$SKETCHINC
 40
0.1
  9
$FILLETRAD
 40
0.0
  9
$AUNITS
 70
     0
  9
$AUPREC
 70
     0
  9
$MENU
  1
.
  9
$ELEVATION
 40
0.0
  9
$PELEVATION
 40
0.0
  9
$THICKNESS
 40
0.0
  9
$LIMCHECK
 70
     0
  9
$BLIPMODE
 70
     0
  9
$CHAMFERA
 40
0.0
  9
$CHAMFERB
 40
0.0
  9
$SKPOLY
 70
     0
  9
$TDCREATE
 40
2458060.468368056230247
  9
$TDUPDATE
 40
2459372.0322916670702398
  9
$TDINDWG
 40
0.5485603009
  9
$TDUSRTIMER
 40
0.5485603009
  9
$USRTIMER
 70
     1
  9
$ANGBASE
 50
0.0
  9
$ANGDIR
 70
     0
  9
$PDMODE
 70
     0
  9
$PDSIZE
 40
0.3125
  9
$PLINEWID
 40
0.0
  9
$COORDS
 70
     2
  9
$SPLFRAME
 70
     0
  9
$SPLINETYPE
 70
     6
  9
$SPLINESEGS
 70
     8
  9
$ATTDIA
 70
     1
  9
$ATTREQ
 70
     1
  9
$HANDLING
 70
     1
  9
$HANDSEED
  5
97C5
  9
$SURFTAB1
 70
     6
  9
$SURFTAB2
 70
     6
  9
$SURFTYPE
 70
     6
  9
$SURFU
 70
     6
  9
$SURFV
 70
     6
  9
$UCSNAME
  2

  9
$UCSORG
 10
0.0
 20
0.0
 30
0.0
  9
$UCSXDIR
 10
1.0
 20
0.0
 30
0.0
  9
$UCSYDIR
 10
0.0
 20
1.0
 30
0.0
  9
$PUCSNAME
  2

  9
$PUCSORG
 10
0.0
 20
0.0
 30
0.0
  9
$PUCSXDIR
 10
1.0
 20
0.0
 30
0.0
  9
$PUCSYDIR
 10
0.0
 20
1.0
 30
0.0
  9
$USERI1
 70
     0
  9
$USERI2
 70
     0
  9
$USERI3
 70
     0
  9
$USERI4
 70
     0
  9
$USERI5
 70
     0
  9
$USERR1
 40
0.0
  9
$USERR2
 40
0.0
  9
$USERR3
 40
0.0
  9
$USERR4
 40
0.0
  9
$USERR5
 40
0.0
  9
$WORLDVIEW
 70
     1
  9
$SHADEDGE
 70
     3
  9
$SHADEDIF
 70
    70
  9
$TILEMODE
 70
     1
  9
$MAXACTVP
 70
    64
  9
$PLIMCHECK
 70
     0
  9
$PEXTMIN
 10
1.0000000000000000E+20
 20
1.0000000000000000E+20
 30
1.0000000000000000E+20
  9
$PEXTMAX
 10
-1.0000000000000000E+20
 20
-1.0000000000000000E+20
 30
-1.0000000000000000E+20
  9
$PLIMMIN
 10
0.0
 20
0.0
  9
$PLIMMAX
 10
12.0
 20
9.0
  9
$UNITMODE
 70
     0
  9
$VISRETAIN
 70
     1
  9
$PLINEGEN
 70
     0
  9
$PSLTSCALE
 70
     1
  0
ENDSEC
  0
SECTION
  2
TABLES
  0
TABLE
  2
VPORT
 70
     1
  0
VPORT
  2
*ACTIVE
 70
     0
 10
0.0
 20
0.0
 11
1.0
 21
1.0
 12
0.0150638126086733
 22
-0.0013230691773938
 13
0.0
 23
0.0
 14
1.0
 24
1.0
 15
0.0
 25
0.0
 16
0.0
 26
0.0
 36
29.2307125033095083
 17
4276.469482421875
 27
214.2290415798512129
 37
0.0
 40
4.5007174468136339
 41
2.470684039087947
 42
50.0
 43
0.0
 44
0.0
 50
0.0
 51
0.0
 71
     0
 72
   100
 73
     1
 74
     1
 75
     0
 76
     0
 77
     0
 78
     0
  0
ENDTAB
  0
TABLE
  2
LTYPE
 70
     2
  0
LTYPE
  2
CONTINUOUS
 70
     0
  3
Solid line
 72
    65
 73
     0
 40
0.0
  0
LTYPE
  2
PHANTOM2
 70
     0
  3
___ _ _ ___ _ _ ___ _ _ ___ _ _
 72
    65
 73
     6
 40
1.25
 49
0.625
 49
-0.125
 49
0.125
 49
-0.125
 49
0.125
 49
-0.125
  0
ENDTAB
  0
TABLE
  2
LAYER
 70
     2
  0
LAYER
  2
0
 70
     0
 62
   255
  6
CONTINUOUS
  0
LAYER
  2
DEFPOINTS
 70
     0
 62
     7
  6
CONTINUOUS
  0
ENDTAB
  0
TABLE
  2
STYLE
 70
     1
  0
STYLE
  2
STANDARD
 70
     0
 40
0.0
 41
0.8
 50
0.0
 71
     0
 42
0.2
  3
txt
  4

  0
ENDTAB
  0
TABLE
  2
VIEW
 70
     2
  0
ENDTAB
  0
TABLE
  2
UCS
 70
     0
  0
ENDTAB
  0
TABLE
  2
APPID
 70
     9
  0
APPID
  2
ACAD
 70
     0
  0
APPID
  2
ACAD_MLEADERVER
 70
     0
  0
APPID
  2
ACAD_EXEMPT_FROM_CAD_STANDARDS
 70
     0
  0
APPID
  2
ACAD_NAV_VCDISPLAY
 70
     0
  0
APPID
  2
ACAECLAYERSTANDARD
 70
     0
  0
APPID
  2
ACCMTRANSPARENCY
 70
     0
  0
APPID
  2
ACAD_DSTYLE_DIMJAG
 70
     0
  0
APPID
  2
ACAD_DSTYLE_DIMTALN
 70
     0
  0
APPID
  2
ACDBATTR
 70
     0
  0
ENDTAB
  0
TABLE
  2
DIMSTYLE
 70
     1
  0
DIMSTYLE
  2
STANDARD
 70
     0
  3

  4

  5

  6

  7

 40
1.0
 41
0.1875
 42
0.0625
 43
0.38
 44
0.125
 45
0.0
 46
0.0
 47
0.01
 48
0.01
140
0.15625
141
0.09
142
0.0
143
25.3999999999999986
144
1.0
145
0.0
146
1.0
147
0.09
 71
     1
 72
     0
 73
     1
 74
     1
 75
     0
 76
     0
 77
     0
 78
     4
170
     0
171
     2
172
     0
173
     0
174
     0
175
     0
176
     0
177
     0
178
     0
  0
ENDTAB
  0
ENDSEC
  0
SECTION
  2
BLOCKS
  0
BLOCK
  8
0
  2
$MODEL_SPACE
 70
     0
 10
0.0
 20
0.0
 30
0.0
  3
$MODEL_SPACE
  1

  0
ENDBLK
  5
21
  8
0
  0
BLOCK
 67
     1
  8
0
  2
$PAPER_SPACE
 70
     0
 10
0.0
 20
0.0
 30
0.0
  3
$PAPER_SPACE
  1

  0
ENDBLK
  5
1D
 67
     1
  8
0
  0
BLOCK
  8
0
  2
_FILLED
 70
     0
 10
0.0
 20
0.0
 30
0.0
  3
_FILLED
  1

  0
SOLID
  5
6F59
  8
0
  6
BYBLOCK
 62
     0
 10
0.0
 20
0.0
 30
0.0
 11
-1.0
 21
0.1666666667
 31
0.0
 12
-1.0
 22
-0.1666666667
 32
0.0
 13
-1.0
 23
-0.1666666667
 33
0.0
  0
ENDBLK
  5
6F5A
  8
0
  6
BYBLOCK
 62
     0
  0
ENDSEC
  0
SECTION
  2
ENTITIES
  0
ATTDEF
  5
3930
  8
DEFPOINTS
 10
4276.4697812594076822
 20
215.8007110893898925
 30
0.0
 40
0.001
  1
K-10317T-4
  3

  2
MODELNUMBER
 70
     0
1001
ACDBATTR
1070
     0
1070
     1
  0
ATTDEF
  5
3931
  8
DEFPOINTS
 10
4276.4697812594076822
 20
215.7990444227233127
 30
0.0
 40
0.001
  1
STANCE
  3

  2
TRADENAME
 70
     0
1001
ACDBATTR
1070
     0
1070
     1
  0
ATTDEF
  5
3932
  8
DEFPOINTS
 10
4276.4697812594076822
 20
215.7973777560565907
 30
0.0
 40
0.001
  1
VALVE TRIM
  3

  2
PRODUCT
 70
     0
1001
ACDBATTR
1070
     0
1070
     1
  0
LINE
  5
9517
  8
0
 10
4279.6190203964006287
 20
215.7970460511928081
 30
0.0
 11
4273.3198077556044154
 21
215.7970460511928081
 31
0.0
  0
LINE
  5
9518
  8
0
 10
4277.4339810244000546
 20
214.8780268911295934
 30
0.0
 11
4277.4339810244000546
 21
214.1946838464928078
 31
0.0
  0
LINE
  5
9519
  8
0
 10
4277.4339810244000546
 20
214.0686995944928128
 30
0.0
 11
4277.4339810244000546
 21
212.7158906153927092
 31
0.0
  0
LINE
  5
951A
  8
0
 10
4279.6190203964006287
 20
215.7970460511928081
 30
0.0
 11
4279.5610563324098621
 21
215.1345137890947115
 31
0.0
  0
ARC
  5
951B
  8
0
 10
4279.5414461169420974
 20
215.136229460631796
 30
0.0
 40
0.0196851233053427
 50
279.8377396392862124
 51
355.0000000166144787
  0
LINE
  5
951C
  8
0
 10
4277.422170000800179
 20
214.1828728228927901
 30
0.0
 11
4275.5166581512048651
 21
214.1828728228927901
 31
0.0
  0
LINE
  5
951D
  8
0
 10
4277.399705800799893
 20
214.139593315992812
 30
0.0
 11
4275.5391223511996941
 21
214.139593315992812
 31
0.0
  0
LINE
  5
951E
  8
0
 10
4277.4142959850996704
 20
214.1828728228927901
 30
0.0
 11
4277.4142959850996704
 21
214.1586076060928008
 31
0.0
  0
ARC
  5
951F
  8
0
 10
4277.3946109715343482
 20
214.1586075862603025
 30
0.0
 40
0.0196850135661962
 50
284.9999182169560186
 51
0.0000577250942016
  0
ARC
  5
9520
  8
0
 10
3005.0929565033611652
 20
4962.3232214256522639
 30
0.0
 40
4915.6904123995063856
 50
284.9996082615107866
 51
285.0003915789687881
  0
ARC
  5
9521
  8
0
 10
4277.3551698361507079
 20
214.0461427892319932
 30
0.0
 40
0.0787395215294938
 50
104.9996288484183964
 51
179.2779877284885117
  0
ARC
  5
9522
  8
0
 10
4276.4694651508198149
 20
214.0573045800155114
 30
0.0
 40
0.8070354923379168
 50
347.3444224806146963
 51
359.2779877284884833
  0
ARC
  5
9523
  8
0
 10
4277.1559938286700344
 20
214.0909480565888998
 30
0.0
 40
0.2788760926566605
 50
299.9943434622916811
 51
355.4241359351756273
  0
ARC
  5
9524
  8
0
 10
4277.1097514065868381
 20
214.1151437814779115
 30
0.0
 40
0.2769703130823274
 50
302.0903637453332067
 51
350.3466646082891884
  0
ARC
  5
9525
  8
0
 10
4276.6543177768480746
 20
214.8787949604794107
 30
0.0
 40
1.166064996636645
 50
276.4404168335308896
 51
301.1151714408708244
  0
ARC
  5
9526
  8
0
 10
4276.5773301901635932
 20
214.9863784486259135
 30
0.0
 40
1.344733853685514
 50
283.9912462146302801
 51
302.2756134486090787
  0
ARC
  5
9527
  8
0
 10
4277.4210820121015786
 20
214.1957718351916924
 30
0.0
 40
0.0129448150893541
 50
274.8212961839441277
 51
355.1787038160372276
  0
LINE
  5
9528
  8
0
 10
4277.4339810244000546
 20
214.0686995944928981
 30
0.0
 11
4277.2797304380410424
 21
214.0686995944928981
 31
0.0
  0
LINE
  5
9529
  8
0
 10
4275.50484712760408
 20
214.8780268911295934
 30
0.0
 11
4275.50484712760408
 21
214.1946838464928078
 31
0.0
  0
ARC
  5
952A
  8
0
 10
4273.3973820350629467
 20
215.136229460631796
 30
0.0
 40
0.0196851233053427
 50
184.9999999833854929
 51
260.1622603607136739
  0
LINE
  5
952B
  8
0
 10
4275.5245321669035548
 20
214.1828728228927901
 30
0.0
 11
4275.5245321669035548
 21
214.1586076060928008
 31
0.0
  0
ARC
  5
952C
  8
0
 10
4275.5442171804697864
 20
214.1586075862603025
 30
0.0
 40
0.0196850135661962
 50
179.9999422749058056
 51
255.0000817830440099
  0
ARC
  5
952D
  8
0
 10
5547.8458716486438789
 20
4962.3232214256522639
 30
0.0
 40
4915.6904123995063856
 50
254.9996084210310983
 51
255.0003917384890997
  0
ARC
  5
952E
  8
0
 10
4275.5836583158534268
 20
214.0461427892319932
 30
0.0
 40
0.0787395215294938
 50
0.7220122715114567
 51
75.0003711515815752
  0
ARC
  5
952F
  8
0
 10
4276.4693630011861387
 20
214.0573045800155114
 30
0.0
 40
0.8070354923379168
 50
180.722012271511403
 51
192.6555775193853037
  0
ARC
  5
9530
  8
0
 10
4275.7828343233341002
 20
214.0909480565888998
 30
0.0
 40
0.2788760926566605
 50
184.5758640648244011
 51
240.0056565377082904
  0
ARC
  5
9531
  8
0
 10
4275.829076745418206
 20
214.1151437814779115
 30
0.0
 40
0.2769703130823274
 50
189.6533353917106979
 51
237.9096362546667933
  0
ARC
  5
9532
  8
0
 10
4276.284510375157879
 20
214.8787949604794107
 30
0.0
 40
1.166064996636645
 50
238.8848285591292893
 51
263.5595831664691104
  0
ARC
  5
9533
  8
0
 10
4276.3614979618396319
 20
214.9863784486259135
 30
0.0
 40
1.344733853685514
 50
237.7243865513908929
 51
256.0087537853696062
  0
ARC
  5
9534
  8
0
 10
4275.517746139902556
 20
214.1957718351916924
 30
0.0
 40
0.0129448150893541
 50
184.8212961839626871
 51
265.1787038160558723
  0
LINE
  5
9535
  8
0
 10
4275.50484712760408
 20
214.0686995944928981
 30
0.0
 11
4275.6590977139630922
 21
214.0686995944928981
 31
0.0
  0
LINE
  5
9536
  8
0
 10
4273.3198077556044154
 20
215.7970460511928081
 30
0.0
 11
4273.3777718195942725
 21
215.1345137890947115
 31
0.0
  0
ARC
  5
9537
  8
0
 10
4276.4694140760029768
 20
232.8521643896486069
 30
0.0
 40
18.0000002281558302
 50
260.1624483686612166
 51
279.8375516313387834
  0
ARC
  5
9538
  8
0
 10
4276.4694140760029768
 20
215.885057556401506
 30
0.0
 40
2.1878656835726078
 50
261.7034633739789911
 51
278.2965366260210089
  0
ARC
  5
9539
  8
0
 10
4276.4694140760029768
 20
215.7814878650721937
 30
0.0
 40
2.1441328113892801
 50
258.3481766301349012
 51
281.6518233698649851
  0
ARC
  5
953A
  8
0
 10
4277.4142886106728838
 20
212.7158973216949107
 30
0.0
 40
0.0196924148694834
 50
275.452101212800585
 51
359.980487775642473
  0
LINE
  5
953B
  8
0
 10
4275.50484712760408
 20
214.0686995944928128
 30
0.0
 11
4275.50484712760408
 21
212.7158906153927092
 31
0.0
  0
ARC
  5
953C
  8
0
 10
4275.5245395413321603
 20
212.7158973216949107
 30
0.0
 40
0.0196924148694834
 50
180.0195122243574133
 51
264.547898787199415
  0
ARC
  5
953D
  8
0
 10
4276.4694140760029768
 20
222.6513771666477055
 30
0.0
 40
10.0000004067548698
 50
264.5674112781709937
 51
275.4325887218290063
  0
ENDSEC
  0
EOF
