  0
SECTION
  2
HEADER
  9
$ACADVER
  1
AC1009
  9
$INSBASE
 10
4268.0962566599146157
 20
215.3670179703875078
 30
0.0
  9
$EXTMIN
 10
4264.8588221662657816
 20
211.8551760534789992
 30
-0.0015258207003583
  9
$EXTMAX
 10
4271.3762211674466016
 20
218.8855092925903989
 30
0.0000000349246037
  9
$LIMMIN
 10
0.0
 20
0.0
  9
$LIMMAX
 10
11.6929133858000007
 20
8.2677165353999982
  9
$ORTHOMODE
 70
     0
  9
$REGENMODE
 70
     1
  9
$FILLMODE
 70
     1
  9
$QTEXTMODE
 70
     0
  9
$MIRRTEXT
 70
     0
  9
$DRAGMODE
 70
     2
  9
$LTSCALE
 40
0.6431102362
  9
$OSMODE
 70
   575
  9
$ATTMODE
 70
     1
  9
$TEXTSIZE
 40
0.2
  9
$TRACEWID
 40
0.05
  9
$TEXTSTYLE
  7
STANDARD
  9
$CLAYER
  8
0
  9
$CELTYPE
  6
BYLAYER
  9
$CECOLOR
 62
   256
  9
$DIMSCALE
 40
1.0
  9
$DIMASZ
 40
0.1875
  9
$DIMEXO
 40
0.0625
  9
$DIMDLI
 40
0.4443307087
  9
$DIMRND
 40
0.0
  9
$DIMDLE
 40
0.0
  9
$DIMEXE
 40
0.125
  9
$DIMTP
 40
0.01
  9
$DIMTM
 40
0.01
  9
$DIMTXT
 40
2.0
  9
$DIMCEN
 40
0.1052362205
  9
$DIMTSZ
 40
0.0
  9
$DIMTOL
 70
     1
  9
$DIMLIM
 70
     0
  9
$DIMTIH
 70
     1
  9
$DIMTOH
 70
     1
  9
$DIMSE1
 70
     0
  9
$DIMSE2
 70
     0
  9
$DIMTAD
 70
     0
  9
$DIMZIN
 70
     0
  9
$DIMBLK
  1

  9
$DIMASO
 70
     1
  9
$DIMSHO
 70
     1
  9
$DIMPOST
  1
\X
  9
$DIMAPOST
  1

  9
$DIMALT
 70
     1
  9
$DIMALTD
 70
     2
  9
$DIMALTF
 40
25.3999999999999986
  9
$DIMLFAC
 40
1.0
  9
$DIMTOFL
 70
     0
  9
$DIMTVP
 40
0.0
  9
$DIMTIX
 70
     0
  9
$DIMSOXD
 70
     0
  9
$DIMSAH
 70
     0
  9
$DIMBLK1
  1

  9
$DIMBLK2
  1

  9
$DIMSTYLE
  2
STANDARD
  9
$DIMCLRD
 70
     0
  9
$DIMCLRE
 70
     0
  9
$DIMCLRT
 70
     0
  9
$DIMTFAC
 40
1.0
  9
$DIMGAP
 40
0.09
  9
$LUNITS
 70
     2
  9
$LUPREC
 70
     4
  9
$SKETCHINC
 40
0.1
  9
$FILLETRAD
 40
0.0
  9
$AUNITS
 70
     0
  9
$AUPREC
 70
     0
  9
$MENU
  1
.
  9
$ELEVATION
 40
0.0
  9
$PELEVATION
 40
0.0
  9
$THICKNESS
 40
0.0
  9
$LIMCHECK
 70
     0
  9
$BLIPMODE
 70
     0
  9
$CHAMFERA
 40
0.0
  9
$CHAMFERB
 40
0.0
  9
$SKPOLY
 70
     0
  9
$TDCREATE
 40
2458060.468368056230247
  9
$TDUPDATE
 40
2459372.0316435191780329
  9
$TDINDWG
 40
0.5514653935
  9
$TDUSRTIMER
 40
0.5514653935
  9
$USRTIMER
 70
     1
  9
$ANGBASE
 50
0.0
  9
$ANGDIR
 70
     0
  9
$PDMODE
 70
     0
  9
$PDSIZE
 40
0.3125
  9
$PLINEWID
 40
0.0
  9
$COORDS
 70
     2
  9
$SPLFRAME
 70
     0
  9
$SPLINETYPE
 70
     6
  9
$SPLINESEGS
 70
     8
  9
$ATTDIA
 70
     1
  9
$ATTREQ
 70
     1
  9
$HANDLING
 70
     1
  9
$HANDSEED
  5
982D
  9
$SURFTAB1
 70
     6
  9
$SURFTAB2
 70
     6
  9
$SURFTYPE
 70
     6
  9
$SURFU
 70
     6
  9
$SURFV
 70
     6
  9
$UCSNAME
  2

  9
$UCSORG
 10
0.0
 20
0.0
 30
0.0
  9
$UCSXDIR
 10
1.0
 20
0.0
 30
0.0
  9
$UCSYDIR
 10
0.0
 20
1.0
 30
0.0
  9
$PUCSNAME
  2

  9
$PUCSORG
 10
0.0
 20
0.0
 30
0.0
  9
$PUCSXDIR
 10
1.0
 20
0.0
 30
0.0
  9
$PUCSYDIR
 10
0.0
 20
1.0
 30
0.0
  9
$USERI1
 70
     0
  9
$USERI2
 70
     0
  9
$USERI3
 70
     0
  9
$USERI4
 70
     0
  9
$USERI5
 70
     0
  9
$USERR1
 40
0.0
  9
$USERR2
 40
0.0
  9
$USERR3
 40
0.0
  9
$USERR4
 40
0.0
  9
$USERR5
 40
0.0
  9
$WORLDVIEW
 70
     1
  9
$SHADEDGE
 70
     3
  9
$SHADEDIF
 70
    70
  9
$TILEMODE
 70
     1
  9
$MAXACTVP
 70
    64
  9
$PLIMCHECK
 70
     0
  9
$PEXTMIN
 10
1.0000000000000000E+20
 20
1.0000000000000000E+20
 30
1.0000000000000000E+20
  9
$PEXTMAX
 10
-1.0000000000000000E+20
 20
-1.0000000000000000E+20
 30
-1.0000000000000000E+20
  9
$PLIMMIN
 10
0.0
 20
0.0
  9
$PLIMMAX
 10
12.0
 20
9.0
  9
$UNITMODE
 70
     0
  9
$VISRETAIN
 70
     1
  9
$PLINEGEN
 70
     0
  9
$PSLTSCALE
 70
     1
  0
ENDSEC
  0
SECTION
  2
TABLES
  0
TABLE
  2
VPORT
 70
     1
  0
VPORT
  2
*ACTIVE
 70
     0
 10
0.0
 20
0.0
 11
1.0
 21
1.0
 12
0.0210861202372961
 22
0.0033230021702515
 13
0.0
 23
0.0
 14
1.0
 24
1.0
 15
0.0
 25
0.0
 16
0.0
 26
0.0
 36
39.168402543910382
 17
4268.096435546875
 27
215.3670196533203125
 37
0.0
 40
9.2995876561997122
 41
2.470684039087947
 42
50.0
 43
0.0
 44
0.0
 50
0.0
 51
0.0
 71
     0
 72
   100
 73
     1
 74
     1
 75
     0
 76
     0
 77
     0
 78
     0
  0
ENDTAB
  0
TABLE
  2
LTYPE
 70
     2
  0
LTYPE
  2
CONTINUOUS
 70
     0
  3
Solid line
 72
    65
 73
     0
 40
0.0
  0
LTYPE
  2
PHANTOM2
 70
     0
  3
___ _ _ ___ _ _ ___ _ _ ___ _ _
 72
    65
 73
     6
 40
1.25
 49
0.625
 49
-0.125
 49
0.125
 49
-0.125
 49
0.125
 49
-0.125
  0
ENDTAB
  0
TABLE
  2
LAYER
 70
     2
  0
LAYER
  2
0
 70
     0
 62
   255
  6
CONTINUOUS
  0
LAYER
  2
DEFPOINTS
 70
     0
 62
     7
  6
CONTINUOUS
  0
ENDTAB
  0
TABLE
  2
STYLE
 70
     1
  0
STYLE
  2
STANDARD
 70
     0
 40
0.0
 41
0.8
 50
0.0
 71
     0
 42
0.2
  3
txt
  4

  0
ENDTAB
  0
TABLE
  2
VIEW
 70
     1
  0
ENDTAB
  0
TABLE
  2
UCS
 70
     0
  0
ENDTAB
  0
TABLE
  2
APPID
 70
     9
  0
APPID
  2
ACAD
 70
     0
  0
APPID
  2
ACAD_MLEADERVER
 70
     0
  0
APPID
  2
ACAD_EXEMPT_FROM_CAD_STANDARDS
 70
     0
  0
APPID
  2
ACAD_NAV_VCDISPLAY
 70
     0
  0
APPID
  2
ACAECLAYERSTANDARD
 70
     0
  0
APPID
  2
ACCMTRANSPARENCY
 70
     0
  0
APPID
  2
ACAD_DSTYLE_DIMJAG
 70
     0
  0
APPID
  2
ACAD_DSTYLE_DIMTALN
 70
     0
  0
APPID
  2
ACDBATTR
 70
     0
  0
ENDTAB
  0
TABLE
  2
DIMSTYLE
 70
     1
  0
DIMSTYLE
  2
STANDARD
 70
     0
  3

  4

  5

  6

  7

 40
1.0
 41
0.1875
 42
0.0625
 43
0.38
 44
0.125
 45
0.0
 46
0.0
 47
0.01
 48
0.01
140
0.15625
141
0.09
142
0.0
143
25.3999999999999986
144
1.0
145
0.0
146
1.0
147
0.09
 71
     1
 72
     0
 73
     1
 74
     1
 75
     0
 76
     0
 77
     0
 78
     4
170
     0
171
     2
172
     0
173
     0
174
     0
175
     0
176
     0
177
     0
178
     0
  0
ENDTAB
  0
ENDSEC
  0
SECTION
  2
BLOCKS
  0
BLOCK
  8
0
  2
$MODEL_SPACE
 70
     0
 10
0.0
 20
0.0
 30
0.0
  3
$MODEL_SPACE
  1

  0
ENDBLK
  5
21
  8
0
  0
BLOCK
 67
     1
  8
0
  2
$PAPER_SPACE
 70
     0
 10
0.0
 20
0.0
 30
0.0
  3
$PAPER_SPACE
  1

  0
ENDBLK
  5
1D
 67
     1
  8
0
  0
BLOCK
  8
0
  2
_FILLED
 70
     0
 10
0.0
 20
0.0
 30
0.0
  3
_FILLED
  1

  0
SOLID
  5
6F59
  8
0
  6
BYBLOCK
 62
     0
 10
0.0
 20
0.0
 30
0.0
 11
-1.0
 21
0.1666666667
 31
0.0
 12
-1.0
 22
-0.1666666667
 32
0.0
 13
-1.0
 23
-0.1666666667
 33
0.0
  0
ENDBLK
  5
6F5A
  8
0
  6
BYBLOCK
 62
     0
  0
ENDSEC
  0
SECTION
  2
ENTITIES
  0
ATTDEF
  5
3930
  8
DEFPOINTS
 10
4268.096641280937547
 20
215.3658107286331926
 30
0.0
 40
0.001
  1
K-10317T-4
  3

  2
MODELNUMBER
 70
     0
1001
ACDBATTR
1070
     0
1070
     1
  0
ATTDEF
  5
3931
  8
DEFPOINTS
 10
4268.096641280937547
 20
215.3641440619666128
 30
0.0
 40
0.001
  1
STANCE
  3

  2
TRADENAME
 70
     0
1001
ACDBATTR
1070
     0
1070
     1
  0
ATTDEF
  5
3932
  8
DEFPOINTS
 10
4268.096641280937547
 20
215.3624773952998908
 30
0.0
 40
0.001
  1
VALVE TRIM
  3

  2
PRODUCT
 70
     0
1001
ACDBATTR
1070
     0
1070
     1
  0
LINE
  5
9479
  8
0
 10
4271.0889819236135736
 20
218.8788289939874971
 30
0.0
 11
4265.103116693823722
 21
218.8788289939874971
 31
0.0
  0
LINE
  5
947A
  8
0
 10
4268.1315716398130462
 20
211.9223250569874892
 30
0.0
 11
4268.0609416800170948
 21
211.9223250569874892
 31
0.0
  0
LINE
  5
947B
  8
0
 10
4268.1540238015131763
 20
215.3697766907874893
 30
0.0
 11
4268.1512566640376463
 21
211.9419856538791009
 31
0.0
  0
LINE
  5
947C
  8
0
 10
4271.2458629803131771
 20
212.0120616469795038
 30
0.0
 11
4271.2458629803131771
 21
218.721947941087592
 31
0.0
  0
LINE
  5
947D
  8
0
 10
4268.332477151612693
 20
211.8552069467874901
 30
0.0
 11
4267.8600361682183575
 21
211.8552069467874901
 31
0.0
  0
LINE
  5
947E
  8
0
 10
4267.5244089248171804
 20
211.8552069467874901
 30
0.0
 11
4265.10302697897896
 21
211.8552069467874901
 31
0.0
  0
LINE
  5
947F
  8
0
 10
4268.6681043950129606
 20
211.8552069467874901
 30
0.0
 11
4271.0889819236135736
 21
211.8552069467874901
 31
0.0
  0
LINE
  5
9480
  8
0
 10
4268.6577710883129839
 20
211.8655402534874952
 30
0.0
 11
4268.3428104584127141
 21
211.8655402534874952
 31
0.0
  0
LINE
  5
9481
  8
0
 10
4268.3428104584127141
 20
211.8655402534874952
 30
0.0
 11
4268.332477151612693
 21
211.8552069467874901
 31
0.0
  0
LINE
  5
9482
  8
0
 10
4268.6577710883129839
 20
211.8655402534874952
 30
0.0
 11
4268.6681043950129606
 21
211.8552069467874901
 31
0.0
  0
ARC
  5
9483
  8
0
 10
4268.0962566599146157
 20
216.4105140333874999
 30
0.0
 40
0.9645669483980583
 50
283.220549584854723
 51
256.779450415145277
  0
ARC
  5
9484
  8
0
 10
4268.4380781684267276
 20
215.4224948931712049
 30
0.0
 40
0.0824085189054588
 50
119.5868755689802043
 51
180.6775662291657909
  0
ARC
  5
9485
  8
0
 10
4259.6813345778091389
 20
215.2117704839239991
 30
0.0
 40
8.6768763918930851
 50
351.0619875167308237
 51
1.3851706039146301
  0
ARC
  5
9486
  8
0
 10
4284.3496446869712599
 20
212.0496992425802887
 30
0.0
 40
16.1986851602023485
 50
173.5703463610601887
 51
179.5564831377498933
  0
ARC
  5
9487
  8
0
 10
4268.192622480432874
 20
215.3586119629758002
 30
0.0
 40
0.0401809552079788
 50
123.7434266528804017
 51
163.8674050916623912
  0
ARC
  5
9488
  8
0
 10
4268.447415516629917
 20
215.0559536777774099
 30
0.0
 40
0.4355852017129387
 50
107.4419946793462941
 51
129.5078907212983097
  0
ARC
  5
9489
  8
0
 10
4268.1294367625632731
 20
211.9441476261177115
 30
0.0
 40
0.0219267467790507
 50
275.5874018332399942
 51
354.3414551577532734
  0
ARC
  5
948A
  8
0
 10
4271.0892341322323773
 20
212.0118357547038954
 30
0.0
 40
0.1566290109733408
 50
269.9077406187943211
 51
0.0826327027295529
  0
ARC
  5
948B
  8
0
 10
4271.0891892748113605
 20
218.7221552884901996
 30
0.0
 40
0.1566738427076811
 50
359.9241728272991736
 51
90.0758285602600353
  0
LINE
  5
948C
  8
0
 10
4268.0384895183169647
 20
215.3697766907874893
 30
0.0
 11
4268.0412566557915852
 21
211.9419856538791009
 31
0.0
  0
LINE
  5
948D
  8
0
 10
4264.9466503395160544
 20
212.0120616469795038
 30
0.0
 11
4264.9466503395160544
 21
218.721947941087592
 31
0.0
  0
LINE
  5
948E
  8
0
 10
4267.5347422315171571
 20
211.8655402534874952
 30
0.0
 11
4267.8497028614174269
 21
211.8655402534874952
 31
0.0
  0
LINE
  5
948F
  8
0
 10
4267.8497028614174269
 20
211.8655402534874952
 30
0.0
 11
4267.8600361682183575
 21
211.8552069467874901
 31
0.0
  0
LINE
  5
9490
  8
0
 10
4267.5347422315171571
 20
211.8655402534874952
 30
0.0
 11
4267.5244089248171804
 21
211.8552069467874901
 31
0.0
  0
ARC
  5
9491
  8
0
 10
4267.7544351514043228
 20
215.4224948931712049
 30
0.0
 40
0.0824085189054588
 50
359.3224337708342091
 51
60.4131244310197815
  0
ARC
  5
9492
  8
0
 10
4276.5111787420219116
 20
215.2117704839239991
 30
0.0
 40
8.6768763918930851
 50
178.6148293960854119
 51
188.938012483269091
  0
ARC
  5
9493
  8
0
 10
4251.8428686328579715
 20
212.0496992425802887
 30
0.0
 40
16.1986851602023485
 50
0.4435168622501288
 51
6.4296536389398158
  0
ARC
  5
9494
  8
0
 10
4267.9998908393981765
 20
215.3586119629758002
 30
0.0
 40
0.0401809552079788
 50
16.1325949083375484
 51
56.2565733471195202
  0
ARC
  5
9495
  8
0
 10
4267.745097803200224
 20
215.0559536777774099
 30
0.0
 40
0.4355852017129387
 50
50.4921092787016832
 51
72.5580053206536348
  0
ARC
  5
9496
  8
0
 10
4268.0630765572668679
 20
211.9441476261177115
 30
0.0
 40
0.0219267467790507
 50
185.6585448422466129
 51
264.4125981667598921
  0
ARC
  5
9497
  8
0
 10
4265.1032791875977637
 20
212.0118357547034975
 30
0.0
 40
0.1566290109722771
 50
179.9173672971170959
 51
269.9077406232752878
  0
ARC
  5
9498
  8
0
 10
4265.1033240450187805
 20
218.7221552884896028
 30
0.0
 40
0.156673842708302
 50
90.0758285596154877
 51
180.075827172472799
  0
LINE
  5
9499
  8
0
 10
4271.1878989164561062
 20
212.0700520685875006
 30
0.0
 11
4271.1878989164561062
 21
218.6639838721874867
 31
0.0
  0
ARC
  5
949A
  8
0
 10
4271.0324257039019358
 20
212.0706712631046003
 30
0.0
 40
0.1554744455650878
 50
268.720224948731925
 51
359.7718124918554281
  0
ARC
  5
949B
  8
0
 10
4271.0324257039019358
 20
218.663364677670387
 30
0.0
 40
0.1554744455650878
 50
0.2281875081446217
 51
91.2797750512681176
  0
LINE
  5
949C
  8
0
 10
4265.0046144033740347
 20
212.0700520685875006
 30
0.0
 11
4265.0046144033740347
 21
218.6639838721874867
 31
0.0
  0
ARC
  5
949D
  8
0
 10
4265.1600876159282052
 20
212.0706712631046003
 30
0.0
 40
0.1554744455650878
 50
180.2281875081446003
 51
271.279775051268075
  0
ARC
  5
949E
  8
0
 10
4265.1600876159282052
 20
218.663364677670387
 30
0.0
 40
0.1554744455650878
 50
88.7202249487318824
 51
179.771812491855286
  0
ARC
  5
949F
  8
0
 10
4268.0962566599146157
 20
422.8466064576666099
 30
0.0
 40
204.0488823252790951
 50
269.176486918112289
 51
270.823513081887711
  0
ARC
  5
94A0
  8
0
 10
4268.0962566599146157
 20
7.8874294831084342
 30
0.0
 40
204.0488823252790951
 50
89.1764869181123032
 51
89.9849336334135614
  0
ARC
  5
94A1
  8
0
 10
4268.0962566599146157
 20
7.8874294831084342
 30
0.0
 40
204.0488823252790951
 50
90.0150663665864386
 51
90.823513081887711
  0
ENDSEC
  0
EOF
