  0
SECTION
  2
HEADER
  9
$ACADVER
  1
AC1009
  9
$INSBASE
 10
2988.6999268509030117
 20
173.0534033726966072
 30
0.0
  9
$EXTMIN
 10
2976.8109124593520391
 20
173.044121435775196
 30
-0.0000000000112498
  9
$EXTMAX
 10
2990.1938102925819294
 20
181.6519132698948056
 30
0.0000000000002956
  9
$LIMMIN
 10
0.0
 20
0.0
  9
$LIMMAX
 10
11.6929133858000007
 20
8.2677165353999982
  9
$ORTHOMODE
 70
     0
  9
$REGENMODE
 70
     1
  9
$FILLMODE
 70
     1
  9
$QTEXTMODE
 70
     0
  9
$MIRRTEXT
 70
     0
  9
$DRAGMODE
 70
     2
  9
$LTSCALE
 40
0.6431102362
  9
$OSMODE
 70
  4095
  9
$ATTMODE
 70
     1
  9
$TEXTSIZE
 40
0.2
  9
$TRACEWID
 40
0.05
  9
$TEXTSTYLE
  7
STANDARD
  9
$CLAYER
  8
0
  9
$CELTYPE
  6
BYLAYER
  9
$CECOLOR
 62
   256
  9
$DIMSCALE
 40
1.0
  9
$DIMASZ
 40
0.1875
  9
$DIMEXO
 40
0.0625
  9
$DIMDLI
 40
0.4443307087
  9
$DIMRND
 40
0.0
  9
$DIMDLE
 40
0.0
  9
$DIMEXE
 40
0.125
  9
$DIMTP
 40
0.01
  9
$DIMTM
 40
0.01
  9
$DIMTXT
 40
2.0
  9
$DIMCEN
 40
0.1052362205
  9
$DIMTSZ
 40
0.0
  9
$DIMTOL
 70
     1
  9
$DIMLIM
 70
     0
  9
$DIMTIH
 70
     1
  9
$DIMTOH
 70
     1
  9
$DIMSE1
 70
     0
  9
$DIMSE2
 70
     0
  9
$DIMTAD
 70
     0
  9
$DIMZIN
 70
     0
  9
$DIMBLK
  1

  9
$DIMASO
 70
     1
  9
$DIMSHO
 70
     1
  9
$DIMPOST
  1
\X
  9
$DIMAPOST
  1

  9
$DIMALT
 70
     1
  9
$DIMALTD
 70
     2
  9
$DIMALTF
 40
25.3999999999999986
  9
$DIMLFAC
 40
1.0
  9
$DIMTOFL
 70
     0
  9
$DIMTVP
 40
0.0
  9
$DIMTIX
 70
     0
  9
$DIMSOXD
 70
     0
  9
$DIMSAH
 70
     0
  9
$DIMBLK1
  1

  9
$DIMBLK2
  1

  9
$DIMSTYLE
  2
STANDARD
  9
$DIMCLRD
 70
     0
  9
$DIMCLRE
 70
     0
  9
$DIMCLRT
 70
     0
  9
$DIMTFAC
 40
1.0
  9
$DIMGAP
 40
0.09
  9
$LUNITS
 70
     2
  9
$LUPREC
 70
     4
  9
$SKETCHINC
 40
0.1
  9
$FILLETRAD
 40
0.0
  9
$AUNITS
 70
     0
  9
$AUPREC
 70
     0
  9
$MENU
  1
.
  9
$ELEVATION
 40
0.0
  9
$PELEVATION
 40
0.0
  9
$THICKNESS
 40
0.0
  9
$LIMCHECK
 70
     0
  9
$BLIPMODE
 70
     0
  9
$CHAMFERA
 40
0.0
  9
$CHAMFERB
 40
0.0
  9
$SKPOLY
 70
     0
  9
$TDCREATE
 40
2458060.468368056230247
  9
$TDUPDATE
 40
2459537.9471643520519137
  9
$TDINDWG
 40
0.7340116898
  9
$TDUSRTIMER
 40
0.7340116898
  9
$USRTIMER
 70
     1
  9
$ANGBASE
 50
0.0
  9
$ANGDIR
 70
     0
  9
$PDMODE
 70
     0
  9
$PDSIZE
 40
0.3125
  9
$PLINEWID
 40
0.0
  9
$COORDS
 70
     1
  9
$SPLFRAME
 70
     0
  9
$SPLINETYPE
 70
     6
  9
$SPLINESEGS
 70
     8
  9
$ATTDIA
 70
     1
  9
$ATTREQ
 70
     1
  9
$HANDLING
 70
     1
  9
$HANDSEED
  5
3B001
  9
$SURFTAB1
 70
     6
  9
$SURFTAB2
 70
     6
  9
$SURFTYPE
 70
     6
  9
$SURFU
 70
     6
  9
$SURFV
 70
     6
  9
$UCSNAME
  2

  9
$UCSORG
 10
0.0
 20
0.0
 30
0.0
  9
$UCSXDIR
 10
1.0
 20
0.0
 30
0.0
  9
$UCSYDIR
 10
0.0
 20
1.0
 30
0.0
  9
$PUCSNAME
  2

  9
$PUCSORG
 10
0.0
 20
0.0
 30
0.0
  9
$PUCSXDIR
 10
1.0
 20
0.0
 30
0.0
  9
$PUCSYDIR
 10
0.0
 20
1.0
 30
0.0
  9
$USERI1
 70
     0
  9
$USERI2
 70
     0
  9
$USERI3
 70
     0
  9
$USERI4
 70
     0
  9
$USERI5
 70
     0
  9
$USERR1
 40
0.0
  9
$USERR2
 40
0.0
  9
$USERR3
 40
0.0
  9
$USERR4
 40
0.0
  9
$USERR5
 40
0.0
  9
$WORLDVIEW
 70
     1
  9
$SHADEDGE
 70
     3
  9
$SHADEDIF
 70
    70
  9
$TILEMODE
 70
     1
  9
$MAXACTVP
 70
    64
  9
$PLIMCHECK
 70
     0
  9
$PEXTMIN
 10
1.0000000000000000E+20
 20
1.0000000000000000E+20
 30
1.0000000000000000E+20
  9
$PEXTMAX
 10
-1.0000000000000000E+20
 20
-1.0000000000000000E+20
 30
-1.0000000000000000E+20
  9
$PLIMMIN
 10
0.0
 20
0.0
  9
$PLIMMAX
 10
12.0
 20
9.0
  9
$UNITMODE
 70
     0
  9
$VISRETAIN
 70
     1
  9
$PLINEGEN
 70
     0
  9
$PSLTSCALE
 70
     1
  0
ENDSEC
  0
SECTION
  2
TABLES
  0
TABLE
  2
VPORT
 70
     1
  0
VPORT
  2
*ACTIVE
 70
     0
 10
0.0
 20
0.0
 11
1.0
 21
1.0
 12
-320.1907538584081863
 22
-17.9134942230527301
 13
0.0
 23
0.0
 14
1.0
 24
1.0
 15
0.0
 25
0.0
 16
0.0
 26
0.0
 36
96.5995694866707311
 17
3303.693115234375
 27
195.2615115758877096
 37
0.0
 40
8.6760173968735881
 41
1.67063492063492
 42
50.0
 43
0.0
 44
0.0
 50
0.0
 51
0.0
 71
     0
 72
   100
 73
     1
 74
     1
 75
     0
 76
     0
 77
     0
 78
     0
  0
ENDTAB
  0
TABLE
  2
LTYPE
 70
     2
  0
LTYPE
  2
CONTINUOUS
 70
     0
  3
Solid line
 72
    65
 73
     0
 40
0.0
  0
LTYPE
  2
PHANTOM2
 70
     0
  3
___ _ _ ___ _ _ ___ _ _ ___ _ _
 72
    65
 73
     6
 40
1.25
 49
0.625
 49
-0.125
 49
0.125
 49
-0.125
 49
0.125
 49
-0.125
  0
ENDTAB
  0
TABLE
  2
LAYER
 70
     2
  0
LAYER
  2
0
 70
     0
 62
   255
  6
CONTINUOUS
  0
LAYER
  2
DEFPOINTS
 70
     0
 62
     7
  6
CONTINUOUS
  0
ENDTAB
  0
TABLE
  2
STYLE
 70
     1
  0
STYLE
  2
STANDARD
 70
     0
 40
0.0
 41
0.8
 50
0.0
 71
     0
 42
0.2
  3
txt
  4

  0
ENDTAB
  0
TABLE
  2
VIEW
 70
     0
  0
ENDTAB
  0
TABLE
  2
UCS
 70
     0
  0
ENDTAB
  0
TABLE
  2
APPID
 70
     9
  0
APPID
  2
ACAD
 70
     0
  0
APPID
  2
ACAD_MLEADERVER
 70
     0
  0
APPID
  2
ACAD_EXEMPT_FROM_CAD_STANDARDS
 70
     0
  0
APPID
  2
ACAD_NAV_VCDISPLAY
 70
     0
  0
APPID
  2
ACAECLAYERSTANDARD
 70
     0
  0
APPID
  2
ACCMTRANSPARENCY
 70
     0
  0
APPID
  2
ACAD_DSTYLE_DIMJAG
 70
     0
  0
APPID
  2
ACAD_DSTYLE_DIMTALN
 70
     0
  0
APPID
  2
ACDBATTR
 70
     0
  0
ENDTAB
  0
TABLE
  2
DIMSTYLE
 70
     1
  0
DIMSTYLE
  2
STANDARD
 70
     0
  3

  4

  5

  6

  7

 40
1.0
 41
0.1875
 42
0.0625
 43
0.38
 44
0.125
 45
0.0
 46
0.0
 47
0.01
 48
0.01
140
0.15625
141
0.09
142
0.0
143
25.3999999999999986
144
1.0
145
0.0
146
1.0
147
0.09
 71
     1
 72
     0
 73
     1
 74
     1
 75
     0
 76
     0
 77
     0
 78
     4
170
     0
171
     2
172
     0
173
     0
174
     0
175
     0
176
     0
177
     0
178
     0
  0
ENDTAB
  0
ENDSEC
  0
SECTION
  2
BLOCKS
  0
BLOCK
  8
0
  2
$MODEL_SPACE
 70
     0
 10
0.0
 20
0.0
 30
0.0
  3
$MODEL_SPACE
  1

  0
ENDBLK
  5
21
  8
0
  0
BLOCK
 67
     1
  8
0
  2
$PAPER_SPACE
 70
     0
 10
0.0
 20
0.0
 30
0.0
  3
$PAPER_SPACE
  1

  0
ENDBLK
  5
1D
 67
     1
  8
0
  0
ENDSEC
  0
SECTION
  2
ENTITIES
  0
ATTDEF
  5
340AC
  8
DEFPOINTS
 10
2988.6954976196429925
 20
173.0514311768959033
 30
0.0
 40
0.001
  1
K-10294T-4
  3

  2
MODELNUMBER
 70
     0
1001
ACDBATTR
1070
     0
1070
     1
  0
ATTDEF
  5
340AD
  8
DEFPOINTS
 10
2988.6954976196429925
 20
173.0497645102292097
 30
0.0
 40
0.001
  1
FORTE
  3

  2
TRADENAME
 70
     0
1001
ACDBATTR
1070
     0
1070
     1
  0
ATTDEF
  5
340AE
  8
DEFPOINTS
 10
2988.6954976196429925
 20
173.0480978435626014
 30
0.0
 40
0.001
  1
DECK MOUNT BATH AND SHOWER FAUCET
  3

  2
PRODUCT
 70
     0
1001
ACDBATTR
1070
     0
1070
     1
  0
LINE
  5
3AE40
  8
0
 10
2987.3147684511218358
 20
173.0534033726966072
 30
0.0
 11
2990.0850852506828232
 21
173.0534033726966072
 31
0.0
  0
LINE
  5
3AE41
  8
0
 10
2988.172888375068851
 20
174.3145072289966038
 30
0.0
 11
2988.1399546622687922
 21
174.3056744890645007
 31
0.0
  0
LINE
  5
3AE42
  8
0
 10
2987.3969996791688573
 20
173.483403372696614
 30
0.0
 11
2987.9843576034600119
 21
173.483403372696614
 31
0.0
  0
LINE
  5
3AE43
  8
0
 10
2989.4896417548789032
 20
173.483403372696614
 30
0.0
 11
2990.0769996791691483
 21
173.483403372696614
 31
0.0
  0
LINE
  5
3AE44
  8
0
 10
2990.0769996791691483
 20
173.4934033726966049
 30
0.0
 11
2989.4714137812111403
 21
173.4934033726966049
 31
0.0
  0
LINE
  5
3AE45
  8
0
 10
2988.0025855771268652
 20
173.4934033726966049
 30
0.0
 11
2987.3969996791688573
 21
173.4934033726966049
 31
0.0
  0
LINE
  5
3AE46
  8
0
 10
2988.0852801293690391
 20
173.5258443175966079
 30
0.0
 11
2989.3887192289689665
 21
173.5258443175966079
 31
0.0
  0
LINE
  5
3AE47
  8
0
 10
2989.2842437736690044
 20
173.6439545537965898
 30
0.0
 11
2988.1897698883690282
 21
173.6439545537965898
 31
0.0
  0
LINE
  5
3AE48
  8
0
 10
2988.61830996946901
 20
175.1496727185966051
 30
0.0
 11
2988.6512436822690688
 21
175.1584972803966025
 31
0.0
  0
LINE
  5
3AE49
  8
0
 10
2989.1897555846690011
 20
174.0376553411965972
 30
0.0
 11
2988.2842437736690044
 21
174.0376553411965972
 31
0.0
  0
LINE
  5
3AE4A
  8
0
 10
2988.2842437736690044
 20
174.0770254199964882
 30
0.0
 11
2989.1897555846690011
 21
174.0770254199964882
 31
0.0
  0
LINE
  5
3AE4B
  8
0
 10
2988.28424377356896
 20
174.257080064759208
 30
0.0
 11
2988.2285660743691551
 21
174.257080064759208
 31
0.0
  0
LINE
  5
3AE4C
  8
0
 10
2989.3461469226599547
 20
175.6034033726965902
 30
0.0
 11
2988.4220274299750599
 21
175.6034033726965902
 31
0.0
  0
LINE
  5
3AE4D
  8
0
 10
2988.3294091270909121
 20
175.7733528607965923
 30
0.0
 11
2989.4233703276690903
 21
175.7733528607965923
 31
0.0
  0
LINE
  5
3AE4E
  8
0
 10
2988.3109473677800452
 20
175.7978021635964865
 30
0.0
 11
2989.4176038859691289
 21
175.7978021635964865
 31
0.0
  0
LINE
  5
3AE4F
  8
0
 10
2988.244776642333818
 20
175.8834033726965913
 30
0.0
 11
2989.3214412273700873
 21
175.8834033726965913
 31
0.0
  0
LINE
  5
3AE50
  8
0
 10
2988.2329309873989587
 20
175.8984033726964924
 30
0.0
 11
2989.31770834056897
 21
175.8984033726964924
 31
0.0
  0
LINE
  5
3AE51
  8
0
 10
2989.31770834056897
 20
175.9184821128966121
 30
0.0
 11
2988.2169553791190992
 21
175.9184821128966121
 31
0.0
  0
LINE
  5
3AE52
  8
0
 10
2988.1399546622687922
 20
174.3056744890645007
 30
0.0
 11
2987.9691918657690621
 21
174.4764435598692103
 31
0.0
  0
LINE
  5
3AE53
  8
0
 10
2987.9742158031690451
 20
174.4814694012966072
 30
0.0
 11
2988.1449785997688195
 21
174.3107066046966054
 31
0.0
  0
LINE
  5
3AE54
  8
0
 10
2987.922338728169052
 20
174.5650568758966017
 30
0.0
 11
2987.9780164274689014
 21
174.5093791765966103
 31
0.0
  0
LINE
  5
3AE55
  8
0
 10
2988.172888375068851
 20
174.3145072289966038
 30
0.0
 11
2988.2285660743691551
 21
174.257080064759208
 31
0.0
  0
LINE
  5
3AE56
  8
0
 10
2988.3546103441408377
 20
174.3276572075251067
 30
0.0
 11
2988.3827480739259954
 21
174.2995194777392101
 31
0.0
  0
LINE
  5
3AE57
  8
0
 10
2988.2624720680692008
 20
174.4282000730966047
 30
0.0
 11
2988.091709271569016
 21
174.5989628696966065
 31
0.0
  0
LINE
  5
3AE58
  8
0
 10
2988.614811966670004
 20
177.6662931364965914
 30
0.0
 11
2988.8592957588689387
 21
177.6662931364965914
 31
0.0
  0
LINE
  5
3AE59
  8
0
 10
2988.192724305568845
 20
174.6999779036966061
 30
0.0
 11
2988.3634871021690742
 21
174.5292151071965918
 31
0.0
  0
LINE
  5
3AE5A
  8
0
 10
2988.5984740388689715
 20
174.7642020438964892
 30
0.0
 11
2988.4277112423687868
 21
174.934964840496491
 31
0.0
  0
LINE
  5
3AE5B
  8
0
 10
2988.528726276469115
 20
175.0359798745965918
 30
0.0
 11
2988.699489072968845
 21
174.86521707799659
 31
0.0
  0
LINE
  5
3AE5C
  8
0
 10
2988.7993664715017985
 20
174.7737442690639966
 30
0.0
 11
2988.8272930928219466
 21
174.7458176477439906
 31
0.0
  0
LINE
  5
3AE5D
  8
0
 10
2988.5626322701700701
 20
175.2053504178965966
 30
0.0
 11
2988.61830996946901
 21
175.1496727185966051
 31
0.0
  0
LINE
  5
3AE5E
  8
0
 10
2988.8131819170689596
 20
174.9548007710965862
 30
0.0
 11
2988.8688596163688089
 21
174.8991230717965948
 31
0.0
  0
LINE
  5
3AE5F
  8
0
 10
2988.8169825413688159
 20
174.9827105463965893
 30
0.0
 11
2988.6462197447690414
 21
175.1534733428964898
 31
0.0
  0
LINE
  5
3AE60
  8
0
 10
2988.8220064787687988
 20
174.9877344837966007
 30
0.0
 11
2988.6512436822690688
 21
175.1584972803966025
 31
0.0
  0
LINE
  5
3AE61
  8
0
 10
2987.3969996791688573
 20
173.483403372696614
 30
0.0
 11
2987.3969996791688573
 21
173.4934033726966049
 31
0.0
  0
LINE
  5
3AE62
  8
0
 10
2987.5952673956689978
 20
173.1067640257965934
 30
0.0
 11
2987.5952673956689978
 21
173.0534033726966072
 31
0.0
  0
LINE
  5
3AE63
  8
0
 10
2988.3048767575692182
 20
173.6439545537965898
 30
0.0
 11
2988.2842437736690044
 21
174.0376553411965972
 31
0.0
  0
LINE
  5
3AE64
  8
0
 10
2988.1503855059690977
 20
173.5258443175966079
 30
0.0
 11
2988.1503855059690977
 21
173.6045844750964875
 31
0.0
  0
LINE
  5
3AE65
  8
0
 10
2988.2842437736690044
 20
174.0770254199964882
 30
0.0
 11
2988.2842437736690044
 21
174.2006267063125051
 31
0.0
  0
LINE
  5
3AE66
  8
0
 10
2988.3244996791690937
 20
174.0376553411965972
 30
0.0
 11
2988.3244996791690937
 21
174.0770254199964882
 31
0.0
  0
LINE
  5
3AE67
  8
0
 10
2988.6429996791689518
 20
177.6482182174688944
 30
0.0
 11
2988.6429996791689518
 21
177.6662931364965914
 31
0.0
  0
LINE
  5
3AE68
  8
0
 10
2987.9780164274689014
 20
174.5093791765966103
 30
0.0
 11
2987.9691918657690621
 21
174.4764435598692103
 31
0.0
  0
LINE
  5
3AE69
  8
0
 10
2988.5626322701700701
 20
175.2053504178965966
 30
0.0
 11
2987.922338728169052
 21
174.5650568758966017
 31
0.0
  0
LINE
  5
3AE6A
  8
0
 10
2987.9780164274689014
 20
174.5093791765966103
 30
0.0
 11
2988.61830996946901
 21
175.1496727185966051
 31
0.0
  0
LINE
  5
3AE6B
  8
0
 10
2988.6512436822690688
 20
175.1584972803966025
 30
0.0
 11
2988.6462197447690414
 21
175.1534733428964898
 31
0.0
  0
LINE
  5
3AE6C
  8
0
 10
2988.528726276469115
 20
175.0359798745965918
 30
0.0
 11
2988.4277112423687868
 21
174.934964840496491
 31
0.0
  0
LINE
  5
3AE6D
  8
0
 10
2988.192724305568845
 20
174.6999779036966061
 30
0.0
 11
2988.091709271569016
 21
174.5989628696966065
 31
0.0
  0
LINE
  5
3AE6E
  8
0
 10
2987.9742158031690451
 20
174.4814694012966072
 30
0.0
 11
2987.9691918657690621
 21
174.4764435598692103
 31
0.0
  0
LINE
  5
3AE6F
  8
0
 10
2988.1399546622687922
 20
174.3056744890645007
 30
0.0
 11
2988.1449785997688195
 21
174.3107066046966054
 31
0.0
  0
LINE
  5
3AE70
  8
0
 10
2988.2624720680692008
 20
174.4282000730966047
 30
0.0
 11
2988.3634871021690742
 21
174.5292151071965918
 31
0.0
  0
LINE
  5
3AE71
  8
0
 10
2988.5984740388689715
 20
174.7642020438964892
 30
0.0
 11
2988.699489072968845
 21
174.86521707799659
 31
0.0
  0
LINE
  5
3AE72
  8
0
 10
2988.8169825413688159
 20
174.9827105463965893
 30
0.0
 11
2988.8220064787687988
 21
174.9877344837966007
 31
0.0
  0
LINE
  5
3AE73
  8
0
 10
2988.8131819170689596
 20
174.9548007710965862
 30
0.0
 11
2988.172888375068851
 21
174.3145072289966038
 31
0.0
  0
LINE
  5
3AE74
  8
0
 10
2988.8309996791690537
 20
177.6479836170965996
 30
0.0
 11
2988.8309996791690537
 21
177.6662931364965914
 31
0.0
  0
LINE
  5
3AE75
  8
0
 10
2988.8688596163688089
 20
174.8434453723965021
 30
0.0
 11
2988.8688596163688089
 21
174.8991230717965948
 31
0.0
  0
LINE
  5
3AE76
  8
0
 10
2989.1494996791689118
 20
174.0376553411965972
 30
0.0
 11
2989.1494996791689118
 21
174.0770254199964882
 31
0.0
  0
LINE
  5
3AE77
  8
0
 10
2989.1897555846690011
 20
174.0770254199964882
 30
0.0
 11
2989.1897555846690011
 21
174.4313561285964909
 31
0.0
  0
LINE
  5
3AE78
  8
0
 10
2988.8131819170689596
 20
174.9548007710965862
 30
0.0
 11
2988.8220064787687988
 21
174.9877344837966007
 31
0.0
  0
LINE
  5
3AE79
  8
0
 10
2988.2285660743691551
 20
174.257080064759208
 30
0.0
 11
2988.8688596163688089
 21
174.8991230717965948
 31
0.0
  0
LINE
  5
3AE7A
  8
0
 10
2988.28424377356896
 20
174.257080064759208
 30
0.0
 11
2988.8688596163688089
 21
174.8434453723965021
 31
0.0
  0
LINE
  5
3AE7B
  8
0
 10
2988.2842437736690044
 20
174.2006267063125051
 30
0.0
 11
2988.924537315669113
 21
174.8434453723965873
 31
0.0
  0
LINE
  5
3AE7C
  8
0
 10
2989.3781512462692262
 20
175.3724252021966095
 30
0.0
 11
2989.3631055115688469
 21
175.5875892327964891
 31
0.0
  0
LINE
  5
3AE7D
  8
0
 10
2989.25449967916893
 20
175.8984033726964924
 30
0.0
 11
2989.25449967916893
 21
175.8834033726965913
 31
0.0
  0
LINE
  5
3AE7E
  8
0
 10
2989.31770834056897
 20
175.8984033726964924
 30
0.0
 11
2989.31770834056897
 21
175.9184821128966121
 31
0.0
  0
LINE
  5
3AE7F
  8
0
 10
2989.3236138523689078
 20
173.5258443175966079
 30
0.0
 11
2989.3236138523689078
 21
173.6045844750964875
 31
0.0
  0
LINE
  5
3AE80
  8
0
 10
2989.1691226006691977
 20
173.6439545537965898
 30
0.0
 11
2989.1897555846690011
 21
174.0376553411965972
 31
0.0
  0
LINE
  5
3AE81
  8
0
 10
2989.5674108340690509
 20
178.4249592519965972
 30
0.0
 11
2989.589285732055032
 21
178.6434997176000934
 31
0.0
  0
LINE
  5
3AE82
  8
0
 10
2989.8787319626690078
 20
173.1067640257965934
 30
0.0
 11
2989.8787319626690078
 21
173.0534033726966072
 31
0.0
  0
LINE
  5
3AE83
  8
0
 10
2990.0769996791691483
 20
173.483403372696614
 30
0.0
 11
2990.0769996791691483
 21
173.4934033726966049
 31
0.0
  0
LINE
  5
3AE84
  8
0
 10
2990.1226003354690874
 20
173.4008396452314003
 30
0.0
 11
2990.1226003354690874
 21
173.3144110239965983
 31
0.0
  0
LINE
  5
3AE85
  8
0
 10
2990.1857416139901034
 20
173.7696098301400127
 30
0.0
 11
2990.1757340891581407
 21
173.698403372696589
 31
0.0
  0
LINE
  5
3AE86
  8
0
 10
2990.1181123468691112
 20
173.2884033726965924
 30
0.0
 11
2990.0850852506828232
 21
173.0534033726966072
 31
0.0
  0
ARC
  5
3AE87
  8
0
 10
2889.4533380691668754
 20
148.845597586673108
 30
0.0
 40
101.6885613894272069
 50
14.5455621437617904
 51
14.67322507534446
  0
ARC
  5
3AE88
  8
0
 10
2984.554495733668773
 20
175.6200606839965985
 30
0.0
 40
3.5499999999999989
 50
323.1975099385011845
 51
342.4311821651378978
  0
ARC
  5
3AE89
  8
0
 10
2988.5615374400690598
 20
172.4529344375966105
 30
0.0
 40
1.1811023622000001
 50
115.5971573605041982
 51
143.6214979461005896
  0
ARC
  5
3AE8A
  8
0
 10
2988.9124619182689457
 20
172.4529344375966105
 30
0.0
 40
1.1811023622000001
 50
36.3785020538993535
 51
64.4028426394957592
  0
ARC
  5
3AE8B
  8
0
 10
2986.8681366305690972
 20
173.0519445098966003
 30
0.0
 40
0.6700000000000002
 50
3.3383557690004091
 51
37.4428031822944192
  0
ARC
  5
3AE8C
  8
0
 10
2990.6058627277689084
 20
173.0519445098966003
 30
0.0
 40
0.6700000000000002
 50
142.5571968177056021
 51
176.6616442294798901
  0
ARC
  5
3AE8D
  8
0
 10
2989.7999918051691566
 20
173.1067640257965934
 30
0.0
 40
0.0787401575
 50
0.0
 51
36.3785020538993535
  0
ARC
  5
3AE8E
  8
0
 10
2987.674007553168849
 20
173.1067640257965934
 30
0.0
 40
0.0787401575
 50
143.6214979461005896
 51
180.0
  0
ARC
  5
3AE8F
  8
0
 10
2989.897067556868933
 20
173.0932894701965949
 30
0.0
 40
0.04
 50
274.3249129896366867
 51
356.6616442294799185
  0
ARC
  5
3AE90
  8
0
 10
2987.5769318014690725
 20
173.0932894701965949
 30
0.0
 40
0.04
 50
183.3383557690004011
 51
265.6750870103892908
  0
ARC
  5
3AE91
  8
0
 10
2989.5289996791689191
 20
173.4934033726966049
 30
0.0
 40
0.6200000000000001
 50
343.2200164699021911
 51
6.788076122544159
  0
ARC
  5
3AE92
  8
0
 10
2988.7369996791690028
 20
174.4313561285964909
 30
0.0
 40
0.4527559055
 50
0.0
 51
65.5301994793096441
  0
ARC
  5
3AE93
  8
0
 10
2989.3887275904780836
 20
173.4471041521819075
 30
0.0
 40
0.0787401658586508
 50
64.4028432229951733
 51
90.0060843042751344
  0
ARC
  5
3AE94
  8
0
 10
2988.0852717678608315
 20
173.4471041521821917
 30
0.0
 40
0.0787401658582838
 50
89.9939156956467059
 51
115.5971567770858996
  0
ARC
  5
3AE95
  8
0
 10
2990.1263156446148059
 20
173.7779562383761061
 30
0.0
 40
0.0600092356764193
 50
352.0050745462269219
 51
51.2608396517022911
  0
ARC
  5
3AE96
  8
0
 10
2988.1897555891018783
 20
173.6045844732603882
 30
0.0
 40
0.0393700831329484
 50
89.9791900954413535
 51
179.9999973277672893
  0
ARC
  5
3AE97
  8
0
 10
2989.2842437736690044
 20
173.6045844750964875
 30
0.0
 40
0.0393700787
 50
0.0
 51
90.0
  0
ARC
  5
3AE98
  8
0
 10
2990.1082390284691428
 20
173.3187414816964917
 30
0.0
 40
0.015
 50
312.0616202796368839
 51
343.2200162369995269
  0
ARC
  5
3AE99
  8
0
 10
2990.0619996791688209
 20
173.468403372696514
 30
0.0
 40
0.015
 50
322.5571968178006159
 51
90.0
  0
ARC
  5
3AE9A
  8
0
 10
2987.4119996791691847
 20
173.468403372696514
 30
0.0
 40
0.015
 50
90.0
 51
217.4428031812041127
  0
ARC
  5
3AE9B
  8
0
 10
2992.9195036246687778
 20
175.6200606839965985
 30
0.0
 40
3.5499999999999989
 50
183.9999999999996874
 51
216.8024900614987871
  0
ARC
  5
3AE9C
  8
0
 10
2989.6279996791690792
 20
175.6034033726965902
 30
0.0
 40
0.266
 50
140.2895712614003969
 51
176.6057417068998916
  0
ARC
  5
3AE9D
  8
0
 10
2989.4848568593688469
 20
175.9506616989964982
 30
0.0
 40
0.167
 50
207.203910395604197
 51
246.2521454629954007
  0
ARC
  5
3AE9E
  8
0
 10
2989.3461469226690497
 20
175.5864033726965943
 30
0.0
 40
0.017
 50
4.0000000010010179
 51
90.000000031813272
  0
ARC
  5
3AE9F
  8
0
 10
2989.3214412273700873
 20
175.8666633726965927
 30
0.0
 40
0.01674
 50
27.2039107820980206
 51
90.0
  0
ARC
  5
3AEA0
  8
0
 10
2989.3457472342429355
 20
175.6201472553983933
 30
0.0
 40
0.0167486524464831
 50
271.367431448280513
 51
356.5941898077485916
  0
ARC
  5
3AEA1
  8
0
 10
2989.4112689099688396
 20
175.783403372696597
 30
0.0
 40
0.0157307692
 50
320.2895712614003969
 51
66.2521454631072118
  0
LINE
  5
3AEA2
  8
0
 10
2988.5419342495688397
 20
177.8561843800966074
 30
0.0
 11
2988.5550934041689288
 21
177.7204889146966025
 31
0.0
  0
ARC
  5
3AEA3
  8
0
 10
2991.6360393932031911
 20
173.2841217422482032
 30
0.0
 40
1.5179330849385151
 50
164.1616142746071887
 51
179.838385708917798
  0
ARC
  5
3AEA4
  8
0
 10
2990.4773555414658404
 20
184.8891027561818134
 30
0.0
 40
11.1233161084631504
 50
266.9348511537368154
 51
268.4977356099906274
  0
ARC
  5
3AEA5
  8
0
 10
2990.1304295824279507
 20
182.3873759604786926
 30
0.0
 40
8.5626776360273276
 50
268.1523678947584131
 51
270.2237482189780735
  0
ARC
  5
3AEA6
  8
0
 10
2992.7576076500217823
 20
177.0595939440555071
 30
0.0
 40
4.1462769728860538
 50
220.2453911908991131
 51
231.2767930215815113
  0
ARC
  5
3AEA7
  8
0
 10
2975.7288173297238245
 20
172.8243362473525906
 30
0.0
 40
11.5882153559272894
 50
1.132653646820158
 51
10.6975457641079092
  0
ARC
  5
3AEA8
  8
0
 10
2988.1700833333738956
 20
174.4030953394918129
 30
0.0
 40
0.210965833613569
 50
111.8082304279684962
 51
158.1917695720291022
  0
ARC
  5
3AEA9
  8
0
 10
2988.8767828233221735
 20
174.2509063227435036
 30
0.0
 40
0.8182917209223305
 50
123.2841476137732997
 51
146.7158523862343031
  0
ARC
  5
3AEAA
  8
0
 10
2988.7245938063801987
 20
174.9576058129854061
 30
0.0
 40
0.210965833269136
 50
111.8082304087736958
 51
158.1917695912183888
  0
ARC
  5
3AEAB
  8
0
 10
2988.6211150111821553
 20
175.0610846081831937
 30
0.0
 40
0.2109658335901089
 50
291.8082304252445169
 51
338.1917695747575863
  0
ARC
  5
3AEAC
  8
0
 10
2987.9144155228527779
 20
175.2132736232123875
 30
0.0
 40
0.8182917185716787
 50
303.2841475846944945
 51
326.7158524153041981
  0
ARC
  5
3AEAD
  8
0
 10
2988.0666045377251976
 20
174.506574134974187
 30
0.0
 40
0.2109658337703403
 50
291.8082304810357073
 51
338.1917695677253732
  0
ARC
  5
3AEAE
  8
0
 10
2982.3225587536157946
 20
174.041418031332995
 30
0.0
 40
6.6134015210302763
 50
23.0084875874448613
 51
42.4792539049477966
  0
ARC
  5
3AEAF
  8
0
 10
2984.1452752062309628
 20
175.6033509581043859
 30
0.0
 40
4.2150383462417462
 50
43.5526744808177
 51
70.9770651617157711
  0
ARC
  5
3AEB0
  8
0
 10
2984.0861228854769251
 20
175.3851796914271972
 30
0.0
 40
4.4406013623318019
 50
71.1730612759577639
 51
94.3333227846759712
  0
ARC
  5
3AEB1
  8
0
 10
2983.9491630577908836
 20
175.9313858719281995
 30
0.0
 40
3.8785114332122141
 50
104.3133451244216019
 51
124.4146083235613958
  0
ARC
  5
3AEB2
  8
0
 10
2983.9649967988548269
 20
176.0668915077145869
 30
0.0
 40
3.7767364091066842
 50
125.7747459233567042
 51
143.4683442389579113
  0
ARC
  5
3AEB3
  8
0
 10
2989.5634599336171959
 20
175.6605101992307141
 30
0.0
 40
1.4476890318297271
 50
158.7806638662227101
 51
166.6465456295248089
  0
ARC
  5
3AEB4
  8
0
 10
3016.0343661085080385
 20
164.1141857835633004
 30
0.0
 40
30.3260492318813384
 50
155.5825796133277947
 51
156.5456956945627951
  0
ARC
  5
3AEB5
  8
0
 10
2987.3951063178301411
 20
177.0878748412955872
 30
0.0
 40
1.115033578164123
 50
336.9000888388534918
 51
4.532664362639828
  0
ARC
  5
3AEB6
  8
0
 10
2989.3143510590361984
 20
175.9355701662759941
 30
0.0
 40
0.0171915085969304
 50
276.2889025824072178
 51
2.5991333151210898
  0
ARC
  5
3AEB7
  8
0
 10
2989.283952403011881
 20
175.9318596578359859
 30
0.0
 40
0.0477839074764081
 50
5.3918630005653503
 51
8.3318766549429597
  0
ARC
  5
3AEB8
  8
0
 10
2987.9105394247208096
 20
175.6605101992307141
 30
0.0
 40
1.4476890318297271
 50
11.0823241798137495
 51
21.2193361337773112
  0
ARC
  5
3AEB9
  8
0
 10
2961.4396332497208277
 20
164.1141857835145004
 30
0.0
 40
30.3260492320015906
 50
23.4543043054386509
 51
24.4174203866706989
  0
ARC
  5
3AEBA
  8
0
 10
2990.0788930405078645
 20
177.0878748412955872
 30
0.0
 40
1.115033578164123
 50
175.4708684877971905
 51
203.0999111611448882
  0
ARC
  5
3AEBB
  8
0
 10
2988.6148119502831833
 20
177.7262930787481139
 30
0.0
 40
0.059999942251578
 50
185.5512547978916018
 51
270.0000156484088052
  0
ARC
  5
3AEBC
  8
0
 10
2988.8592957351997939
 20
177.7262932655881116
 30
0.0
 40
0.0600001290915648
 50
270.0000226025160828
 51
351.6121214274573958
  0
ARC
  5
3AEBD
  8
0
 10
2989.4773867219041676
 20
178.4189211709430083
 30
0.0
 40
0.0884693926672138
 50
303.7392732038754275
 51
349.7327942499543951
  0
ARC
  5
3AEBE
  8
0
 10
2989.355675799798064
 20
178.4427041367221136
 30
0.0
 40
0.2124773062502843
 50
349.2720830493470885
 51
355.2094056304135279
  0
ARC
  5
3AEBF
  8
0
 10
2989.4344625063990861
 20
178.4821747053618992
 30
0.0
 40
0.1649110568541352
 50
294.2738805004772189
 51
303.9347787765191242
  0
ARC
  5
3AEC0
  8
0
 10
2991.3166465701979178
 20
174.562586157263695
 30
0.0
 40
4.1832174297085869
 50
115.7045461657239969
 51
118.6777723838325045
  0
ARC
  5
3AEC1
  8
0
 10
2989.729182488908009
 20
177.4232224229428141
 30
0.0
 40
0.9119097718423493
 50
117.4234207289301963
 51
133.8957498590673936
  0
ARC
  5
3AEC2
  8
0
 10
2989.5288944703797824
 20
177.6429063828570065
 30
0.0
 40
0.6147874942589541
 50
134.6403571997014126
 51
173.0271641109978873
  0
ARC
  5
3AEC3
  8
0
 10
2989.5297158623438918
 20
178.6512969548807916
 30
0.0
 40
0.0600780016837515
 50
352.5428182257974754
 51
85.7027366352193667
  0
ARC
  5
3AEC4
  8
0
 10
2989.7161370433132106
 20
174.3966620477361005
 30
0.0
 40
4.2487317459852703
 50
91.7108929004677833
 51
93.6805849774953003
  0
ARC
  5
3AEC5
  8
0
 10
2989.5031674564797868
 20
177.4981570520409946
 30
0.0
 40
1.1400415317578341
 50
93.0054852513629555
 51
104.5337498422479001
  0
ARC
  5
3AEC6
  8
0
 10
2989.3508405386428421
 20
178.1010453235232092
 30
0.0
 40
0.5182334610887293
 50
104.958580180381901
 51
122.9968194596170008
  0
ARC
  5
3AEC7
  8
0
 10
2989.8594110769631698
 20
177.4227679747648949
 30
0.0
 40
1.3652657378744071
 50
125.3960793311990045
 51
146.0221595959210958
  0
ARC
  5
3AEC8
  8
0
 10
2990.5628066083399972
 20
176.9535819060394886
 30
0.0
 40
2.2107778854126341
 50
146.1267045882499929
 51
153.4314419652662878
  0
ARC
  5
3AEC9
  8
0
 10
2980.2028473610312176
 20
182.1033989637809043
 30
0.0
 40
9.3585588463555585
 50
333.0078592543986247
 51
333.6009458717772986
  0
ARC
  5
3AECA
  8
0
 10
2989.4849522755807811
 20
177.2918067739425965
 30
0.0
 40
1.4202539924468509
 50
88.0121443074138057
 51
93.8438140472945577
  0
ARC
  5
3AECB
  8
0
 10
2989.4467988011560919
 20
177.7115931371455986
 30
0.0
 40
0.9989035720519956
 50
93.274435453258036
 51
105.2272222245821069
  0
ARC
  5
3AECC
  8
0
 10
2989.3336977439530528
 20
178.1394860048270061
 30
0.0
 40
0.5563370408883079
 50
105.5624248441553021
 51
129.5152779357835868
  0
ARC
  5
3AECD
  8
0
 10
2989.8766890335609787
 20
177.4770193708436921
 30
0.0
 40
1.4128992811592549
 50
129.4088869945761076
 51
143.7628694609745992
  0
ARC
  5
3AECE
  8
0
 10
2990.2740327930250714
 20
177.2408885636270099
 30
0.0
 40
1.8734981735942191
 50
145.1215654800016921
 51
155.7191257812116874
  0
ARC
  5
3AECF
  8
0
 10
2988.7826320536719322
 20
177.899888031308592
 30
0.0
 40
0.2433636870440883
 50
152.757408616853013
 51
177.7383916006293134
  0
ARC
  5
3AED0
  8
0
 10
2988.9394201596128369
 20
177.9013602155729075
 30
0.0
 40
0.4000448784749526
 50
178.8352992074061945
 51
186.4840672927493017
  0
ARC
  5
3AED1
  8
0
 10
2988.6974505776920523
 20
178.6093569643645083
 30
0.0
 40
0.9626799006596723
 50
254.6251705227433035
 51
266.7575176618389037
  0
ARC
  5
3AED2
  8
0
 10
2988.7387630475868718
 20
179.0611986861304956
 30
0.0
 40
1.41622188499905
 50
266.1227638227912848
 51
273.7342403875388754
  0
ARC
  5
3AED3
  8
0
 10
2988.4142449927740017
 20
177.5776430523420117
 30
0.0
 40
0.1071990595634834
 50
74.8767680492973824
 51
81.883048411940095
  0
ARC
  5
3AED4
  8
0
 10
2988.3728471210588395
 20
176.284821083144692
 30
0.0
 40
1.400088945635412
 50
87.6858426397340764
 51
88.7888808200708439
  0
ARC
  5
3AED5
  8
0
 10
2988.4075274267570421
 20
177.4584125719046028
 30
0.0
 40
0.2262418839999813
 50
91.2884944697978682
 51
107.5900642850257043
  0
ARC
  5
3AED6
  8
0
 10
2988.3944039275670548
 20
177.5225040066268889
 30
0.0
 40
0.161327053356818
 50
110.0267363724424001
 51
128.5384089285900018
  0
ARC
  5
3AED7
  8
0
 10
2988.3480783078039167
 20
177.5803329672853863
 30
0.0
 40
0.0872313487828825
 50
128.4032588066380072
 51
149.3366590860788108
  0
ARC
  5
3AED8
  8
0
 10
2988.3043794216050628
 20
177.6062945996795861
 30
0.0
 40
0.0364022818688277
 50
149.4083267322924087
 51
179.4763979632463986
  0
ARC
  5
3AED9
  8
0
 10
2988.7359655941859273
 20
179.1153595815175095
 30
0.0
 40
1.6048538413628179
 50
263.4255038477037942
 51
270.0388560462529881
  0
ARC
  5
3AEDA
  8
0
 10
2988.6931531465697844
 20
178.7852130640266068
 30
0.0
 40
1.271985411773358
 50
256.0942236771360854
 51
263.638599891819581
  0
ARC
  5
3AEDB
  8
0
 10
2988.5033722733041941
 20
178.0268895037004029
 30
0.0
 40
0.4902813167748898
 50
246.2669482506009899
 51
256.3249153358776198
  0
ARC
  5
3AEDC
  8
0
 10
2988.3494321681300789
 20
177.6820844642070085
 30
0.0
 40
0.1126994854612688
 50
225.2117103486972098
 51
247.3579028055166873
  0
ARC
  5
3AEDD
  8
0
 10
2988.2754855471011979
 20
177.6073082499615907
 30
0.0
 40
0.0075377121514666
 50
185.1834180563004111
 51
223.7062958610949011
  0
ARC
  5
3AEDE
  8
0
 10
2988.7448057470887761
 20
177.6261152598511046
 30
0.0
 40
0.5092415142523642
 50
242.1173259892489966
 51
269.1217648635977753
  0
ARC
  5
3AEDF
  8
0
 10
2988.7404949398837744
 20
177.5416018836668002
 30
0.0
 40
0.4339954581302348
 50
203.705260930027606
 51
237.3971318392987087
  0
ARC
  5
3AEE0
  8
0
 10
2989.1315192870210922
 20
177.7667586014875951
 30
0.0
 40
0.8839042931957388
 50
194.9803522453119058
 51
206.880211753486094
  0
ARC
  5
3AEE1
  8
0
 10
2988.6283032224828276
 20
177.6227816753358866
 30
0.0
 40
0.3606865060177795
 50
182.5670201643447115
 51
193.5491707209116896
  0
ARC
  5
3AEE2
  8
0
 10
2988.7722123084481609
 20
178.6296725295962915
 30
0.0
 40
0.9834475460751544
 50
273.4270027226065736
 51
285.3107212065824001
  0
ARC
  5
3AEE3
  8
0
 10
2989.048566510442015
 20
177.6248816336710092
 30
0.0
 40
0.0586664787059005
 50
93.2640118319044547
 51
106.509393686056697
  0
ARC
  5
3AEE4
  8
0
 10
2989.0716438147860572
 20
177.3790857127524134
 30
0.0
 40
0.3055115377085567
 50
89.9954838034553291
 51
94.9605631506696
  0
ARC
  5
3AEE5
  8
0
 10
2989.0603765709038271
 20
177.4220839951491087
 30
0.0
 40
0.2627559756464364
 50
73.3997147763997759
 51
87.5370891223086147
  0
ARC
  5
3AEE6
  8
0
 10
2989.07970397507097
 20
177.5225040066268889
 30
0.0
 40
0.161327053356818
 50
51.4615910714099627
 51
69.9732636275575857
  0
ARC
  5
3AEE7
  8
0
 10
2989.1260295948341081
 20
177.5803329672853863
 30
0.0
 40
0.0872313487828825
 50
30.663340913921239
 51
51.5967411933619715
  0
ARC
  5
3AEE8
  8
0
 10
2989.169728481032962
 20
177.6062945996795861
 30
0.0
 40
0.0364022818688277
 50
0.5236020367535872
 51
30.5916732677076091
  0
ARC
  5
3AEE9
  8
0
 10
2988.7381423084520975
 20
179.1153595815175095
 30
0.0
 40
1.6048538413628179
 50
269.9611439537209208
 51
276.5744961522962058
  0
ARC
  5
3AEEA
  8
0
 10
2988.7809547560677856
 20
178.7852130640266068
 30
0.0
 40
1.271985411773358
 50
276.3614001081803053
 51
283.9057763228638009
  0
ARC
  5
3AEEB
  8
0
 10
2988.9707356293338307
 20
178.0268895037004029
 30
0.0
 40
0.4902813167748898
 50
283.6750846641224939
 51
293.7330517493990101
  0
ARC
  5
3AEEC
  8
0
 10
2989.1246757345079459
 20
177.6820844642068948
 30
0.0
 40
0.1126994854612284
 50
292.6420971945079827
 51
314.788272877310817
  0
ARC
  5
3AEED
  8
0
 10
2989.198622363128834
 20
177.6073082479537959
 30
0.0
 40
0.0075377044096537
 50
316.2934245910404911
 51
354.8165919294788182
  0
ARC
  5
3AEEE
  8
0
 10
2988.7198686138772246
 20
177.6630273199583883
 30
0.0
 40
0.5463624096323149
 50
271.7968606724975871
 51
296.9328634966788059
  0
ARC
  5
3AEEF
  8
0
 10
2988.7336493416241865
 20
177.5415790382612897
 30
0.0
 40
0.4339529641681004
 50
302.5828940431078991
 51
336.2955698664127908
  0
ARC
  5
3AEF0
  8
0
 10
2988.3425886156178422
 20
177.7667586014875951
 30
0.0
 40
0.8839042931957388
 50
333.119788246513906
 51
345.0196477546880942
  0
ARC
  5
3AEF1
  8
0
 10
2988.8458046801551973
 20
177.6227816753358866
 30
0.0
 40
0.3606865060177795
 50
346.4508292790882251
 51
357.4329798356536116
  0
ARC
  5
3AEF3
  8
0
 10
2981.405956704055825
 20
180.2423805198164928
 30
0.0
 40
1.396962080516825
 50
90.9245004513173427
 51
110.2455497519835035
  0
ARC
  5
3AEF4
  8
0
 10
2981.360877082341176
 20
180.2423805198164075
 30
0.0
 40
1.3969620805169181
 50
69.7544502480165107
 51
89.0754995486826431
  0
ARC
  5
3AEF5
  8
0
 10
2981.4181155458791181
 20
180.255999190463001
 30
0.0
 40
1.3884858736187871
 50
110.9107681889799011
 51
131.4429796445834029
  0
ARC
  5
3AEF6
  8
0
 10
2977.9017535648399644
 20
185.8548726359900058
 30
0.0
 40
4.8794816484329591
 50
268.8971349789692908
 51
297.9360934736267836
  0
ARC
  5
3AEF7
  8
0
 10
2980.2216880095002125
 20
181.485018902814403
 30
0.0
 40
0.0680553793627914
 50
91.927100748014368
 51
119.9375324528151054
  0
ARC
  5
3AEF8
  8
0
 10
2980.2164412720521796
 20
181.4858941205384895
 30
0.0
 40
0.067206806180275
 50
47.5227478633274316
 51
87.4772519045559562
  0
LINE
  5
3AEF9
  8
0
 10
2980.2618258559991773
 20
181.5354621983404115
 30
0.0
 11
2981.1414261682689357
 21
180.6508687318890907
 31
0.0
  0
ARC
  5
3AEFA
  8
0
 10
2981.10269026188098
 20
180.6088672211512005
 30
0.0
 40
0.0571366550296598
 50
325.8191742749194191
 51
47.3161926661929328
  0
ARC
  5
3AEFB
  8
0
 10
2977.8180068952478905
 20
180.9358462222494097
 30
0.0
 40
0.0417078197786677
 50
104.1144423015532965
 51
219.2396372263924036
  0
LINE
  5
3AEFC
  8
0
 10
2977.7857038941988321
 20
180.9094633044178977
 30
0.0
 11
2980.5204204285491869
 21
178.1747467700679124
 31
0.0
  0
ARC
  5
3AEFD
  8
0
 10
2980.5451607223949395
 20
178.1995182644099884
 30
0.0
 40
0.0350101281282376
 50
225.0361056737536956
 51
355.6764891290407036
  0
ARC
  5
3AEFE
  8
0
 10
2985.6481317216807838
 20
178.2414613660820919
 30
0.0
 40
5.0682565864962603
 50
152.5631243242758046
 51
180.5040034309286057
  0
LINE
  5
3AEFF
  8
0
 10
2977.8820377221818489
 20
180.7636320017018932
 30
0.0
 11
2977.9067864595490391
 21
180.7883807390678896
 31
0.0
  0
LINE
  5
3AF00
  8
0
 10
2980.3745891258981828
 20
178.2710805980171074
 30
0.0
 11
2980.3993378631989799
 21
178.2958293354180057
 31
0.0
  0
LINE
  5
3AF01
  8
0
 10
2980.5186897751991637
 20
178.1269799487180023
 30
0.0
 11
2977.7379364253611129
 21
180.9077332985208102
 31
0.0
  0
ARC
  5
3AF02
  8
0
 10
2977.7131883354691126
 20
180.8829839136460009
 30
0.0
 40
0.0350000000719506
 50
45.0014990054190491
 51
125.9216635815734975
  0
ARC
  5
3AF03
  8
0
 10
2977.1191272831479182
 20
180.8254920420368137
 30
0.0
 40
0.0350000000000708
 50
228.5984647001417898
 51
260.9750992466978232
  0
ARC
  5
3AF04
  8
0
 10
2977.2853034248960284
 20
181.4178334657140965
 30
0.0
 40
0.6499870383287344
 50
254.6860803009593894
 51
308.8075564746591226
  0
ARC
  5
3AF05
  8
0
 10
2977.0722668916118892
 20
180.7629348431798064
 30
0.0
 40
0.0489703414124165
 50
94.6747593811672914
 51
226.4647149864146911
  0
ARC
  5
3AF06
  8
0
 10
2977.0662457836237991
 20
180.7702987121741103
 30
0.0
 40
0.0414932567934338
 50
44.2239117023487722
 51
87.1956920678915139
  0
LINE
  5
3AF07
  8
0
 10
2977.0385360636691985
 20
180.7274337786280114
 30
0.0
 11
2980.3160352111990505
 21
177.430751086709904
 31
0.0
  0
ARC
  5
3AF08
  8
0
 10
2980.3636722525479854
 20
177.4809556881116919
 30
0.0
 40
0.0692083066578486
 50
226.5032106540072903
 51
262.2619814053527989
  0
ARC
  5
3AF09
  8
0
 10
2980.3540103786408508
 20
177.4623722315386942
 30
0.0
 40
0.0499958238556913
 50
270.3935546951854008
 51
8.4272348615134263
  0
ARC
  5
3AF0A
  8
0
 10
2980.3526254924581735
 20
177.4604382190699994
 30
0.0
 40
0.0516774981546911
 50
10.3236786625857704
 51
42.6648870241786895
  0
LINE
  5
3AF0B
  8
0
 10
2980.390625510432983
 20
177.4954605326520891
 30
0.0
 11
2977.0959806643691081
 21
180.7992387748280123
 31
0.0
  0
ARC
  5
3AF0C
  8
0
 10
2980.4168787773987788
 20
177.5186071517179016
 30
0.0
 40
0.0350000000000075
 50
189.0249221893535037
 51
221.401535299896608
  0
ARC
  5
3AF0D
  8
0
 10
2981.0633924421431402
 20
177.6469685881999112
 30
0.0
 40
0.6941085972840482
 50
141.2214155262865916
 51
191.1185511856965036
  0
ARC
  5
3AF0E
  8
0
 10
2980.4939410365950607
 20
178.1022312112143879
 30
0.0
 40
0.03500000099547
 50
324.078337668095287
 51
44.9999986101083991
  0
ARC
  5
3AF0F
  8
0
 10
2980.4102991324921277
 20
177.5438982880492915
 30
0.0
 40
0.0334246836314461
 50
113.9078534983075031
 51
178.8749879609285927
  0
ARC
  5
3AF10
  8
0
 10
2980.286524995621221
 20
177.8732127307779933
 30
0.0
 40
0.3184437056505783
 50
290.2518066987205998
 51
335.8227814773596265
  0
ARC
  5
3AF11
  8
0
 10
2980.3312296383251123
 20
177.8186708766471043
 30
0.0
 40
0.2572517150736961
 50
342.8446071908015256
 51
48.5621590828715384
  0
ARC
  5
3AF12
  8
0
 10
2980.5290254080118757
 20
178.0333643611735113
 30
0.0
 40
0.0351515924853207
 50
153.8006563967979901
 51
218.4087186214462974
  0
ARC
  5
3AF13
  8
0
 10
2981.3833782435349349
 20
180.3240254235905979
 30
0.0
 40
0.68758835470883
 50
45.0028077518799492
 51
129.9247140079222049
  0
LINE
  5
3AF14
  8
0
 10
2983.4499364612238423
 20
179.2298639811926932
 30
0.0
 11
2981.8695528052489863
 21
180.8102476371678904
 31
0.0
  0
LINE
  5
3AF15
  8
0
 10
2983.8918781995021163
 20
179.6718057195143956
 30
0.0
 11
2982.3114945434990659
 21
181.2521893754179985
 31
0.0
  0
ARC
  5
3AF16
  8
0
 10
2981.3834168933158253
 20
180.3241117253458867
 30
0.0
 40
1.312499999745198
 50
44.9999999984051868
 51
69.442962786873963
  0
LINE
  5
3AF17
  8
0
 10
2983.3776139121268898
 20
179.15754143208909
 30
0.0
 11
2983.9642005584978506
 21
179.7441280785180027
 31
0.0
  0
LINE
  5
3AF18
  8
0
 10
2983.3731858441979057
 20
179.0776362553179126
 30
0.0
 11
2984.0441059253989806
 21
179.7485563365179075
 31
0.0
  0
LINE
  5
3AF19
  8
0
 10
2983.4719366627978161
 20
178.8157995563178986
 30
0.0
 11
2984.3059428397541524
 21
179.6498054909725965
 31
0.0
  0
ARC
  5
3AF1A
  8
0
 10
2983.4155681063562042
 20
179.1153628597284921
 30
0.0
 40
0.0567411034956724
 50
131.982318170219088
 51
221.6739034151067926
  0
ARC
  5
3AF1B
  8
0
 10
2983.0386177398390828
 20
178.8019149182501906
 30
0.0
 40
0.4335413154122829
 50
1.8352742589899429
 51
39.4923186650183169
  0
ARC
  5
3AF1C
  8
0
 10
2984.3476633780760494
 20
180.156931544935702
 30
0.0
 40
0.508839304619913
 50
233.3754788769292929
 51
265.2969489919584021
  0
ARC
  5
3AF1D
  8
0
 10
2984.0066000635879391
 20
179.7021907193154959
 30
0.0
 40
0.0596360639941489
 50
51.0300710417717909
 51
135.3139640540107109
  0
ARC
  5
3AF1E
  8
0
 10
2983.531932490939198
 20
178.8233976075057967
 30
0.0
 40
0.0604750343208224
 50
187.2176857867376043
 51
237.5939965112183074
  0
ARC
  5
3AF1F
  8
0
 10
2984.2985095797748727
 20
179.5902677159579071
 30
0.0
 40
0.0600000000634356
 50
32.1017387700275094
 51
82.883475547192063
  0
ARC
  5
3AF20
  8
0
 10
2980.9279914003191152
 20
174.6200948313654919
 30
0.0
 40
4.8840471650532731
 50
37.322485131880093
 51
58.2296080484619623
  0
ARC
  5
3AF21
  8
0
 10
3002.4324007278391946
 20
190.7876337980003996
 30
0.0
 40
22.0201572248088908
 50
216.8511795887525864
 51
225.592360775563094
  0
ARC
  5
3AF22
  8
0
 10
2987.7794663969689282
 20
175.3840123697449087
 30
0.0
 40
0.7327684196431452
 50
232.628146693512889
 51
255.9728231347037024
  0
ARC
  5
3AF23
  8
0
 10
2989.5293360937039324
 20
177.7939067235276127
 30
0.0
 40
3.7107891313721559
 50
227.5260292763944108
 51
233.7418798427642912
  0
LINE
  5
3AF24
  8
0
 10
2987.7389068814982238
 20
174.5614776200179108
 30
0.0
 11
2987.6488697666400185
 21
174.6470799533101115
 31
0.0
  0
ARC
  5
3AF25
  8
0
 10
2987.5786392103968865
 20
174.5756479864118091
 30
0.0
 40
0.1001741330142384
 50
45.4859020455150116
 51
76.5987714414648053
  0
ARC
  5
3AF26
  8
0
 10
2987.7613044397030535
 20
174.585212537122402
 30
0.0
 40
0.0326342903015903
 50
226.660512814799489
 51
269.3881365403631776
  0
ARC
  5
3AF27
  8
0
 10
2987.760619635292187
 20
174.5851722942300057
 30
0.0
 40
0.0325939216749954
 50
270.5911959423459052
 51
314.7924028099315024
  0
LINE
  5
3AF28
  8
0
 10
2987.7835833607068707
 20
174.5620415561263883
 30
0.0
 11
2988.5597005471981902
 21
175.3381587427180079
 31
0.0
  0
ARC
  5
3AF29
  8
0
 10
2988.5372762127140049
 20
175.3607836742328914
 30
0.0
 40
0.0318549572771852
 50
314.744872929531823
 51
43.8085573639860826
  0
LINE
  5
3AF2A
  8
0
 10
2988.5602645606982151
 20
175.3828352991178861
 30
0.0
 11
2988.4734562011981325
 21
175.4741409204179092
 31
0.0
  0
ARC
  5
3AF2B
  8
0
 10
2988.5459291781680804
 20
175.5430442418490031
 30
0.0
 40
0.1000000004754978
 50
193.3904089599822953
 51
223.553627787103494
  0
ARC
  5
3AF2C
  8
0
 10
2987.7287702067810642
 20
175.3364343701572068
 30
0.0
 40
0.7428849344460219
 50
14.2967781316120206
 51
35.4708150840639789
  0
ARC
  5
3AF2D
  8
0
 10
2983.4208664386510463
 20
172.0860889768424897
 30
0.0
 40
6.1391942691327941
 50
36.8455917925077827
 51
49.3721047433506683
  0
ARC
  5
3AF2E
  8
0
 10
2977.1337333049618792
 20
166.3614989294025861
 30
0.0
 40
14.6150688043070502
 50
45.2753440590963478
 51
55.2357069123475171
  0
ARC
  5
3AF2F
  8
0
 10
2988.4633591801621151
 20
182.1635406598583984
 30
0.0
 40
4.8356837862611961
 50
211.7051910320759873
 51
231.7145956148609969
  0
ARC
  5
3AF30
  8
0
 10
2978.1771280623679559
 20
179.6720498552874119
 30
0.0
 40
0.1910252370925011
 50
154.2049879885726114
 51
194.264453368101897
  0
ARC
  5
3AF31
  8
0
 10
2979.2836795903522216
 20
178.5598185931472131
 30
0.0
 40
0.1847369195335826
 50
255.2225964675116074
 51
294.587771143348391
  0
ARC
  5
3AF32
  8
0
 10
2978.3814666831290197
 20
178.956613427172698
 30
0.0
 40
0.183135936634051
 50
26.1109541720722191
 51
61.3433866474008482
  0
ARC
  5
3AF33
  8
0
 10
2978.6224087480500202
 20
179.18708136415529
 30
0.0
 40
0.1682618680102655
 50
204.4952636446764984
 51
242.959077174741509
  0
ARC
  5
3AF34
  8
0
 10
2978.4179274263728985
 20
178.7100658846393912
 30
0.0
 40
0.33984448055256
 50
27.8644898609593383
 51
63.7323525010921017
  0
ARC
  5
3AF35
  8
0
 10
2978.9174424673237809
 20
179.2237001546278918
 30
0.0
 40
0.4068307917700901
 50
210.8932603309592082
 51
240.7035820310775875
  0
ARC
  5
3AF36
  8
0
 10
2978.6572800419321538
 20
178.6753185290033059
 30
0.0
 40
0.186943110584837
 50
31.0126943718278483
 51
66.1593340728705357
  0
ARC
  5
3AF37
  8
0
 10
2978.897561831728126
 20
178.9477306443135092
 30
0.0
 40
0.1934396163035257
 50
211.6210985223023897
 51
245.5509299223961932
  0
ARC
  5
3AF38
  8
0
 10
2978.6327430719579752
 20
178.3713638923327949
 30
0.0
 40
0.4262861203720033
 50
35.738330594878768
 51
64.9919581965051236
  0
ARC
  5
3AF39
  8
0
 10
2979.2087390376541407
 20
179.0667616354596987
 30
0.0
 40
0.5021697547044929
 50
217.9869744312032083
 51
242.7433143601795962
  0
ARC
  5
3AF3A
  8
0
 10
2978.7955070534649167
 20
178.3331930909083098
 30
0.0
 40
0.3300985102716435
 50
41.4107885627063368
 51
62.5425821169568792
  0
ARC
  5
3AF3B
  8
0
 10
2979.2026081427561621
 20
178.8538219074866049
 30
0.0
 40
0.3417982534423965
 50
221.7764000752081017
 51
242.1769706044557893
  0
ARC
  5
3AF3C
  8
0
 10
2978.3790976430750561
 20
177.6236077290843127
 30
0.0
 40
1.134615430012295
 50
46.6416626941235535
 51
57.9734218815886919
  0
ARC
  5
3AF3D
  8
0
 10
2979.5579767534059101
 20
179.1493141049469102
 30
0.0
 40
0.8068328003579821
 50
224.3270515430691034
 51
240.288033032657296
  0
ARC
  5
3AF3E
  8
0
 10
2977.6090877811070641
 20
178.9709487740099974
 30
0.0
 40
0.7249903313489946
 50
29.3054358162891404
 51
46.874791545395901
  0
ARC
  5
3AF3F
  8
0
 10
2978.6897667580278721
 20
179.8180082574073992
 30
0.0
 40
0.6658745144620024
 50
208.5185100228449073
 51
227.6617173388318918
  0
ARC
  5
3AF40
  8
0
 10
2978.0605190140508967
 20
179.1570711143062908
 30
0.0
 40
0.2673840628171092
 50
26.0241989949347214
 51
51.5698403028896024
  0
ARC
  5
3AF41
  8
0
 10
2978.46452724662322
 20
179.4818674739426001
 30
0.0
 40
0.2643057709228267
 50
205.8728779061569014
 51
231.7211613916767874
  0
ARC
  5
3AF42
  8
0
 10
2978.0022172233270794
 20
178.933722581086613
 30
0.0
 40
0.4265567683884236
 50
35.5031655513100475
 51
46.5932790134259491
  0
ARC
  5
3AF43
  8
0
 10
2978.6394431326912127
 20
179.4885968861798915
 30
0.0
 40
0.4224061632753972
 50
215.4485059802157139
 51
226.6479385845279921
  0
ARC
  5
3AF44
  8
0
 10
2978.2493017446540762
 20
178.9101984736437032
 30
0.0
 40
0.268800127767401
 50
34.1071675608668912
 51
51.7989324937417877
  0
ARC
  5
3AF45
  8
0
 10
2978.6402213119340558
 20
179.2741384373211133
 30
0.0
 40
0.2716672968279954
 50
214.2012636923178093
 51
231.7048363623027001
  0
ARC
  5
3AF46
  8
0
 10
2978.4785240040027929
 20
178.2517456981373982
 30
0.0
 40
0.5721137543988944
 50
45.2398145783608427
 51
53.5308598052683422
  0
ARC
  5
3AF47
  8
0
 10
2979.2292000263128102
 20
179.1271209638840958
 30
0.0
 40
0.5840173060628036
 50
225.3244527264185137
 51
233.4462217914334872
  0
ARC
  5
3AF48
  8
0
 10
2978.5506601994179618
 20
178.568805355016508
 30
0.0
 40
0.2969872546025835
 50
39.7729128127377081
 51
55.788971007236448
  0
ARC
  5
3AF49
  8
0
 10
2978.9502586101098132
 20
179.0092065294828956
 30
0.0
 40
0.3034126667662236
 50
219.943577424152096
 51
235.6183063958108903
  0
ARC
  5
3AF4A
  8
0
 10
2978.4287726727420704
 20
178.7617414464332057
 30
0.0
 40
0.2470180990917832
 50
35.8164034985142976
 51
55.1002004062572865
  0
ARC
  5
3AF4B
  8
0
 10
2978.7699903681432261
 20
179.1084619932923943
 30
0.0
 40
0.2464305424246804
 50
215.7931943260817889
 51
235.1234095786930141
  0
ARC
  5
3AF4C
  8
0
 10
2978.2312261089628009
 20
179.3329465648068037
 30
0.0
 40
0.0143559795081587
 50
130.2962433371297095
 51
201.1723633034243903
  0
ARC
  5
3AF4D
  8
0
 10
2979.4070820867450493
 20
180.2220047704948911
 30
0.0
 40
1.4879414044198409
 50
216.9410904033113923
 51
226.7105532800557057
  0
LINE
  5
3AF4E
  8
0
 10
2978.3868240365231941
 20
179.1389336121933127
 30
0.0
 11
2978.8183865862988569
 21
178.7076764730178979
 31
0.0
  0
ARC
  5
3AF4F
  8
0
 10
2982.1835226279072231
 20
182.5733537441059866
 30
0.0
 40
5.1251928102987332
 50
228.9598896249470954
 51
230.6430816283101137
  0
LINE
  5
3AF50
  8
0
 10
2978.2387964367799214
 20
179.3270411087304979
 30
0.0
 11
2978.3632506577791901
 21
179.2026704370919106
 31
0.0
  0
LINE
  5
3AF51
  8
0
 10
2978.4126361685721349
 20
179.1533180800772129
 30
0.0
 11
2978.6206773390440503
 21
178.9454165730612942
 31
0.0
  0
LINE
  5
3AF52
  8
0
 10
2978.6393582415389574
 20
178.9267482115425878
 30
0.0
 11
2978.8361069592319836
 21
178.7301315763876914
 31
0.0
  0
LINE
  5
3AF53
  8
0
 10
2978.8723592960759561
 20
178.6939035766814925
 30
0.0
 11
2978.9807984973272141
 21
178.5855371734901098
 31
0.0
  0
ARC
  5
3AF54
  8
0
 10
2978.9480073674349114
 20
178.6350043262015106
 30
0.0
 40
0.0285352188845653
 50
239.1744423271273092
 51
267.9419752141301956
  0
ARC
  5
3AF55
  8
0
 10
2978.9446273812509389
 20
178.6384128327200074
 30
0.0
 40
0.0320120786184091
 50
274.2192644347297801
 51
293.3256432032144971
  0
ARC
  5
3AF56
  8
0
 10
2978.0900917238291186
 20
178.9553342733005081
 30
0.0
 40
0.3971252787292502
 50
25.5324529256488617
 51
56.5849422579264996
  0
ARC
  5
3AF57
  8
0
 10
2978.6718866676478683
 20
179.4621282596112053
 30
0.0
 40
0.4032053425422213
 50
205.7723436525749037
 51
236.3450515310030937
  0
ARC
  5
3AF58
  8
0
 10
2979.6788793518771854
 20
180.0680538531412083
 30
0.0
 40
1.591436885356577
 50
215.7200072745523016
 51
234.3205544740854123
  0
LINE
  5
3AF59
  8
0
 10
2977.9919923655220373
 20
179.624981660508297
 30
0.0
 11
2978.1532133619989509
 21
179.4126242090179062
 31
0.0
  0
LINE
  5
3AF5A
  8
0
 10
2978.1532133619989509
 20
179.4126242090179062
 30
0.0
 11
2978.2387964367799214
 21
179.3270411087304979
 31
0.0
  0
LINE
  5
3AF5B
  8
0
 10
2979.2365597714961041
 20
178.3811920214681948
 30
0.0
 11
2979.0620663499130387
 21
178.5085344281177981
 31
0.0
  0
ARC
  5
3AF5C
  8
0
 10
2979.4635762010789222
 20
179.013669492296799
 30
0.0
 40
0.645268621309263
 50
221.566947265894413
 51
231.5203414220372053
  0
LINE
  5
3AF5D
  8
0
 10
2978.9333851803230573
 20
178.6105002375452102
 30
0.0
 11
2978.2178391850197841
 21
179.3277615464864141
 31
0.0
  0
LINE
  5
3AF5E
  8
0
 10
2987.6488697666400185
 20
174.6470799533101115
 30
0.0
 11
2988.4734562011981325
 21
175.4741409204179092
 31
0.0
  0
ARC
  5
3AF5F
  8
0
 10
2987.9168329123958756
 20
174.6666523796548915
 30
0.0
 40
0.0206066202846706
 50
45.6969074835247469
 51
124.3346505665954993
  0
ARC
  5
3AF60
  8
0
 10
2984.5501870778321063
 20
175.6184223744787971
 30
0.0
 40
3.549999999860749
 50
343.1765635253336768
 51
344.1312133266059163
  0
LINE
  5
3AF61
  8
0
 10
2987.9701165599990418
 20
174.6128347077259946
 30
0.0
 11
2987.9701165599990418
 21
174.6425087383179005
 31
0.0
  0
LINE
  5
3AF62
  8
0
 10
2987.9701165599990418
 20
174.6425087383179005
 30
0.0
 11
2987.9312256870221063
 21
174.6813996112416874
 31
0.0
  0
LINE
  5
3AF63
  8
0
 10
2987.9701165599990418
 20
174.6425087383179005
 30
0.0
 11
2988.4792334423991633
 21
175.1516256207179083
 31
0.0
  0
LINE
  5
3AF64
  8
0
 10
2988.4792334423991633
 20
175.1516256207179083
 30
0.0
 11
2988.4403425694749785
 21
175.1905164936941901
 31
0.0
  0
LINE
  5
3AF65
  8
0
 10
2988.4792334423991633
 20
175.1516256207179083
 30
0.0
 11
2988.5089074729899039
 21
175.1516256207179083
 31
0.0
  0
ARC
  5
3AF66
  8
0
 10
2988.454484705098821
 20
175.2046586293180042
 30
0.0
 40
0.0199999999999969
 50
135.0000000036939127
 51
224.9999999999930935
  0
ARC
  5
3AF67
  8
0
 10
2980.9799199125559426
 20
178.2787818793289887
 30
0.0
 40
0.0614795860010623
 50
143.8400340282155128
 51
179.7687560678704983
  0
ARC
  5
3AF68
  8
0
 10
2981.0254148025851464
 20
177.980820476034296
 30
0.0
 40
0.0650027595594748
 50
194.2872666190376947
 51
247.0984531317637902
  0
ARC
  5
3AF69
  8
0
 10
2982.3615800681618566
 20
178.32080438582949
 30
0.0
 40
1.4437437332167591
 50
181.6580710105889125
 51
194.2763398414633116
  0
LINE
  5
3AF6A
  8
0
 10
2981.0001190553989545
 20
177.9209415655180067
 30
0.0
 11
2982.1695451566988595
 21
177.4269566400178917
 31
0.0
  0
LINE
  5
3AF6B
  8
0
 10
2981.0747211538991905
 20
177.8894284053199044
 30
0.0
 11
2981.0304344901528566
 21
177.7845871888372073
 31
0.0
  0
LINE
  5
3AF6C
  8
0
 10
2981.0304344901528566
 20
177.7845871888372073
 30
0.0
 11
2981.068369826397884
 21
177.7685626754179111
 31
0.0
  0
LINE
  5
3AF6D
  8
0
 10
2981.068369826397884
 20
177.7685626754179111
 30
0.0
 11
2981.0047597391971976
 21
177.6179765089173088
 31
0.0
  0
LINE
  5
3AF6E
  8
0
 10
2981.0047597391971976
 20
177.6179765089173088
 30
0.0
 11
2981.9437734882981204
 21
177.2196606544179076
 31
0.0
  0
LINE
  5
3AF6F
  8
0
 10
2981.9437734882981204
 20
177.2196606544179076
 30
0.0
 11
2982.0079789400988375
 21
177.3716562463179116
 31
0.0
  0
LINE
  5
3AF70
  8
0
 10
2982.0079789400988375
 20
177.3716562463179116
 30
0.0
 11
2982.0459142761988005
 21
177.3556317329179137
 31
0.0
  0
LINE
  5
3AF71
  8
0
 10
2982.0459142761988005
 20
177.3556317329179137
 30
0.0
 11
2982.0902009400169845
 21
177.4604729493620141
 31
0.0
  0
LINE
  5
3AF72
  8
0
 10
2981.027774782016877
 20
177.6082138654458049
 30
0.0
 11
2981.026415761798944
 21
177.6049966140180061
 31
0.0
  0
LINE
  5
3AF73
  8
0
 10
2981.026415761798944
 20
177.6049966140180061
 30
0.0
 11
2981.9199656044520452
 21
177.2275463805515017
 31
0.0
  0
LINE
  5
3AF74
  8
0
 10
2981.9199656044520452
 20
177.2275463805515017
 30
0.0
 11
2981.9207584453961317
 21
177.2294232979243134
 31
0.0
  0
ARC
  5
3AF75
  8
0
 10
2982.1948458367660351
 20
177.4869558219319003
 30
0.0
 40
0.065115483890099
 50
247.1356376350641995
 51
318.0756312028241837
  0
ARC
  5
3AF76
  8
0
 10
2985.049060591781199
 20
174.983059281192908
 30
0.0
 40
3.731735006925748
 50
108.4930886865316069
 51
138.7523314475496079
  0
ARC
  5
3AF77
  8
0
 10
2981.5254341369368376
 20
180.5203351098896007
 30
0.0
 40
2.3220442365293308
 50
254.8465707613260065
 51
279.6011319266991109
  0
ARC
  5
3AF78
  8
0
 10
2981.5488517544031311
 20
180.0562572789064006
 30
0.0
 40
1.861353660354039
 50
281.2732237080714981
 51
300.2791176744162271
  0
ARC
  5
3AF79
  8
0
 10
2985.1947346964871031
 20
174.5532036968216971
 30
0.0
 40
4.7440205815574679
 50
111.6858783211173005
 51
124.7983450772119056
  0
ARC
  5
3AF7A
  8
0
 10
2984.406472740179197
 20
176.5111637891440068
 30
0.0
 40
2.6035289599101068
 50
41.5281526694659675
 51
82.950758768989445
  0
ARC
  5
3AF7B
  8
0
 10
2983.3735564607991364
 20
175.6509306149538077
 30
0.0
 40
3.9473363848241121
 50
21.5892671055272203
 51
40.9357152237636868
  0
LINE
  5
3AF7C
  8
0
 10
2987.5992023898811567
 20
173.13134450480959
 30
0.0
 11
2989.8747969684582131
 21
173.13134450480959
 31
0.0
  0
ENDSEC
  0
EOF
